  0
SECTION
  2
HEADER
  9
$ACADVER
  1
AC1009
  9
$INSBASE
 10
0.0
 20
0.0
 30
0.0
  9
$EXTMIN
 10
-605.20235097354339
 20
-199.4675550490681
 30
0.0
  9
$EXTMAX
 10
605.20003174437534
 20
360.85410982202001
 30
0.0
  9
$LIMMIN
 10
0.0
 20
0.0
  9
$LIMMAX
 10
12.0
 20
9.0
  9
$ORTHOMODE
 70
     0
  9
$REGENMODE
 70
     1
  9
$FILLMODE
 70
     1
  9
$QTEXTMODE
 70
     0
  9
$MIRRTEXT
 70
     0
  9
$DRAGMODE
 70
     2
  9
$LTSCALE
 40
1.0
  9
$OSMODE
 70
     0
  9
$ATTMODE
 70
     1
  9
$TEXTSIZE
 40
0.2
  9
$TRACEWID
 40
0.05
  9
$TEXTSTYLE
  7
STANDARD
  9
$CLAYER
  8
0
  9
$CELTYPE
  6
CONTINUOUS
  9
$CECOLOR
 62
   256
  9
$DIMSCALE
 40
1.0
  9
$DIMASZ
 40
0.18
  9
$DIMEXO
 40
0.0625
  9
$DIMDLI
 40
0.38
  9
$DIMRND
 40
0.0
  9
$DIMDLE
 40
0.0
  9
$DIMEXE
 40
0.18
  9
$DIMTP
 40
0.0
  9
$DIMTM
 40
0.0
  9
$DIMTXT
 40
0.18
  9
$DIMCEN
 40
0.09
  9
$DIMTSZ
 40
0.0
  9
$DIMTOL
 70
     0
  9
$DIMLIM
 70
     0
  9
$DIMTIH
 70
     1
  9
$DIMTOH
 70
     1
  9
$DIMSE1
 70
     0
  9
$DIMSE2
 70
     0
  9
$DIMTAD
 70
     0
  9
$DIMZIN
 70
     0
  9
$DIMBLK
  1

  9
$DIMASO
 70
     1
  9
$DIMSHO
 70
     1
  9
$DIMPOST
  1

  9
$DIMAPOST
  1

  9
$DIMALT
 70
     0
  9
$DIMALTD
 70
     2
  9
$DIMALTF
 40
25.399999999999999
  9
$DIMLFAC
 40
1.0
  9
$DIMTOFL
 70
     0
  9
$DIMTVP
 40
0.0
  9
$DIMTIX
 70
     0
  9
$DIMSOXD
 70
     0
  9
$DIMSAH
 70
     0
  9
$DIMBLK1
  1

  9
$DIMBLK2
  1

  9
$DIMSTYLE
  2
STANDARD
  9
$DIMCLRD
 70
     0
  9
$DIMCLRE
 70
     0
  9
$DIMCLRT
 70
     0
  9
$DIMTFAC
 40
1.0
  9
$DIMGAP
 40
0.09
  9
$LUNITS
 70
     2
  9
$LUPREC
 70
     4
  9
$SKETCHINC
 40
0.1
  9
$FILLETRAD
 40
0.0
  9
$AUNITS
 70
     0
  9
$AUPREC
 70
     0
  9
$MENU
  1
.
  9
$ELEVATION
 40
0.0
  9
$PELEVATION
 40
0.0
  9
$THICKNESS
 40
0.0
  9
$LIMCHECK
 70
     0
  9
$BLIPMODE
 70
     0
  9
$CHAMFERA
 40
0.0
  9
$CHAMFERB
 40
0.0
  9
$SKPOLY
 70
     0
  9
$TDCREATE
 40
2458069.9976331722
  9
$TDUPDATE
 40
2458070.07982272
  9
$TDINDWG
 40
0.0034465509
  9
$TDUSRTIMER
 40
0.0034465509
  9
$USRTIMER
 70
     1
  9
$ANGBASE
 50
0.0
  9
$ANGDIR
 70
     0
  9
$PDMODE
 70
     0
  9
$PDSIZE
 40
0.0
  9
$PLINEWID
 40
0.0
  9
$COORDS
 70
     2
  9
$SPLFRAME
 70
     0
  9
$SPLINETYPE
 70
     6
  9
$SPLINESEGS
 70
     8
  9
$ATTDIA
 70
     1
  9
$ATTREQ
 70
     0
  9
$HANDLING
 70
     1
  9
$HANDSEED
  5
6AE
  9
$SURFTAB1
 70
     6
  9
$SURFTAB2
 70
     6
  9
$SURFTYPE
 70
     6
  9
$SURFU
 70
     6
  9
$SURFV
 70
     6
  9
$UCSNAME
  2

  9
$UCSORG
 10
0.0
 20
0.0
 30
0.0
  9
$UCSXDIR
 10
1.0
 20
0.0
 30
0.0
  9
$UCSYDIR
 10
0.0
 20
1.0
 30
0.0
  9
$PUCSNAME
  2

  9
$PUCSORG
 10
0.0
 20
0.0
 30
0.0
  9
$PUCSXDIR
 10
1.0
 20
0.0
 30
0.0
  9
$PUCSYDIR
 10
0.0
 20
1.0
 30
0.0
  9
$USERI1
 70
     0
  9
$USERI2
 70
     0
  9
$USERI3
 70
     0
  9
$USERI4
 70
     0
  9
$USERI5
 70
     0
  9
$USERR1
 40
0.0
  9
$USERR2
 40
0.0
  9
$USERR3
 40
0.0
  9
$USERR4
 40
0.0
  9
$USERR5
 40
0.0
  9
$WORLDVIEW
 70
     1
  9
$SHADEDGE
 70
     3
  9
$SHADEDIF
 70
    70
  9
$TILEMODE
 70
     1
  9
$MAXACTVP
 70
    64
  9
$PLIMCHECK
 70
     0
  9
$PEXTMIN
 10
25.699999999999989
 20
19.5
 30
0.0
  9
$PEXTMAX
 10
231.30000000000001
 20
175.5
 30
0.0
  9
$PLIMMIN
 10
-20.0
 20
-7.5
  9
$PLIMMAX
 10
277.0
 20
202.5
  9
$UNITMODE
 70
     0
  9
$VISRETAIN
 70
     1
  9
$PLINEGEN
 70
     0
  9
$PSLTSCALE
 70
     1
  0
ENDSEC
  0
SECTION
  2
TABLES
  0
TABLE
  2
VPORT
 70
     1
  0
VPORT
  2
*ACTIVE
 70
     0
 10
0.0
 20
0.0
 11
1.0
 21
1.0
 12
123.99175731084109
 22
79.391739942945549
 13
0.0
 23
0.0
 14
1.0
 24
1.0
 15
0.0
 25
0.0
 16
0.0
 26
0.0
 36
1.0
 17
0.0
 27
0.0
 37
0.0
 40
557.7185899840274
 41
2.6232876712328759
 42
50.0
 43
0.0
 44
0.0
 50
0.0
 51
0.0
 71
     0
 72
  1000
 73
     1
 74
     1
 75
     0
 76
     0
 77
     0
 78
     0
  0
ENDTAB
  0
TABLE
  2
LTYPE
 70
     2
  0
LTYPE
  2
CONTINUOUS
 70
     0
  3
Solid line
 72
    65
 73
     0
 40
0.0
  0
LTYPE
  2
DASH
 70
     0
  3

 72
    65
 73
     2
 40
6.3499999999999988
 49
3.1749999999999989
 49
-3.1749999999999989
  0
ENDTAB
  0
TABLE
  2
LAYER
 70
     7
  0
LAYER
  2
0
 70
     0
 62
     7
  6
CONTINUOUS
  0
ENDTAB
  0
TABLE
  2
STYLE
 70
     2
  0
STYLE
  2
STANDARD
 70
     0
 40
0.0
 41
1.0
 50
0.0
 71
     0
 42
0.2
  3
txt
  4

  0
STYLE
  2
ARIAL
 70
     0
 40
9.8353293413173617
 41
1.0
 50
0.0
 71
     0
 42
0.2
  3
txt
  4

  0
ENDTAB
  0
TABLE
  2
VIEW
 70
     1
  0
ENDTAB
  0
TABLE
  2
UCS
 70
     0
  0
ENDTAB
  0
TABLE
  2
APPID
 70
     6
  0
APPID
  2
ACAD
 70
     0
  0
APPID
  2
ACADANNOTATIVE
 70
     0
  0
APPID
  2
REVIT
 70
     0
  0
APPID
  2
ACAD_PSEXT
 70
     0
  0
APPID
  2
ACAD_MLEADERVER
 70
     0
  0
APPID
  2
ACAD_NAV_VCDISPLAY
 70
     0
  0
ENDTAB
  0
TABLE
  2
DIMSTYLE
 70
     1
  0
DIMSTYLE
  2
STANDARD
 70
     0
  3

  4

  5

  6

  7

 40
1.0
 41
0.18
 42
0.0625
 43
0.38
 44
0.18
 45
0.0
 46
0.0
 47
0.0
 48
0.0
140
0.18
141
0.09
142
0.0
143
25.399999999999999
144
1.0
145
0.0
146
1.0
147
0.09
 71
     0
 72
     0
 73
     1
 74
     1
 75
     0
 76
     0
 77
     0
 78
     0
170
     0
171
     2
172
     0
173
     0
174
     0
175
     0
176
     0
177
     0
178
     0
  0
ENDTAB
  0
ENDSEC
  0
SECTION
  2
BLOCKS
  0
BLOCK
  8
0
  2
$MODEL_SPACE
 70
     0
 10
0.0
 20
0.0
 30
0.0
  3
$MODEL_SPACE
  1

  0
ENDBLK
  5
72
  8
0
  0
BLOCK
 67
     1
  8
0
  2
$PAPER_SPACE
 70
     0
 10
0.0
 20
0.0
 30
0.0
  3
$PAPER_SPACE
  1

  0
ENDBLK
  5
403
 67
     1
  8
0
  0
BLOCK
  8
0
  2
*U23
 70
     1
 10
0.0
 20
0.0
 30
0.0
  3
*U23
  1

  0
SOLID
  5
5C4
  8
0
  6
CONTINUOUS
 10
16.449667196628649
 20
166.71626169819501
 30
0.0
 11
15.68430033189847
 21
166.56402076321751
 31
0.0
 12
17.215034061358828
 22
166.56402076321751
 32
0.0
 13
17.215034061358828
 23
166.56402076321751
 33
0.0
210
0.0
220
0.0
230
1.0
  0
SOLID
  5
5C5
  8
0
  6
CONTINUOUS
 10
15.68430033189847
 20
166.56402076321751
 30
0.0
 11
15.03545363425556
 21
166.13047526056801
 31
0.0
 12
17.863880759001781
 22
166.13047526056801
 32
0.0
 13
17.863880759001781
 23
166.13047526056801
 33
0.0
210
0.0
220
0.0
230
1.0
  0
SOLID
  5
5C6
  8
0
  6
CONTINUOUS
 10
-15.68430033189847
 20
166.56402076321751
 30
0.0
 11
-17.215034061358828
 21
166.56402076321751
 31
0.0
 12
-17.863880759001781
 22
166.13047526056801
 32
0.0
 13
-17.863880759001781
 23
166.13047526056801
 33
0.0
210
0.0
220
0.0
230
-1.0
  0
SOLID
  5
5C7
  8
0
  6
CONTINUOUS
 10
15.03545363425556
 20
166.13047526056801
 30
0.0
 11
14.601908131606081
 21
165.4816285629251
 31
0.0
 12
18.297426261651221
 22
165.4816285629251
 32
0.0
 13
18.297426261651221
 23
165.4816285629251
 33
0.0
210
0.0
220
0.0
230
1.0
  0
SOLID
  5
5C8
  8
0
  6
CONTINUOUS
 10
-15.03545363425556
 20
166.13047526056801
 30
0.0
 11
-17.863880759001759
 21
166.13047526056801
 31
0.0
 12
-18.297426261651221
 22
165.4816285629251
 32
0.0
 13
-18.297426261651221
 23
165.4816285629251
 33
0.0
210
0.0
220
0.0
230
-1.0
  0
SOLID
  5
5C9
  8
0
  6
CONTINUOUS
 10
14.601908131606081
 20
165.4816285629251
 30
0.0
 11
14.449667196628649
 21
164.7162616981949
 31
0.0
 12
18.449667196628639
 22
164.7162616981949
 32
0.0
 13
18.449667196628639
 23
164.7162616981949
 33
0.0
210
0.0
220
0.0
230
1.0
  0
SOLID
  5
5CA
  8
0
  6
CONTINUOUS
 10
-14.601908131606081
 20
165.4816285629251
 30
0.0
 11
-18.297426261651221
 21
165.4816285629251
 31
0.0
 12
-18.449667196628639
 22
164.7162616981949
 32
0.0
 13
-18.449667196628639
 23
164.7162616981949
 33
0.0
210
0.0
220
0.0
230
-1.0
  0
SOLID
  5
5CB
  8
0
  6
CONTINUOUS
 10
14.449667196628649
 20
164.7162616981949
 30
0.0
 11
14.601908131606081
 21
163.95089483346479
 31
0.0
 12
18.297426261651221
 22
163.95089483346479
 32
0.0
 13
18.297426261651221
 23
163.95089483346479
 33
0.0
210
0.0
220
0.0
230
1.0
  0
SOLID
  5
5CC
  8
0
  6
CONTINUOUS
 10
-14.449667196628649
 20
164.7162616981949
 30
0.0
 11
-18.449667196628639
 21
164.7162616981949
 31
0.0
 12
-18.297426261651221
 22
163.95089483346479
 32
0.0
 13
-18.297426261651221
 23
163.95089483346479
 33
0.0
210
0.0
220
0.0
230
-1.0
  0
SOLID
  5
5CD
  8
0
  6
CONTINUOUS
 10
14.601908131606081
 20
163.95089483346479
 30
0.0
 11
15.03545363425556
 21
163.30204813582191
 31
0.0
 12
17.86388075900172
 22
163.30204813582191
 32
0.0
 13
17.86388075900172
 23
163.30204813582191
 33
0.0
210
0.0
220
0.0
230
1.0
  0
SOLID
  5
5CE
  8
0
  6
CONTINUOUS
 10
-14.601908131606081
 20
163.95089483346479
 30
0.0
 11
-18.297426261651221
 21
163.95089483346479
 31
0.0
 12
-17.86388075900172
 22
163.30204813582191
 32
0.0
 13
-17.86388075900172
 23
163.30204813582191
 33
0.0
210
0.0
220
0.0
230
-1.0
  0
SOLID
  5
5CF
  8
0
  6
CONTINUOUS
 10
-15.68430033189847
 20
162.8685026331724
 30
0.0
 11
-17.215034061358828
 21
162.8685026331724
 31
0.0
 12
-16.449667196628649
 22
162.71626169819501
 32
0.0
 13
-16.449667196628649
 23
162.71626169819501
 33
0.0
210
0.0
220
0.0
230
-1.0
  0
SOLID
  5
5D0
  8
0
  6
CONTINUOUS
 10
15.03545363425556
 20
163.30204813582191
 30
0.0
 11
15.68430033189847
 21
162.8685026331724
 31
0.0
 12
17.215034061358828
 22
162.8685026331724
 32
0.0
 13
17.215034061358828
 23
162.8685026331724
 33
0.0
210
0.0
220
0.0
230
1.0
  0
SOLID
  5
5D1
  8
0
  6
CONTINUOUS
 10
-15.03545363425556
 20
163.30204813582191
 30
0.0
 11
-17.863880759001699
 21
163.30204813582191
 31
0.0
 12
-17.215034061358828
 22
162.8685026331724
 32
0.0
 13
-17.215034061358828
 23
162.8685026331724
 33
0.0
210
0.0
220
0.0
230
-1.0
  0
LINE
  5
5D2
  8
0
  6
CONTINUOUS
 10
16.449667196628649
 20
166.71626169819501
 30
0.0
 11
15.68430033189847
 21
166.56402076321751
 31
0.0
  0
LINE
  5
5D3
  8
0
  6
CONTINUOUS
 10
17.215034061358828
 20
166.56402076321751
 30
0.0
 11
16.449667196628649
 21
166.71626169819501
 31
0.0
  0
LINE
  5
5D4
  8
0
  6
CONTINUOUS
 10
15.68430033189847
 20
166.56402076321751
 30
0.0
 11
15.03545363425556
 21
166.13047526056801
 31
0.0
  0
LINE
  5
5D5
  8
0
  6
CONTINUOUS
 10
17.215034061358828
 20
166.56402076321751
 30
0.0
 11
17.863880759001781
 21
166.13047526056801
 31
0.0
  0
LINE
  5
5D6
  8
0
  6
CONTINUOUS
 10
15.03545363425556
 20
166.13047526056801
 30
0.0
 11
14.601908131606081
 21
165.4816285629251
 31
0.0
  0
LINE
  5
5D7
  8
0
  6
CONTINUOUS
 10
17.863880759001759
 20
166.13047526056801
 30
0.0
 11
18.297426261651221
 21
165.4816285629251
 31
0.0
  0
LINE
  5
5D8
  8
0
  6
CONTINUOUS
 10
14.601908131606081
 20
165.4816285629251
 30
0.0
 11
14.449667196628649
 21
164.7162616981949
 31
0.0
  0
LINE
  5
5D9
  8
0
  6
CONTINUOUS
 10
18.297426261651221
 20
165.4816285629251
 30
0.0
 11
18.449667196628639
 21
164.7162616981949
 31
0.0
  0
LINE
  5
5DA
  8
0
  6
CONTINUOUS
 10
14.449667196628649
 20
164.7162616981949
 30
0.0
 11
14.601908131606081
 21
163.95089483346479
 31
0.0
  0
LINE
  5
5DB
  8
0
  6
CONTINUOUS
 10
18.449667196628639
 20
164.7162616981949
 30
0.0
 11
18.297426261651221
 21
163.95089483346479
 31
0.0
  0
LINE
  5
5DC
  8
0
  6
CONTINUOUS
 10
14.601908131606081
 20
163.95089483346479
 30
0.0
 11
15.03545363425556
 21
163.30204813582191
 31
0.0
  0
LINE
  5
5DD
  8
0
  6
CONTINUOUS
 10
18.297426261651221
 20
163.95089483346479
 30
0.0
 11
17.86388075900172
 21
163.30204813582191
 31
0.0
  0
LINE
  5
5DE
  8
0
  6
CONTINUOUS
 10
17.215034061358828
 20
162.8685026331724
 30
0.0
 11
16.449667196628649
 21
162.71626169819501
 31
0.0
  0
LINE
  5
5DF
  8
0
  6
CONTINUOUS
 10
16.449667196628649
 20
162.71626169819501
 30
0.0
 11
15.68430033189847
 21
162.8685026331724
 31
0.0
  0
LINE
  5
5E0
  8
0
  6
CONTINUOUS
 10
15.03545363425556
 20
163.30204813582191
 30
0.0
 11
15.68430033189847
 21
162.8685026331724
 31
0.0
  0
LINE
  5
5E1
  8
0
  6
CONTINUOUS
 10
17.863880759001699
 20
163.30204813582191
 30
0.0
 11
17.215034061358828
 21
162.8685026331724
 31
0.0
  0
ENDBLK
  5
5E3
  8
0
  0
BLOCK
  8
0
  2
*U24
 70
     1
 10
0.0
 20
0.0
 30
0.0
  3
*U24
  1

  0
TEXT
  5
5E5
  8
0
  6
CONTINUOUS
 10
320.81534054946252
 20
348.41570559364192
 30
0.0
 40
9.8353293413173617
  1
CF Trim 400
  7
ARIAL
  0
ENDBLK
  5
5E7
  8
0
  0
BLOCK
  8
0
  2
*U25
 70
     1
 10
0.0
 20
0.0
 30
0.0
  3
*U25
  1

  0
SOLID
  5
5E9
  8
0
  6
CONTINUOUS
 10
66.979319876751944
 20
138.09463497106009
 30
0.0
 11
66.213953012021761
 21
137.9423940360827
 31
0.0
 12
67.744686741482127
 22
137.9423940360827
 32
0.0
 13
67.744686741482127
 23
137.9423940360827
 33
0.0
210
0.0
220
0.0
230
1.0
  0
SOLID
  5
5EA
  8
0
  6
CONTINUOUS
 10
66.213953012021761
 20
137.9423940360827
 30
0.0
 11
65.565106314378852
 21
137.50884853343319
 31
0.0
 12
68.393533439125036
 22
137.50884853343319
 32
0.0
 13
68.393533439125036
 23
137.50884853343319
 33
0.0
210
0.0
220
0.0
230
1.0
  0
SOLID
  5
5EB
  8
0
  6
CONTINUOUS
 10
-66.213953012021761
 20
137.9423940360827
 30
0.0
 11
-67.744686741482127
 21
137.9423940360827
 31
0.0
 12
-68.393533439125036
 22
137.50884853343319
 32
0.0
 13
-68.393533439125036
 23
137.50884853343319
 33
0.0
210
0.0
220
0.0
230
-1.0
  0
SOLID
  5
5EC
  8
0
  6
CONTINUOUS
 10
65.565106314378852
 20
137.50884853343319
 30
0.0
 11
65.131560811729372
 21
136.86000183579031
 31
0.0
 12
68.827078941774516
 22
136.86000183579031
 32
0.0
 13
68.827078941774516
 23
136.86000183579031
 33
0.0
210
0.0
220
0.0
230
1.0
  0
SOLID
  5
5ED
  8
0
  6
CONTINUOUS
 10
-65.565106314378852
 20
137.50884853343319
 30
0.0
 11
-68.393533439125036
 21
137.50884853343319
 31
0.0
 12
-68.827078941774516
 22
136.86000183579031
 32
0.0
 13
-68.827078941774516
 23
136.86000183579031
 33
0.0
210
0.0
220
0.0
230
-1.0
  0
SOLID
  5
5EE
  8
0
  6
CONTINUOUS
 10
65.131560811729372
 20
136.86000183579031
 30
0.0
 11
64.979319876751944
 21
136.09463497106009
 31
0.0
 12
68.979319876751944
 22
136.09463497106009
 32
0.0
 13
68.979319876751944
 23
136.09463497106009
 33
0.0
210
0.0
220
0.0
230
1.0
  0
SOLID
  5
5EF
  8
0
  6
CONTINUOUS
 10
-65.131560811729372
 20
136.86000183579031
 30
0.0
 11
-68.827078941774516
 21
136.86000183579031
 31
0.0
 12
-68.979319876751944
 22
136.09463497106009
 32
0.0
 13
-68.979319876751944
 23
136.09463497106009
 33
0.0
210
0.0
220
0.0
230
-1.0
  0
SOLID
  5
5F0
  8
0
  6
CONTINUOUS
 10
64.979319876751944
 20
136.09463497106009
 30
0.0
 11
65.131560811729372
 21
135.32926810632989
 31
0.0
 12
68.827078941774516
 22
135.32926810632989
 32
0.0
 13
68.827078941774516
 23
135.32926810632989
 33
0.0
  0
SOLID
  5
5F1
  8
0
  6
CONTINUOUS
 10
-64.979319876751944
 20
136.09463497106009
 30
0.0
 11
-68.979319876751944
 21
136.09463497106009
 31
0.0
 12
-68.827078941774516
 22
135.32926810632989
 32
0.0
 13
-68.827078941774516
 23
135.32926810632989
 33
0.0
210
0.0
220
0.0
230
-1.0
  0
SOLID
  5
5F2
  8
0
  6
CONTINUOUS
 10
65.131560811729372
 20
135.32926810632989
 30
0.0
 11
65.565106314378852
 21
134.68042140868701
 31
0.0
 12
68.393533439125036
 22
134.68042140868701
 32
0.0
 13
68.393533439125036
 23
134.68042140868701
 33
0.0
210
0.0
220
0.0
230
1.0
  0
SOLID
  5
5F3
  8
0
  6
CONTINUOUS
 10
-65.131560811729372
 20
135.32926810632989
 30
0.0
 11
-68.827078941774516
 21
135.32926810632989
 31
0.0
 12
-68.393533439125036
 22
134.68042140868701
 32
0.0
 13
-68.393533439125036
 23
134.68042140868701
 33
0.0
210
0.0
220
0.0
230
-1.0
  0
SOLID
  5
5F4
  8
0
  6
CONTINUOUS
 10
-66.213953012021761
 20
134.2468759060375
 30
0.0
 11
-67.744686741482127
 21
134.2468759060375
 31
0.0
 12
-66.979319876751944
 22
134.09463497106009
 32
0.0
 13
-66.979319876751944
 23
134.09463497106009
 33
0.0
210
0.0
220
0.0
230
-1.0
  0
SOLID
  5
5F5
  8
0
  6
CONTINUOUS
 10
65.565106314378852
 20
134.68042140868701
 30
0.0
 11
66.213953012021761
 21
134.2468759060375
 31
0.0
 12
67.744686741482127
 22
134.2468759060375
 32
0.0
 13
67.744686741482127
 23
134.2468759060375
 33
0.0
210
0.0
220
0.0
230
1.0
  0
SOLID
  5
5F6
  8
0
  6
CONTINUOUS
 10
-65.565106314378852
 20
134.68042140868701
 30
0.0
 11
-68.393533439125036
 21
134.68042140868701
 31
0.0
 12
-67.744686741482127
 22
134.2468759060375
 32
0.0
 13
-67.744686741482127
 23
134.2468759060375
 33
0.0
210
0.0
220
0.0
230
-1.0
  0
LINE
  5
5F7
  8
0
  6
CONTINUOUS
 10
66.979319876751944
 20
138.09463497106009
 30
0.0
 11
66.213953012021761
 21
137.9423940360827
 31
0.0
  0
LINE
  5
5F8
  8
0
  6
CONTINUOUS
 10
67.744686741482127
 20
137.9423940360827
 30
0.0
 11
66.979319876751944
 21
138.09463497106009
 31
0.0
  0
LINE
  5
5F9
  8
0
  6
CONTINUOUS
 10
66.213953012021761
 20
137.9423940360827
 30
0.0
 11
65.565106314378852
 21
137.50884853343319
 31
0.0
  0
LINE
  5
5FA
  8
0
  6
CONTINUOUS
 10
67.744686741482127
 20
137.9423940360827
 30
0.0
 11
68.393533439125036
 21
137.50884853343319
 31
0.0
  0
LINE
  5
5FB
  8
0
  6
CONTINUOUS
 10
65.565106314378852
 20
137.50884853343319
 30
0.0
 11
65.131560811729372
 21
136.86000183579031
 31
0.0
  0
LINE
  5
5FC
  8
0
  6
CONTINUOUS
 10
68.393533439125036
 20
137.50884853343319
 30
0.0
 11
68.827078941774516
 21
136.86000183579031
 31
0.0
  0
LINE
  5
5FD
  8
0
  6
CONTINUOUS
 10
65.131560811729372
 20
136.86000183579031
 30
0.0
 11
64.979319876751944
 21
136.09463497106009
 31
0.0
  0
LINE
  5
5FE
  8
0
  6
CONTINUOUS
 10
68.827078941774516
 20
136.86000183579031
 30
0.0
 11
68.979319876751944
 21
136.09463497106009
 31
0.0
  0
LINE
  5
5FF
  8
0
  6
CONTINUOUS
 10
64.979319876751944
 20
136.09463497106009
 30
0.0
 11
65.131560811729372
 21
135.32926810632989
 31
0.0
  0
LINE
  5
600
  8
0
  6
CONTINUOUS
 10
68.979319876751944
 20
136.09463497106009
 30
0.0
 11
68.827078941774516
 21
135.32926810632989
 31
0.0
  0
LINE
  5
601
  8
0
  6
CONTINUOUS
 10
65.131560811729372
 20
135.32926810632989
 30
0.0
 11
65.565106314378852
 21
134.68042140868701
 31
0.0
  0
LINE
  5
602
  8
0
  6
CONTINUOUS
 10
68.827078941774516
 20
135.32926810632989
 30
0.0
 11
68.393533439125036
 21
134.68042140868701
 31
0.0
  0
LINE
  5
603
  8
0
  6
CONTINUOUS
 10
67.744686741482127
 20
134.2468759060375
 30
0.0
 11
66.979319876751944
 21
134.09463497106009
 31
0.0
  0
LINE
  5
604
  8
0
  6
CONTINUOUS
 10
66.979319876751944
 20
134.09463497106009
 30
0.0
 11
66.213953012021761
 21
134.2468759060375
 31
0.0
  0
LINE
  5
605
  8
0
  6
CONTINUOUS
 10
65.565106314378852
 20
134.68042140868701
 30
0.0
 11
66.213953012021761
 21
134.2468759060375
 31
0.0
  0
LINE
  5
606
  8
0
  6
CONTINUOUS
 10
68.393533439125036
 20
134.68042140868701
 30
0.0
 11
67.744686741482127
 21
134.2468759060375
 31
0.0
  0
ENDBLK
  5
608
  8
0
  0
BLOCK
  8
0
  2
*U26
 70
     1
 10
0.0
 20
0.0
 30
0.0
  3
*U26
  1

  0
TEXT
  5
60A
  8
0
  6
CONTINUOUS
 10
320.88243010840739
 20
302.84920690183162
 30
0.0
 40
9.8353293413173617
  1
Self Adhesive Membrane
  7
ARIAL
  0
ENDBLK
  5
60C
  8
0
  0
BLOCK
  8
0
  2
*U27
 70
     1
 10
0.0
 20
0.0
 30
0.0
  3
*U27
  1

  0
SOLID
  5
60E
  8
0
  6
CONTINUOUS
 10
169.95045062817141
 20
85.199202475396547
 30
0.0
 11
169.18508376344121
 21
85.046961540419119
 31
0.0
 12
170.71581749290161
 22
85.046961540419119
 32
0.0
 13
170.71581749290161
 23
85.046961540419119
 33
0.0
210
0.0
220
0.0
230
1.0
  0
SOLID
  5
60F
  8
0
  6
CONTINUOUS
 10
169.18508376344121
 20
85.046961540419119
 30
0.0
 11
168.5362370657983
 21
84.613416037769625
 31
0.0
 12
171.36466419054449
 22
84.613416037769625
 32
0.0
 13
171.36466419054449
 23
84.613416037769625
 33
0.0
210
0.0
220
0.0
230
1.0
  0
SOLID
  5
610
  8
0
  6
CONTINUOUS
 10
-169.18508376344121
 20
85.046961540419119
 30
0.0
 11
-170.71581749290161
 21
85.046961540419119
 31
0.0
 12
-171.36466419054449
 22
84.613416037769625
 32
0.0
 13
-171.36466419054449
 23
84.613416037769625
 33
0.0
210
0.0
220
0.0
230
-1.0
  0
SOLID
  5
611
  8
0
  6
CONTINUOUS
 10
168.5362370657983
 20
84.613416037769625
 30
0.0
 11
168.1026915631488
 21
83.964569340126715
 31
0.0
 12
171.798209693194
 22
83.964569340126715
 32
0.0
 13
171.798209693194
 23
83.964569340126715
 33
0.0
210
0.0
220
0.0
230
1.0
  0
SOLID
  5
612
  8
0
  6
CONTINUOUS
 10
-168.5362370657983
 20
84.613416037769625
 30
0.0
 11
-171.36466419054449
 21
84.613416037769625
 31
0.0
 12
-171.798209693194
 22
83.964569340126715
 32
0.0
 13
-171.798209693194
 23
83.964569340126715
 33
0.0
210
0.0
220
0.0
230
-1.0
  0
SOLID
  5
613
  8
0
  6
CONTINUOUS
 10
168.1026915631488
 20
83.964569340126715
 30
0.0
 11
167.95045062817141
 21
83.199202475396547
 31
0.0
 12
171.95045062817141
 22
83.199202475396547
 32
0.0
 13
171.95045062817141
 23
83.199202475396547
 33
0.0
210
0.0
220
0.0
230
1.0
  0
SOLID
  5
614
  8
0
  6
CONTINUOUS
 10
-168.1026915631488
 20
83.964569340126715
 30
0.0
 11
-171.798209693194
 21
83.964569340126715
 31
0.0
 12
-171.95045062817141
 22
83.199202475396547
 32
0.0
 13
-171.95045062817141
 23
83.199202475396547
 33
0.0
210
0.0
220
0.0
230
-1.0
  0
SOLID
  5
615
  8
0
  6
CONTINUOUS
 10
167.95045062817141
 20
83.199202475396547
 30
0.0
 11
168.1026915631488
 21
82.433835610666335
 31
0.0
 12
171.798209693194
 22
82.433835610666335
 32
0.0
 13
171.798209693194
 23
82.433835610666335
 33
0.0
210
0.0
220
0.0
230
1.0
  0
SOLID
  5
616
  8
0
  6
CONTINUOUS
 10
-167.95045062817141
 20
83.199202475396547
 30
0.0
 11
-171.95045062817141
 21
83.199202475396547
 31
0.0
 12
-171.798209693194
 22
82.433835610666335
 32
0.0
 13
-171.798209693194
 23
82.433835610666335
 33
0.0
210
0.0
220
0.0
230
-1.0
  0
SOLID
  5
617
  8
0
  6
CONTINUOUS
 10
168.1026915631488
 20
82.433835610666335
 30
0.0
 11
168.5362370657983
 21
81.784988913023426
 31
0.0
 12
171.36466419054449
 22
81.784988913023426
 32
0.0
 13
171.36466419054449
 23
81.784988913023426
 33
0.0
210
0.0
220
0.0
230
1.0
  0
SOLID
  5
618
  8
0
  6
CONTINUOUS
 10
-168.1026915631488
 20
82.433835610666335
 30
0.0
 11
-171.798209693194
 21
82.433835610666335
 31
0.0
 12
-171.36466419054449
 22
81.784988913023426
 32
0.0
 13
-171.36466419054449
 23
81.784988913023426
 33
0.0
210
0.0
220
0.0
230
-1.0
  0
SOLID
  5
619
  8
0
  6
CONTINUOUS
 10
-169.18508376344121
 20
81.351443410373946
 30
0.0
 11
-170.71581749290161
 21
81.351443410373946
 31
0.0
 12
-169.95045062817141
 22
81.199202475396504
 32
0.0
 13
-169.95045062817141
 23
81.199202475396504
 33
0.0
210
0.0
220
0.0
230
-1.0
  0
SOLID
  5
61A
  8
0
  6
CONTINUOUS
 10
168.5362370657983
 20
81.784988913023426
 30
0.0
 11
169.18508376344121
 21
81.351443410373946
 31
0.0
 12
170.71581749290161
 22
81.351443410373946
 32
0.0
 13
170.71581749290161
 23
81.351443410373946
 33
0.0
210
0.0
220
0.0
230
1.0
  0
SOLID
  5
61B
  8
0
  6
CONTINUOUS
 10
-168.5362370657983
 20
81.784988913023426
 30
0.0
 11
-171.36466419054449
 21
81.784988913023426
 31
0.0
 12
-170.71581749290161
 22
81.351443410373946
 32
0.0
 13
-170.71581749290161
 23
81.351443410373946
 33
0.0
210
0.0
220
0.0
230
-1.0
  0
LINE
  5
61C
  8
0
  6
CONTINUOUS
 10
169.95045062817141
 20
85.199202475396547
 30
0.0
 11
169.18508376344121
 21
85.046961540419119
 31
0.0
  0
LINE
  5
61D
  8
0
  6
CONTINUOUS
 10
170.71581749290161
 20
85.046961540419119
 30
0.0
 11
169.95045062817141
 21
85.199202475396547
 31
0.0
  0
LINE
  5
61E
  8
0
  6
CONTINUOUS
 10
169.18508376344121
 20
85.046961540419119
 30
0.0
 11
168.5362370657983
 21
84.613416037769625
 31
0.0
  0
LINE
  5
61F
  8
0
  6
CONTINUOUS
 10
170.71581749290161
 20
85.046961540419119
 30
0.0
 11
171.36466419054449
 21
84.613416037769625
 31
0.0
  0
LINE
  5
620
  8
0
  6
CONTINUOUS
 10
168.5362370657983
 20
84.613416037769625
 30
0.0
 11
168.1026915631488
 21
83.964569340126715
 31
0.0
  0
LINE
  5
621
  8
0
  6
CONTINUOUS
 10
171.36466419054449
 20
84.613416037769625
 30
0.0
 11
171.798209693194
 21
83.964569340126715
 31
0.0
  0
LINE
  5
622
  8
0
  6
CONTINUOUS
 10
168.1026915631488
 20
83.964569340126715
 30
0.0
 11
167.95045062817141
 21
83.199202475396547
 31
0.0
  0
LINE
  5
623
  8
0
  6
CONTINUOUS
 10
171.798209693194
 20
83.964569340126715
 30
0.0
 11
171.95045062817141
 21
83.199202475396547
 31
0.0
  0
LINE
  5
624
  8
0
  6
CONTINUOUS
 10
167.95045062817141
 20
83.199202475396547
 30
0.0
 11
168.1026915631488
 21
82.433835610666335
 31
0.0
  0
LINE
  5
625
  8
0
  6
CONTINUOUS
 10
171.95045062817141
 20
83.199202475396547
 30
0.0
 11
171.798209693194
 21
82.433835610666335
 31
0.0
  0
LINE
  5
626
  8
0
  6
CONTINUOUS
 10
168.1026915631488
 20
82.433835610666335
 30
0.0
 11
168.5362370657983
 21
81.784988913023426
 31
0.0
  0
LINE
  5
627
  8
0
  6
CONTINUOUS
 10
171.798209693194
 20
82.433835610666335
 30
0.0
 11
171.36466419054449
 21
81.784988913023426
 31
0.0
  0
LINE
  5
628
  8
0
  6
CONTINUOUS
 10
170.71581749290161
 20
81.351443410373946
 30
0.0
 11
169.95045062817141
 21
81.199202475396504
 31
0.0
  0
LINE
  5
629
  8
0
  6
CONTINUOUS
 10
169.95045062817141
 20
81.199202475396504
 30
0.0
 11
169.18508376344121
 21
81.351443410373946
 31
0.0
  0
LINE
  5
62A
  8
0
  6
CONTINUOUS
 10
168.5362370657983
 20
81.784988913023426
 30
0.0
 11
169.18508376344121
 21
81.351443410373946
 31
0.0
  0
LINE
  5
62B
  8
0
  6
CONTINUOUS
 10
171.36466419054449
 20
81.784988913023426
 30
0.0
 11
170.71581749290161
 21
81.351443410373946
 31
0.0
  0
ENDBLK
  5
62D
  8
0
  0
BLOCK
  8
0
  2
*U28
 70
     1
 10
0.0
 20
0.0
 30
0.0
  3
*U28
  1

  0
TEXT
  5
62F
  8
0
  6
CONTINUOUS
 10
320.88243010840739
 20
211.21304328135119
 30
0.0
 40
9.8353293413173617
  1
Substrate
  7
ARIAL
  0
ENDBLK
  5
631
  8
0
  0
BLOCK
  8
0
  2
*U29
 70
     1
 10
0.0
 20
0.0
 30
0.0
  3
*U29
  1

  0
SOLID
  5
633
  8
0
  6
CONTINUOUS
 10
128.49020244725449
 20
116.40141809699701
 30
0.0
 11
127.72483558252431
 21
116.24917716201961
 31
0.0
 12
129.25556931198469
 22
116.24917716201961
 32
0.0
 13
129.25556931198469
 23
116.24917716201961
 33
0.0
210
0.0
220
0.0
230
1.0
  0
SOLID
  5
634
  8
0
  6
CONTINUOUS
 10
127.72483558252431
 20
116.24917716201961
 30
0.0
 11
127.0759888848814
 21
115.8156316593701
 31
0.0
 12
129.9044160096276
 22
115.8156316593701
 32
0.0
 13
129.9044160096276
 23
115.8156316593701
 33
0.0
210
0.0
220
0.0
230
1.0
  0
SOLID
  5
635
  8
0
  6
CONTINUOUS
 10
-127.72483558252431
 20
116.24917716201961
 30
0.0
 11
-129.25556931198469
 21
116.24917716201961
 31
0.0
 12
-129.9044160096276
 22
115.8156316593701
 32
0.0
 13
-129.9044160096276
 23
115.8156316593701
 33
0.0
210
0.0
220
0.0
230
-1.0
  0
SOLID
  5
636
  8
0
  6
CONTINUOUS
 10
127.0759888848814
 20
115.8156316593701
 30
0.0
 11
126.642443382232
 21
115.1667849617272
 31
0.0
 12
130.3379615122771
 22
115.1667849617272
 32
0.0
 13
130.3379615122771
 23
115.1667849617272
 33
0.0
210
0.0
220
0.0
230
1.0
  0
SOLID
  5
637
  8
0
  6
CONTINUOUS
 10
-127.0759888848814
 20
115.8156316593701
 30
0.0
 11
-129.9044160096276
 21
115.8156316593701
 31
0.0
 12
-130.3379615122771
 22
115.1667849617272
 32
0.0
 13
-130.3379615122771
 23
115.1667849617272
 33
0.0
210
0.0
220
0.0
230
-1.0
  0
SOLID
  5
638
  8
0
  6
CONTINUOUS
 10
126.642443382232
 20
115.1667849617272
 30
0.0
 11
126.4902024472545
 21
114.40141809699701
 31
0.0
 12
130.49020244725449
 22
114.40141809699701
 32
0.0
 13
130.49020244725449
 23
114.40141809699701
 33
0.0
210
0.0
220
0.0
230
1.0
  0
SOLID
  5
639
  8
0
  6
CONTINUOUS
 10
-126.642443382232
 20
115.1667849617272
 30
0.0
 11
-130.3379615122771
 21
115.1667849617272
 31
0.0
 12
-130.49020244725449
 22
114.40141809699701
 32
0.0
 13
-130.49020244725449
 23
114.40141809699701
 33
0.0
210
0.0
220
0.0
230
-1.0
  0
SOLID
  5
63A
  8
0
  6
CONTINUOUS
 10
126.4902024472545
 20
114.40141809699701
 30
0.0
 11
126.642443382232
 21
113.63605123226679
 31
0.0
 12
130.3379615122771
 22
113.63605123226679
 32
0.0
 13
130.3379615122771
 23
113.63605123226679
 33
0.0
210
0.0
220
0.0
230
1.0
  0
SOLID
  5
63B
  8
0
  6
CONTINUOUS
 10
-126.4902024472545
 20
114.40141809699701
 30
0.0
 11
-130.49020244725449
 21
114.40141809699701
 31
0.0
 12
-130.3379615122771
 22
113.63605123226679
 32
0.0
 13
-130.3379615122771
 23
113.63605123226679
 33
0.0
210
0.0
220
0.0
230
-1.0
  0
SOLID
  5
63C
  8
0
  6
CONTINUOUS
 10
126.642443382232
 20
113.63605123226679
 30
0.0
 11
127.0759888848814
 21
112.9872045346239
 31
0.0
 12
129.9044160096276
 22
112.9872045346239
 32
0.0
 13
129.9044160096276
 23
112.9872045346239
 33
0.0
210
0.0
220
0.0
230
1.0
  0
SOLID
  5
63D
  8
0
  6
CONTINUOUS
 10
-126.642443382232
 20
113.63605123226679
 30
0.0
 11
-130.3379615122771
 21
113.63605123226679
 31
0.0
 12
-129.9044160096276
 22
112.9872045346239
 32
0.0
 13
-129.9044160096276
 23
112.9872045346239
 33
0.0
210
0.0
220
0.0
230
-1.0
  0
SOLID
  5
63E
  8
0
  6
CONTINUOUS
 10
-127.72483558252431
 20
112.55365903197441
 30
0.0
 11
-129.25556931198469
 21
112.55365903197441
 31
0.0
 12
-128.49020244725449
 22
112.40141809699701
 32
0.0
 13
-128.49020244725449
 23
112.40141809699701
 33
0.0
210
0.0
220
0.0
230
-1.0
  0
SOLID
  5
63F
  8
0
  6
CONTINUOUS
 10
127.0759888848814
 20
112.9872045346239
 30
0.0
 11
127.72483558252431
 21
112.55365903197441
 31
0.0
 12
129.25556931198469
 22
112.55365903197441
 32
0.0
 13
129.25556931198469
 23
112.55365903197441
 33
0.0
210
0.0
220
0.0
230
1.0
  0
SOLID
  5
640
  8
0
  6
CONTINUOUS
 10
-127.0759888848814
 20
112.9872045346239
 30
0.0
 11
-129.9044160096276
 21
112.9872045346239
 31
0.0
 12
-129.25556931198469
 22
112.55365903197441
 32
0.0
 13
-129.25556931198469
 23
112.55365903197441
 33
0.0
210
0.0
220
0.0
230
-1.0
  0
LINE
  5
641
  8
0
  6
CONTINUOUS
 10
128.49020244725449
 20
116.40141809699701
 30
0.0
 11
127.72483558252431
 21
116.24917716201961
 31
0.0
  0
LINE
  5
642
  8
0
  6
CONTINUOUS
 10
129.25556931198469
 20
116.24917716201961
 30
0.0
 11
128.49020244725449
 21
116.40141809699701
 31
0.0
  0
LINE
  5
643
  8
0
  6
CONTINUOUS
 10
127.72483558252431
 20
116.24917716201961
 30
0.0
 11
127.0759888848814
 21
115.8156316593701
 31
0.0
  0
LINE
  5
644
  8
0
  6
CONTINUOUS
 10
129.25556931198469
 20
116.24917716201961
 30
0.0
 11
129.9044160096276
 21
115.8156316593701
 31
0.0
  0
LINE
  5
645
  8
0
  6
CONTINUOUS
 10
127.0759888848814
 20
115.8156316593701
 30
0.0
 11
126.642443382232
 21
115.1667849617272
 31
0.0
  0
LINE
  5
646
  8
0
  6
CONTINUOUS
 10
129.9044160096276
 20
115.8156316593701
 30
0.0
 11
130.3379615122771
 21
115.1667849617272
 31
0.0
  0
LINE
  5
647
  8
0
  6
CONTINUOUS
 10
126.642443382232
 20
115.1667849617272
 30
0.0
 11
126.4902024472545
 21
114.40141809699701
 31
0.0
  0
LINE
  5
648
  8
0
  6
CONTINUOUS
 10
130.3379615122771
 20
115.1667849617272
 30
0.0
 11
130.49020244725449
 21
114.40141809699701
 31
0.0
  0
LINE
  5
649
  8
0
  6
CONTINUOUS
 10
126.4902024472545
 20
114.40141809699701
 30
0.0
 11
126.642443382232
 21
113.63605123226679
 31
0.0
  0
LINE
  5
64A
  8
0
  6
CONTINUOUS
 10
130.49020244725449
 20
114.40141809699701
 30
0.0
 11
130.3379615122771
 21
113.63605123226679
 31
0.0
  0
LINE
  5
64B
  8
0
  6
CONTINUOUS
 10
126.642443382232
 20
113.63605123226679
 30
0.0
 11
127.0759888848814
 21
112.9872045346239
 31
0.0
  0
LINE
  5
64C
  8
0
  6
CONTINUOUS
 10
130.3379615122771
 20
113.63605123226679
 30
0.0
 11
129.9044160096276
 21
112.9872045346239
 31
0.0
  0
LINE
  5
64D
  8
0
  6
CONTINUOUS
 10
129.25556931198469
 20
112.55365903197441
 30
0.0
 11
128.49020244725449
 21
112.40141809699701
 31
0.0
  0
LINE
  5
64E
  8
0
  6
CONTINUOUS
 10
128.49020244725449
 20
112.40141809699701
 30
0.0
 11
127.72483558252431
 21
112.55365903197441
 31
0.0
  0
LINE
  5
64F
  8
0
  6
CONTINUOUS
 10
127.0759888848814
 20
112.9872045346239
 30
0.0
 11
127.72483558252431
 21
112.55365903197441
 31
0.0
  0
LINE
  5
650
  8
0
  6
CONTINUOUS
 10
129.9044160096276
 20
112.9872045346239
 30
0.0
 11
129.25556931198469
 21
112.55365903197441
 31
0.0
  0
ENDBLK
  5
652
  8
0
  0
BLOCK
  8
0
  2
*U30
 70
     1
 10
0.0
 20
0.0
 30
0.0
  3
*U30
  1

  0
TEXT
  5
654
  8
0
  6
CONTINUOUS
 10
320.61683988597389
 20
258.19379501377551
 30
0.0
 40
9.8353293413173617
  1
CF Shake Panel
  7
ARIAL
  0
ENDBLK
  5
656
  8
0
  0
BLOCK
  8
0
  2
*U31
 70
     1
 10
0.0
 20
0.0
 30
0.0
  3
*U31
  1

  0
SOLID
  5
658
  8
0
  6
CONTINUOUS
 10
-253.24563193565589
 20
67.595562863218404
 30
0.0
 11
-254.01099880038609
 21
67.443321928240977
 31
0.0
 12
-252.4802650709257
 22
67.443321928240977
 32
0.0
 13
-252.4802650709257
 23
67.443321928240977
 33
0.0
210
0.0
220
0.0
230
1.0
  0
SOLID
  5
659
  8
0
  6
CONTINUOUS
 10
-254.01099880038609
 20
67.443321928240977
 30
0.0
 11
-254.659845498029
 21
67.009776425591497
 31
0.0
 12
-251.83141837328279
 22
67.009776425591497
 32
0.0
 13
-251.83141837328279
 23
67.009776425591497
 33
0.0
210
0.0
220
0.0
230
1.0
  0
SOLID
  5
65A
  8
0
  6
CONTINUOUS
 10
254.01099880038609
 20
67.443321928240977
 30
0.0
 11
252.4802650709257
 21
67.443321928240977
 31
0.0
 12
251.83141837328279
 22
67.009776425591497
 32
0.0
 13
251.83141837328279
 23
67.009776425591497
 33
0.0
210
0.0
220
0.0
230
-1.0
  0
SOLID
  5
65B
  8
0
  6
CONTINUOUS
 10
-254.659845498029
 20
67.009776425591497
 30
0.0
 11
-255.09339100067851
 21
66.360929727948587
 31
0.0
 12
-251.39787287063331
 22
66.360929727948587
 32
0.0
 13
-251.39787287063331
 23
66.360929727948587
 33
0.0
  0
SOLID
  5
65C
  8
0
  6
CONTINUOUS
 10
254.659845498029
 20
67.009776425591497
 30
0.0
 11
251.83141837328279
 21
67.009776425591497
 31
0.0
 12
251.39787287063331
 22
66.360929727948587
 32
0.0
 13
251.39787287063331
 23
66.360929727948587
 33
0.0
210
0.0
220
0.0
230
-1.0
  0
SOLID
  5
65D
  8
0
  6
CONTINUOUS
 10
-255.09339100067851
 20
66.360929727948587
 30
0.0
 11
-255.24563193565589
 21
65.595562863218404
 31
0.0
 12
-251.24563193565589
 22
65.595562863218404
 32
0.0
 13
-251.24563193565589
 23
65.595562863218404
 33
0.0
210
0.0
220
0.0
230
1.0
  0
SOLID
  5
65E
  8
0
  6
CONTINUOUS
 10
255.09339100067851
 20
66.360929727948587
 30
0.0
 11
251.39787287063331
 21
66.360929727948587
 31
0.0
 12
251.24563193565589
 22
65.595562863218404
 32
0.0
 13
251.24563193565589
 23
65.595562863218404
 33
0.0
210
0.0
220
0.0
230
-1.0
  0
SOLID
  5
65F
  8
0
  6
CONTINUOUS
 10
-255.24563193565589
 20
65.595562863218404
 30
0.0
 11
-255.09339100067851
 21
64.830195998488222
 31
0.0
 12
-251.39787287063331
 22
64.830195998488222
 32
0.0
 13
-251.39787287063331
 23
64.830195998488222
 33
0.0
210
0.0
220
0.0
230
1.0
  0
SOLID
  5
660
  8
0
  6
CONTINUOUS
 10
255.24563193565589
 20
65.595562863218404
 30
0.0
 11
251.24563193565589
 21
65.595562863218404
 31
0.0
 12
251.39787287063331
 22
64.830195998488222
 32
0.0
 13
251.39787287063331
 23
64.830195998488222
 33
0.0
210
0.0
220
0.0
230
-1.0
  0
SOLID
  5
661
  8
0
  6
CONTINUOUS
 10
-255.09339100067851
 20
64.830195998488222
 30
0.0
 11
-254.659845498029
 21
64.181349300845312
 31
0.0
 12
-251.83141837328279
 22
64.181349300845312
 32
0.0
 13
-251.83141837328279
 23
64.181349300845312
 33
0.0
210
0.0
220
0.0
230
1.0
  0
SOLID
  5
662
  8
0
  6
CONTINUOUS
 10
255.09339100067851
 20
64.830195998488222
 30
0.0
 11
251.39787287063331
 21
64.830195998488222
 31
0.0
 12
251.83141837328279
 22
64.181349300845312
 32
0.0
 13
251.83141837328279
 23
64.181349300845312
 33
0.0
210
0.0
220
0.0
230
-1.0
  0
SOLID
  5
663
  8
0
  6
CONTINUOUS
 10
254.01099880038609
 20
63.747803798195832
 30
0.0
 11
252.4802650709257
 21
63.747803798195832
 31
0.0
 12
253.24563193565589
 22
63.595562863218397
 32
0.0
 13
253.24563193565589
 23
63.595562863218397
 33
0.0
210
0.0
220
0.0
230
-1.0
  0
SOLID
  5
664
  8
0
  6
CONTINUOUS
 10
-254.659845498029
 20
64.181349300845312
 30
0.0
 11
-254.01099880038609
 21
63.747803798195832
 31
0.0
 12
-252.4802650709257
 22
63.747803798195832
 32
0.0
 13
-252.4802650709257
 23
63.747803798195832
 33
0.0
210
0.0
220
0.0
230
1.0
  0
SOLID
  5
665
  8
0
  6
CONTINUOUS
 10
254.659845498029
 20
64.181349300845312
 30
0.0
 11
251.83141837328279
 21
64.181349300845312
 31
0.0
 12
252.4802650709257
 22
63.747803798195832
 32
0.0
 13
252.4802650709257
 23
63.747803798195832
 33
0.0
210
0.0
220
0.0
230
-1.0
  0
LINE
  5
666
  8
0
  6
CONTINUOUS
 10
-253.24563193565589
 20
67.595562863218404
 30
0.0
 11
-254.01099880038609
 21
67.443321928240977
 31
0.0
  0
LINE
  5
667
  8
0
  6
CONTINUOUS
 10
-252.4802650709257
 20
67.443321928240977
 30
0.0
 11
-253.24563193565589
 21
67.595562863218404
 31
0.0
  0
LINE
  5
668
  8
0
  6
CONTINUOUS
 10
-254.01099880038609
 20
67.443321928240977
 30
0.0
 11
-254.659845498029
 21
67.009776425591497
 31
0.0
  0
LINE
  5
669
  8
0
  6
CONTINUOUS
 10
-252.4802650709257
 20
67.443321928240977
 30
0.0
 11
-251.83141837328279
 21
67.009776425591497
 31
0.0
  0
LINE
  5
66A
  8
0
  6
CONTINUOUS
 10
-254.659845498029
 20
67.009776425591497
 30
0.0
 11
-255.09339100067851
 21
66.360929727948587
 31
0.0
  0
LINE
  5
66B
  8
0
  6
CONTINUOUS
 10
-251.83141837328279
 20
67.009776425591497
 30
0.0
 11
-251.39787287063331
 21
66.360929727948587
 31
0.0
  0
LINE
  5
66C
  8
0
  6
CONTINUOUS
 10
-255.09339100067851
 20
66.360929727948587
 30
0.0
 11
-255.24563193565589
 21
65.595562863218404
 31
0.0
  0
LINE
  5
66D
  8
0
  6
CONTINUOUS
 10
-251.39787287063331
 20
66.360929727948587
 30
0.0
 11
-251.24563193565589
 21
65.595562863218404
 31
0.0
  0
LINE
  5
66E
  8
0
  6
CONTINUOUS
 10
-255.24563193565589
 20
65.595562863218404
 30
0.0
 11
-255.09339100067851
 21
64.830195998488222
 31
0.0
  0
LINE
  5
66F
  8
0
  6
CONTINUOUS
 10
-251.24563193565589
 20
65.595562863218404
 30
0.0
 11
-251.39787287063331
 21
64.830195998488222
 31
0.0
  0
LINE
  5
670
  8
0
  6
CONTINUOUS
 10
-255.09339100067851
 20
64.830195998488222
 30
0.0
 11
-254.659845498029
 21
64.181349300845312
 31
0.0
  0
LINE
  5
671
  8
0
  6
CONTINUOUS
 10
-251.39787287063331
 20
64.830195998488222
 30
0.0
 11
-251.83141837328279
 21
64.181349300845312
 31
0.0
  0
LINE
  5
672
  8
0
  6
CONTINUOUS
 10
-252.4802650709257
 20
63.747803798195832
 30
0.0
 11
-253.24563193565589
 21
63.595562863218397
 31
0.0
  0
LINE
  5
673
  8
0
  6
CONTINUOUS
 10
-253.24563193565589
 20
63.595562863218397
 30
0.0
 11
-254.01099880038609
 21
63.747803798195832
 31
0.0
  0
LINE
  5
674
  8
0
  6
CONTINUOUS
 10
-254.659845498029
 20
64.181349300845312
 30
0.0
 11
-254.01099880038609
 21
63.747803798195832
 31
0.0
  0
LINE
  5
675
  8
0
  6
CONTINUOUS
 10
-251.83141837328279
 20
64.181349300845312
 30
0.0
 11
-252.4802650709257
 21
63.747803798195832
 31
0.0
  0
ENDBLK
  5
677
  8
0
  0
BLOCK
  8
0
  2
*U32
 70
     1
 10
0.0
 20
0.0
 30
0.0
  3
*U32
  1

  0
TEXT
  5
679
  8
0
  6
CONTINUOUS
 10
-511.48914204413478
 20
115.6986065966294
 30
0.0
 40
9.8353293413173617
  1
CF Shake lapped together
  7
ARIAL
  0
ENDBLK
  5
67B
  8
0
  0
BLOCK
  8
0
  2
*U33
 70
     1
 10
0.0
 20
0.0
 30
0.0
  3
*U33
  1

  0
SOLID
  5
67D
  8
0
  6
CONTINUOUS
 10
300.09574461265782
 20
39.240464093000568
 30
0.0
 11
299.33037774792763
 21
39.088223158023148
 31
0.0
 12
300.86111147738802
 22
39.088223158023148
 32
0.0
 13
300.86111147738802
 23
39.088223158023148
 33
0.0
210
0.0
220
0.0
230
1.0
  0
SOLID
  5
67E
  8
0
  6
CONTINUOUS
 10
299.33037774792763
 20
39.088223158023148
 30
0.0
 11
298.68153105028472
 21
38.654677655373668
 31
0.0
 12
301.50995817503087
 22
38.654677655373668
 32
0.0
 13
301.50995817503087
 23
38.654677655373668
 33
0.0
210
0.0
220
0.0
230
1.0
  0
SOLID
  5
67F
  8
0
  6
CONTINUOUS
 10
-299.33037774792763
 20
39.088223158023148
 30
0.0
 11
-300.86111147738802
 21
39.088223158023148
 31
0.0
 12
-301.50995817503087
 22
38.654677655373668
 32
0.0
 13
-301.50995817503087
 23
38.654677655373668
 33
0.0
210
0.0
220
0.0
230
-1.0
  0
SOLID
  5
680
  8
0
  6
CONTINUOUS
 10
298.68153105028472
 20
38.654677655373668
 30
0.0
 11
298.24798554763521
 21
38.005830957730758
 31
0.0
 12
301.94350367768038
 22
38.005830957730758
 32
0.0
 13
301.94350367768038
 23
38.005830957730758
 33
0.0
210
0.0
220
0.0
230
1.0
  0
SOLID
  5
681
  8
0
  6
CONTINUOUS
 10
-298.68153105028472
 20
38.654677655373668
 30
0.0
 11
-301.50995817503087
 21
38.654677655373668
 31
0.0
 12
-301.94350367768038
 22
38.005830957730758
 32
0.0
 13
-301.94350367768038
 23
38.005830957730758
 33
0.0
210
0.0
220
0.0
230
-1.0
  0
SOLID
  5
682
  8
0
  6
CONTINUOUS
 10
298.24798554763521
 20
38.005830957730758
 30
0.0
 11
298.09574461265782
 21
37.240464093000583
 31
0.0
 12
302.09574461265782
 22
37.240464093000583
 32
0.0
 13
302.09574461265782
 23
37.240464093000583
 33
0.0
210
0.0
220
0.0
230
1.0
  0
SOLID
  5
683
  8
0
  6
CONTINUOUS
 10
-298.24798554763521
 20
38.005830957730758
 30
0.0
 11
-301.94350367768038
 21
38.005830957730758
 31
0.0
 12
-302.09574461265782
 22
37.240464093000583
 32
0.0
 13
-302.09574461265782
 23
37.240464093000583
 33
0.0
210
0.0
220
0.0
230
-1.0
  0
SOLID
  5
684
  8
0
  6
CONTINUOUS
 10
298.09574461265782
 20
37.240464093000583
 30
0.0
 11
298.24798554763521
 21
36.475097228270393
 31
0.0
 12
301.94350367768038
 22
36.475097228270393
 32
0.0
 13
301.94350367768038
 23
36.475097228270393
 33
0.0
210
0.0
220
0.0
230
1.0
  0
SOLID
  5
685
  8
0
  6
CONTINUOUS
 10
-298.09574461265782
 20
37.240464093000583
 30
0.0
 11
-302.09574461265782
 21
37.240464093000583
 31
0.0
 12
-301.94350367768038
 22
36.475097228270393
 32
0.0
 13
-301.94350367768038
 23
36.475097228270393
 33
0.0
210
0.0
220
0.0
230
-1.0
  0
SOLID
  5
686
  8
0
  6
CONTINUOUS
 10
298.24798554763521
 20
36.475097228270393
 30
0.0
 11
298.68153105028472
 21
35.826250530627483
 31
0.0
 12
301.50995817503087
 22
35.826250530627483
 32
0.0
 13
301.50995817503087
 23
35.826250530627483
 33
0.0
210
0.0
220
0.0
230
1.0
  0
SOLID
  5
687
  8
0
  6
CONTINUOUS
 10
-298.24798554763521
 20
36.475097228270393
 30
0.0
 11
-301.94350367768038
 21
36.475097228270393
 31
0.0
 12
-301.50995817503087
 22
35.826250530627483
 32
0.0
 13
-301.50995817503087
 23
35.826250530627483
 33
0.0
210
0.0
220
0.0
230
-1.0
  0
SOLID
  5
688
  8
0
  6
CONTINUOUS
 10
-299.33037774792763
 20
35.392705027978003
 30
0.0
 11
-300.86111147738802
 21
35.392705027978003
 31
0.0
 12
-300.09574461265782
 22
35.240464093000583
 32
0.0
 13
-300.09574461265782
 23
35.240464093000583
 33
0.0
210
0.0
220
0.0
230
-1.0
  0
SOLID
  5
689
  8
0
  6
CONTINUOUS
 10
298.68153105028472
 20
35.826250530627483
 30
0.0
 11
299.33037774792763
 21
35.392705027978003
 31
0.0
 12
300.86111147738802
 22
35.392705027978003
 32
0.0
 13
300.86111147738802
 23
35.392705027978003
 33
0.0
210
0.0
220
0.0
230
1.0
  0
SOLID
  5
68A
  8
0
  6
CONTINUOUS
 10
-298.68153105028472
 20
35.826250530627483
 30
0.0
 11
-301.50995817503087
 21
35.826250530627483
 31
0.0
 12
-300.86111147738802
 22
35.392705027978003
 32
0.0
 13
-300.86111147738802
 23
35.392705027978003
 33
0.0
210
0.0
220
0.0
230
-1.0
  0
LINE
  5
68B
  8
0
  6
CONTINUOUS
 10
300.09574461265782
 20
39.240464093000568
 30
0.0
 11
299.33037774792763
 21
39.088223158023148
 31
0.0
  0
LINE
  5
68C
  8
0
  6
CONTINUOUS
 10
300.86111147738802
 20
39.088223158023148
 30
0.0
 11
300.09574461265782
 21
39.240464093000568
 31
0.0
  0
LINE
  5
68D
  8
0
  6
CONTINUOUS
 10
299.33037774792763
 20
39.088223158023148
 30
0.0
 11
298.68153105028472
 21
38.654677655373668
 31
0.0
  0
LINE
  5
68E
  8
0
  6
CONTINUOUS
 10
300.86111147738802
 20
39.088223158023148
 30
0.0
 11
301.50995817503087
 21
38.654677655373668
 31
0.0
  0
LINE
  5
68F
  8
0
  6
CONTINUOUS
 10
298.68153105028472
 20
38.654677655373668
 30
0.0
 11
298.24798554763521
 21
38.005830957730758
 31
0.0
  0
LINE
  5
690
  8
0
  6
CONTINUOUS
 10
301.50995817503087
 20
38.654677655373668
 30
0.0
 11
301.94350367768038
 21
38.005830957730758
 31
0.0
  0
LINE
  5
691
  8
0
  6
CONTINUOUS
 10
298.24798554763521
 20
38.005830957730758
 30
0.0
 11
298.09574461265782
 21
37.240464093000583
 31
0.0
  0
LINE
  5
692
  8
0
  6
CONTINUOUS
 10
301.94350367768038
 20
38.005830957730758
 30
0.0
 11
302.09574461265782
 21
37.240464093000583
 31
0.0
  0
LINE
  5
693
  8
0
  6
CONTINUOUS
 10
298.09574461265782
 20
37.240464093000583
 30
0.0
 11
298.24798554763521
 21
36.475097228270393
 31
0.0
  0
LINE
  5
694
  8
0
  6
CONTINUOUS
 10
302.09574461265782
 20
37.240464093000583
 30
0.0
 11
301.94350367768038
 21
36.475097228270393
 31
0.0
  0
LINE
  5
695
  8
0
  6
CONTINUOUS
 10
298.24798554763521
 20
36.475097228270393
 30
0.0
 11
298.68153105028472
 21
35.826250530627483
 31
0.0
  0
LINE
  5
696
  8
0
  6
CONTINUOUS
 10
301.94350367768038
 20
36.475097228270393
 30
0.0
 11
301.50995817503087
 21
35.826250530627483
 31
0.0
  0
LINE
  5
697
  8
0
  6
CONTINUOUS
 10
300.86111147738802
 20
35.392705027978003
 30
0.0
 11
300.09574461265782
 21
35.240464093000583
 31
0.0
  0
LINE
  5
698
  8
0
  6
CONTINUOUS
 10
300.09574461265782
 20
35.240464093000583
 30
0.0
 11
299.33037774792763
 21
35.392705027978003
 31
0.0
  0
LINE
  5
699
  8
0
  6
CONTINUOUS
 10
298.68153105028472
 20
35.826250530627483
 30
0.0
 11
299.33037774792763
 21
35.392705027978003
 31
0.0
  0
LINE
  5
69A
  8
0
  6
CONTINUOUS
 10
301.50995817503087
 20
35.826250530627483
 30
0.0
 11
300.86111147738802
 21
35.392705027978003
 31
0.0
  0
ENDBLK
  5
69C
  8
0
  0
BLOCK
  8
0
  2
*U34
 70
     1
 10
0.0
 20
0.0
 30
0.0
  3
*U34
  1

  0
TEXT
  5
69E
  8
0
  6
CONTINUOUS
 10
385.17212387037171
 20
86.611952139344808
 30
0.0
 40
9.8353293413173617
  1
Breather underlay over
  7
ARIAL
  0
TEXT
  5
69F
  8
0
  6
CONTINUOUS
 10
385.2727582087889
 20
71.227336754729436
 30
0.0
 40
9.8353293413173617
  1
plywood
  7
ARIAL
  0
ENDBLK
  5
6A1
  8
0
  0
ENDSEC
  0
SECTION
  2
ENTITIES
  0
LINE
  5
10A
  8
0
 10
0.0000000000012098
 20
120.1677772475895
 30
0.0
 11
0.0000000000011509
 21
83.75
 31
0.0
1001
REVIT
1002
{
1070
     1
1000
757746
1002
}
1002
{
1070
     2
1000
-2000051
1002
}
1002
{
1070
     3
1000
-2000042
1002
}
  0
LINE
  5
10B
  8
0
 10
0.000000000001054
 20
23.750000000000028
 30
0.0
 11
0.0000000000010378
 21
13.750000000000091
 31
0.0
1001
REVIT
1002
{
1070
     1
1000
757746
1002
}
1002
{
1070
     2
1000
-2000051
1002
}
1002
{
1070
     3
1000
-2000042
1002
}
  0
CIRCLE
  5
1D8
  8
0
 10
16.449667196628649
 20
164.7162616981949
 30
0.0
 40
1.999999999999996
1001
REVIT
1002
{
1070
     1
1000
757730
1002
}
1002
{
1070
     5
1000
233013
1002
}
1002
{
1070
     2
1000
-2005028
1002
}
  0
INSERT
  5
1D9
  8
0
  6
CONTINUOUS
  2
*U23
 10
0.0
 20
0.0
 30
0.0
1001
REVIT
1002
{
1070
     1
1000
757730
1002
}
1002
{
1070
     5
1000
233013
1002
}
1002
{
1070
     2
1000
-2005028
1002
}
1001
ACAD
1002
{
1000
R14_HATCH_DATA
1000
1D9
1011
1.0
1021
0.0
1031
-2.6959946667150640E+067
1021
0.0
1031
0.0
1011
0.0
1021
0.0
1031
-2.6959946667150640E+067
1021
1.0
1031
0.0
1011
0.0
1021
0.0
1031
-2.6959946667150640E+067
1021
0.0
1031
1.0
1040
0.0
1010
0.0
1020
0.0
1030
1.0
1000
SOLID
1070
     1
1070
     0
1071
        1
1071
        0
1071
        1
1070
     2
1040
16.449667196628649
1040
164.7162616981949
1040
1.999999999999996
1040
0.0
1040
6.2831853071795862
1070
     1
1071
        0
1070
     0
1070
     1
1071
        1
1040
0.0
1040
0.0
1040
0.0
1002
}
  0
LINE
  5
1DA
  8
0
 10
153.9392967566535
 20
352.95416713210341
 30
0.0
 11
319.60654744709927
 21
352.95416713210341
 31
0.0
1001
REVIT
1002
{
1070
     1
1000
757730
1002
}
1002
{
1070
     5
1000
233013
1002
}
1002
{
1070
     2
1000
-2005028
1002
}
  0
LINE
  5
1DB
  8
0
 10
16.449667196628649
 20
164.7162616981949
 30
0.0
 11
153.9392967566535
 21
352.95416713210341
 31
0.0
1001
REVIT
1002
{
1070
     1
1000
757730
1002
}
1002
{
1070
     5
1000
233013
1002
}
1002
{
1070
     2
1000
-2005028
1002
}
  0
INSERT
  5
1DD
  8
0
  6
CONTINUOUS
  2
*U24
 10
0.0
 20
0.0
 30
0.0
  0
CIRCLE
  5
1DE
  8
0
 10
66.979319876751944
 20
136.09463497106009
 30
0.0
 40
1.999999999999998
1001
REVIT
1002
{
1070
     1
1000
757731
1002
}
1002
{
1070
     5
1000
233013
1002
}
1002
{
1070
     2
1000
-2005028
1002
}
  0
INSERT
  5
1DF
  8
0
  6
CONTINUOUS
  2
*U25
 10
0.0
 20
0.0
 30
0.0
1001
REVIT
1002
{
1070
     1
1000
757731
1002
}
1002
{
1070
     5
1000
233013
1002
}
1002
{
1070
     2
1000
-2005028
1002
}
1001
ACAD
1002
{
1000
R14_HATCH_DATA
1000
1DF
1011
1.0
1021
0.0
1031
-2.6959946667150640E+067
1021
0.0
1031
0.0
1011
0.0
1021
0.0
1031
-2.6959946667150640E+067
1021
1.0
1031
0.0
1011
0.0
1021
0.0
1031
-2.6959946667150640E+067
1021
0.0
1031
1.0
1040
0.0
1010
0.0
1020
0.0
1030
1.0
1000
SOLID
1070
     1
1070
     0
1071
        1
1071
        0
1071
        1
1070
     2
1040
66.979319876751944
1040
136.09463497106009
1040
1.999999999999998
1040
0.0
1040
6.2831853071795862
1070
     1
1071
        0
1070
     0
1070
     1
1071
        1
1040
0.0
1040
0.0
1040
0.0
1002
}
  0
LINE
  5
1E0
  8
0
 10
180.1126873145933
 20
307.38766844029323
 30
0.0
 11
319.60654744709927
 21
307.38766844029323
 31
0.0
1001
REVIT
1002
{
1070
     1
1000
757731
1002
}
1002
{
1070
     5
1000
233013
1002
}
1002
{
1070
     2
1000
-2005028
1002
}
  0
LINE
  5
1E1
  8
0
 10
66.979319876751944
 20
136.09463497106009
 30
0.0
 11
180.1126873145933
 21
307.38766844029323
 31
0.0
1001
REVIT
1002
{
1070
     1
1000
757731
1002
}
1002
{
1070
     5
1000
233013
1002
}
1002
{
1070
     2
1000
-2005028
1002
}
  0
INSERT
  5
1E2
  8
0
  6
CONTINUOUS
  2
*U26
 10
0.0
 20
0.0
 30
0.0
  0
CIRCLE
  5
1E3
  8
0
 10
169.95045062817141
 20
83.199202475396547
 30
0.0
 40
2.0000000000000191
1001
REVIT
1002
{
1070
     1
1000
757732
1002
}
1002
{
1070
     5
1000
233013
1002
}
1002
{
1070
     2
1000
-2005028
1002
}
  0
INSERT
  5
1E4
  8
0
  6
CONTINUOUS
  2
*U27
 10
0.0
 20
0.0
 30
0.0
1001
REVIT
1002
{
1070
     1
1000
757732
1002
}
1002
{
1070
     5
1000
233013
1002
}
1002
{
1070
     2
1000
-2005028
1002
}
1001
ACAD
1002
{
1000
R14_HATCH_DATA
1000
1E4
1011
1.0
1021
0.0
1031
-2.6959946667150640E+067
1021
0.0
1031
0.0
1011
0.0
1021
0.0
1031
-2.6959946667150640E+067
1021
1.0
1031
0.0
1011
0.0
1021
0.0
1031
-2.6959946667150640E+067
1021
0.0
1031
1.0
1040
0.0
1010
0.0
1020
0.0
1030
1.0
1000
SOLID
1070
     1
1070
     0
1071
        1
1071
        0
1071
        1
1070
     2
1040
169.95045062817141
1040
83.199202475396547
1040
2.0000000000000191
1040
0.0
1040
6.2831853071795862
1070
     1
1071
        0
1070
     0
1070
     1
1071
        1
1040
0.0
1040
0.0
1040
0.0
1002
}
  0
LINE
  5
1E5
  8
0
 10
254.32425916414891
 20
215.75150481981271
 30
0.0
 11
319.60654744709927
 21
215.75150481981271
 31
0.0
1001
REVIT
1002
{
1070
     1
1000
757732
1002
}
1002
{
1070
     5
1000
233013
1002
}
1002
{
1070
     2
1000
-2005028
1002
}
  0
LINE
  5
1E6
  8
0
 10
169.95045062817141
 20
83.199202475396547
 30
0.0
 11
254.32425916414891
 21
215.75150481981271
 31
0.0
1001
REVIT
1002
{
1070
     1
1000
757732
1002
}
1002
{
1070
     5
1000
233013
1002
}
1002
{
1070
     2
1000
-2005028
1002
}
  0
INSERT
  5
1E7
  8
0
  6
CONTINUOUS
  2
*U28
 10
0.0
 20
0.0
 30
0.0
  0
CIRCLE
  5
1E8
  8
0
 10
128.49020244725449
 20
114.40141809699701
 30
0.0
 40
2.0000000000000031
1001
REVIT
1002
{
1070
     1
1000
757733
1002
}
1002
{
1070
     5
1000
233013
1002
}
1002
{
1070
     2
1000
-2005028
1002
}
  0
INSERT
  5
1E9
  8
0
  6
CONTINUOUS
  2
*U29
 10
0.0
 20
0.0
 30
0.0
1001
REVIT
1002
{
1070
     1
1000
757733
1002
}
1002
{
1070
     5
1000
233013
1002
}
1002
{
1070
     2
1000
-2005028
1002
}
1001
ACAD
1002
{
1000
R14_HATCH_DATA
1000
1E9
1011
1.0
1021
0.0
1031
-2.6959946667150640E+067
1021
0.0
1031
0.0
1011
0.0
1021
0.0
1031
-2.6959946667150640E+067
1021
1.0
1031
0.0
1011
0.0
1021
0.0
1031
-2.6959946667150640E+067
1021
0.0
1031
1.0
1040
0.0
1010
0.0
1020
0.0
1030
1.0
1000
SOLID
1070
     1
1070
     0
1071
        1
1071
        0
1071
        1
1070
     2
1040
128.49020244725449
1040
114.40141809699701
1040
2.0000000000000031
1040
0.0
1040
6.2831853071795862
1070
     1
1071
        0
1070
     0
1070
     1
1071
        1
1040
0.0
1040
0.0
1040
0.0
1002
}
  0
LINE
  5
1EA
  8
0
 10
211.63950853951661
 20
262.73829861965498
 30
0.0
 11
319.40804678361081
 21
262.73225655223689
 31
0.0
1001
REVIT
1002
{
1070
     1
1000
757733
1002
}
1002
{
1070
     5
1000
233013
1002
}
1002
{
1070
     2
1000
-2005028
1002
}
  0
LINE
  5
1EB
  8
0
 10
128.49020244725449
 20
114.40141809699701
 30
0.0
 11
211.63950853951661
 21
262.73829861965498
 31
0.0
1001
REVIT
1002
{
1070
     1
1000
757733
1002
}
1002
{
1070
     5
1000
233013
1002
}
1002
{
1070
     2
1000
-2005028
1002
}
  0
INSERT
  5
1EC
  8
0
  6
CONTINUOUS
  2
*U30
 10
0.0
 20
0.0
 30
0.0
  0
CIRCLE
  5
1ED
  8
0
 10
-253.24563193565589
 20
65.595562863218404
 30
0.0
 40
2.0000000000000031
1001
REVIT
1002
{
1070
     1
1000
757742
1002
}
1002
{
1070
     5
1000
515858
1002
}
1002
{
1070
     2
1000
-2005028
1002
}
  0
INSERT
  5
1EE
  8
0
  6
CONTINUOUS
  2
*U31
 10
0.0
 20
0.0
 30
0.0
1001
REVIT
1002
{
1070
     1
1000
757742
1002
}
1002
{
1070
     5
1000
515858
1002
}
1002
{
1070
     2
1000
-2005028
1002
}
1001
ACAD
1002
{
1000
R14_HATCH_DATA
1000
1EE
1011
1.0
1021
0.0
1031
-2.6959946667150640E+067
1021
0.0
1031
0.0
1011
0.0
1021
0.0
1031
-2.6959946667150640E+067
1021
1.0
1031
0.0
1011
0.0
1021
0.0
1031
-2.6959946667150640E+067
1021
0.0
1031
1.0
1040
0.0
1010
0.0
1020
0.0
1030
1.0
1000
SOLID
1070
     1
1070
     0
1071
        1
1071
        0
1071
        1
1070
     2
1040
-253.24563193565589
1040
65.595562863218404
1040
2.0000000000000031
1040
0.0
1040
6.2831853071795862
1070
     1
1071
        0
1070
     0
1070
     1
1071
        1
1040
0.0
1040
0.0
1040
0.0
1002
}
  0
LINE
  5
1EF
  8
0
 10
-294.487291289182
 20
120.23706813509089
 30
0.0
 11
-351.50482854289731
 21
120.23706813509089
 31
0.0
1001
REVIT
1002
{
1070
     1
1000
757742
1002
}
1002
{
1070
     5
1000
515858
1002
}
1002
{
1070
     2
1000
-2005028
1002
}
  0
LINE
  5
1F0
  8
0
 10
-253.24563193565589
 20
65.595562863218404
 30
0.0
 11
-294.487291289182
 21
120.23706813509089
 31
0.0
1001
REVIT
1002
{
1070
     1
1000
757742
1002
}
1002
{
1070
     5
1000
515858
1002
}
1002
{
1070
     2
1000
-2005028
1002
}
  0
INSERT
  5
1F1
  8
0
  6
CONTINUOUS
  2
*U32
 10
0.0
 20
0.0
 30
0.0
  0
CIRCLE
  5
1F2
  8
0
 10
300.09574461265782
 20
37.240464093000583
 30
0.0
 40
2.0
1001
REVIT
1002
{
1070
     1
1000
757745
1002
}
1002
{
1070
     5
1000
233011
1002
}
1002
{
1070
     2
1000
-2005028
1002
}
  0
INSERT
  5
1F3
  8
0
  6
CONTINUOUS
  2
*U33
 10
0.0
 20
0.0
 30
0.0
1001
REVIT
1002
{
1070
     1
1000
757745
1002
}
1002
{
1070
     5
1000
233011
1002
}
1002
{
1070
     2
1000
-2005028
1002
}
1001
ACAD
1002
{
1000
R14_HATCH_DATA
1000
1F3
1011
1.0
1021
0.0
1031
-2.6959946667150640E+067
1021
0.0
1031
0.0
1011
0.0
1021
0.0
1031
-2.6959946667150640E+067
1021
1.0
1031
0.0
1011
0.0
1021
0.0
1031
-2.6959946667150640E+067
1021
0.0
1031
1.0
1040
0.0
1010
0.0
1020
0.0
1030
1.0
1000
SOLID
1070
     1
1070
     0
1071
        1
1071
        0
1071
        1
1070
     2
1040
300.09574461265782
1040
37.240464093000583
1040
2.0
1040
0.0
1040
6.2831853071795862
1070
     1
1071
        0
1070
     0
1070
     1
1071
        1
1040
0.0
1040
0.0
1040
0.0
1002
}
  0
LINE
  5
1F4
  8
0
 10
335.34795506569571
 20
83.233378822147614
 30
0.0
 11
384.2853606509438
 21
83.227336754729421
 31
0.0
1001
REVIT
1002
{
1070
     1
1000
757745
1002
}
1002
{
1070
     5
1000
233011
1002
}
1002
{
1070
     2
1000
-2005028
1002
}
  0
LINE
  5
1F5
  8
0
 10
300.09574461265782
 20
37.240464093000583
 30
0.0
 11
335.34795506569571
 21
83.233378822147614
 31
0.0
1001
REVIT
1002
{
1070
     1
1000
757745
1002
}
1002
{
1070
     5
1000
233011
1002
}
1002
{
1070
     2
1000
-2005028
1002
}
  0
INSERT
  5
1F6
  8
0
  6
CONTINUOUS
  2
*U34
 10
0.0
 20
0.0
 30
0.0
  0
LINE
  5
418
  8
0
 10
529.17852865272619
 20
-199.4675550490681
 30
0.0
 11
529.17852865272562
 21
-102.31074956234821
 31
0.0
  0
LINE
  5
419
  8
0
 10
529.17852865272516
 20
0.5324449509318754
 30
0.0
 11
529.17852865272562
 21
-96.624360535788043
 31
0.0
  0
LINE
  5
41A
  8
0
 10
529.17852865272516
 20
0.5324449509318754
 30
0.0
 11
529.17852865272562
 21
-96.624360535788043
 31
0.0
  0
LINE
  5
41B
  8
0
 10
529.17852865272562
 20
-96.624360535788043
 30
0.0
 11
537.42462398143027
 21
-98.078369627732656
 31
0.0
  0
LINE
  5
41C
  8
0
 10
537.42462398143027
 20
-98.078369627732656
 30
0.0
 11
520.93243332402096
 21
-100.85674047040359
 31
0.0
  0
LINE
  5
41D
  8
0
 10
520.93243332402108
 20
-100.85674047040359
 30
0.0
 11
529.17852865272562
 21
-102.31074956234821
 31
0.0
  0
LINE
  5
41E
  8
0
 10
529.17852865272562
 20
-102.31074956234821
 30
0.0
 11
529.17852865272619
 21
-199.4675550490681
 31
0.0
  0
LINE
  5
41F
  8
0
 10
-529.17852865272357
 20
-199.4675550490681
 30
0.0
 11
-529.17852865272312
 21
-102.31074956234821
 31
0.0
  0
LINE
  5
420
  8
0
 10
-529.17852865272255
 20
0.5324449509318754
 30
0.0
 11
-529.17852865272312
 21
-96.624360535788043
 31
0.0
  0
LINE
  5
421
  8
0
 10
-529.17852865272357
 20
-199.4675550490681
 30
0.0
 11
-529.17852865272312
 21
-102.31074956234821
 31
0.0
  0
LINE
  5
422
  8
0
 10
-529.17852865272312
 20
-102.31074956234821
 30
0.0
 11
-520.93243332401835
 21
-100.85674047040359
 31
0.0
  0
LINE
  5
423
  8
0
 10
-520.93243332401835
 20
-100.85674047040359
 30
0.0
 11
-537.42462398142777
 21
-98.078369627732627
 31
0.0
  0
LINE
  5
424
  8
0
 10
-537.42462398142777
 20
-98.078369627732627
 30
0.0
 11
-529.17852865272312
 21
-96.624360535788043
 31
0.0
  0
LINE
  5
425
  8
0
 10
-529.17852865272312
 20
-96.624360535788043
 30
0.0
 11
-529.17852865272255
 21
0.5324449509318754
 31
0.0
  0
LINE
  5
426
  8
0
 10
200.0
 20
-166.89078604315341
 30
0.0
 11
2.8431945132800802
 21
-166.89078604315341
 31
0.0
  0
LINE
  5
427
  8
0
 10
-200.0
 20
-166.89078604315341
 30
0.0
 11
-2.8431945132800802
 21
-166.89078604315341
 31
0.0
  0
LINE
  5
428
  8
0
 10
200.0
 20
-166.89078604315341
 30
0.0
 11
2.8431945132800802
 21
-166.89078604315341
 31
0.0
  0
LINE
  5
429
  8
0
 10
2.8431945132800802
 20
-166.89078604315341
 30
0.0
 11
1.3891854213354491
 21
-158.6446907144487
 31
0.0
  0
LINE
  5
42A
  8
0
 10
1.3891854213354491
 20
-158.64469071444859
 30
0.0
 11
-1.3891854213354491
 21
-175.13688137185801
 31
0.0
  0
LINE
  5
42B
  8
0
 10
-1.3891854213354491
 20
-175.13688137185801
 30
0.0
 11
-2.8431945132800802
 21
-166.89078604315341
 31
0.0
  0
LINE
  5
42C
  8
0
 10
-2.8431945132800802
 20
-166.89078604315341
 30
0.0
 11
-200.0
 21
-166.89078604315341
 31
0.0
  0
LINE
  5
42D
  8
0
 10
-1.045655701965472
 20
152.6272521215738
 30
0.0
 11
-0.9393297504570342
 21
147.62838277020691
 31
0.0
1001
REVIT
1002
{
1070
     3
1000
773559
1002
}
  0
LINE
  5
42E
  8
0
 10
-4.8070850163778109
 20
146.1267426576249
 30
0.0
 11
-0.9393297504569773
 21
147.62838277020691
 31
0.0
1001
REVIT
1002
{
1070
     3
1000
773559
1002
}
  0
LINE
  5
42F
  8
0
 10
-252.09008575673931
 20
72.351099143497493
 30
0.0
 11
-4.8070850163715022
 21
146.12674265762681
 31
0.0
1001
REVIT
1002
{
1070
     3
1000
773559
1002
}
  0
LINE
  5
430
  8
0
 10
-253.32186928458589
 20
69.67375648751451
 30
0.0
 11
-253.10328570682799
 21
71.160519519912654
 31
0.0
1001
REVIT
1002
{
1070
     3
1000
773559
1002
}
  0
LINE
  5
431
  8
0
 10
-253.2986047296184
 20
69.117587925233721
 30
0.0
 11
-253.32186928458589
 21
69.67375648751451
 31
0.0
1001
REVIT
1002
{
1070
     3
1000
773559
1002
}
  0
LINE
  5
432
  8
0
 10
-251.780500694468
 20
62.833556431120819
 30
0.0
 11
-253.2986047296184
 21
69.117587925233721
 31
0.0
1001
REVIT
1002
{
1070
     3
1000
773559
1002
}
  0
LINE
  5
433
  8
0
 10
-240.14318137098351
 20
64.23964973889511
 30
0.0
 11
-250.13225445939361
 21
61.826702579643587
 31
0.0
1001
REVIT
1002
{
1070
     3
1000
773559
1002
}
  0
ARC
  5
434
  8
0
 10
-251.7051424006724
 20
70.997093458621293
 30
0.0
 40
1.4076621690083111
 50
105.8704329958157
 51
173.33306868569841
1001
REVIT
1002
{
1070
     3
1000
773559
1002
}
  0
ARC
  5
435
  8
0
 10
-250.45293991929191
 20
63.154270191322432
 30
0.0
 40
1.3657506828732919
 50
193.58136587841051
 51
283.58014447763219
1001
REVIT
1002
{
1070
     3
1000
773559
1002
}
  0
LINE
  5
436
  8
0
 10
1.045655701967916
 20
152.62725212157369
 30
0.0
 11
0.9393297504594215
 21
147.62838277020691
 31
0.0
1001
REVIT
1002
{
1070
     3
1000
773559
1002
}
  0
LINE
  5
437
  8
0
 10
4.8070850163801992
 20
146.1267426576249
 30
0.0
 11
0.9393297504593647
 21
147.62838277020691
 31
0.0
1001
REVIT
1002
{
1070
     3
1000
773559
1002
}
  0
LINE
  5
438
  8
0
 10
252.0900857567417
 20
72.351099143497493
 30
0.0
 11
4.8070850163738887
 21
146.12674265762681
 31
0.0
1001
REVIT
1002
{
1070
     3
1000
773559
1002
}
  0
LINE
  5
439
  8
0
 10
253.3218692845883
 20
69.67375648751451
 30
0.0
 11
253.10328570683041
 21
71.160519519912654
 31
0.0
1001
REVIT
1002
{
1070
     3
1000
773559
1002
}
  0
LINE
  5
43A
  8
0
 10
253.29860472962079
 20
69.117587925233721
 30
0.0
 11
253.3218692845883
 21
69.67375648751451
 31
0.0
1001
REVIT
1002
{
1070
     3
1000
773559
1002
}
  0
LINE
  5
43B
  8
0
 10
251.78050069447039
 20
62.833556431120819
 30
0.0
 11
253.29860472962079
 21
69.117587925233721
 31
0.0
1001
REVIT
1002
{
1070
     3
1000
773559
1002
}
  0
LINE
  5
43C
  8
0
 10
240.1431813709859
 20
64.23964973889511
 30
0.0
 11
250.13225445939591
 21
61.826702579643587
 31
0.0
1001
REVIT
1002
{
1070
     3
1000
773559
1002
}
  0
ARC
  5
43D
  8
0
 10
251.70514240067479
 20
70.997093458621293
 30
0.0
 40
1.4076621690083111
 50
6.6669313143011966
 51
74.129567004184324
1001
REVIT
1002
{
1070
     3
1000
773559
1002
}
  0
ARC
  5
43E
  8
0
 10
250.45293991929429
 20
63.154270191322432
 30
0.0
 40
1.3657506828732919
 50
256.41985552236781
 51
346.41863412158898
1001
REVIT
1002
{
1070
     3
1000
773559
1002
}
  0
LINE
  5
43F
  8
0
 10
75.0
 20
83.750000000000028
 30
0.0
 11
-75.0
 21
83.750000000000028
 31
0.0
1001
REVIT
1002
{
1070
     3
1000
211597
1002
}
  0
LINE
  5
440
  8
0
 10
-75.0
 20
83.750000000000028
 30
0.0
 11
-75.0
 21
23.750000000000021
 31
0.0
1001
REVIT
1002
{
1070
     3
1000
211597
1002
}
  0
LINE
  5
441
  8
0
 10
-75.0
 20
23.750000000000021
 30
0.0
 11
75.0
 21
23.750000000000021
 31
0.0
1001
REVIT
1002
{
1070
     3
1000
211597
1002
}
  0
LINE
  5
442
  8
0
 10
75.0
 20
23.750000000000021
 30
0.0
 11
75.0
 21
83.750000000000028
 31
0.0
1001
REVIT
1002
{
1070
     3
1000
211597
1002
}
  0
LINE
  5
443
  8
0
 10
-48.0
 20
53.750000000000021
 30
0.0
 11
-50.0
 21
56.250000000000021
 31
0.0
1001
REVIT
1002
{
1070
     3
1000
211597
1002
}
  0
LINE
  5
444
  8
0
 10
-50.0
 20
56.250000000000021
 30
0.0
 11
-70.0
 21
56.250000000000021
 31
0.0
1001
REVIT
1002
{
1070
     3
1000
211597
1002
}
  0
LINE
  5
445
  8
0
 10
-70.0
 20
56.250000000000021
 30
0.0
 11
-70.0
 21
51.250000000000021
 31
0.0
1001
REVIT
1002
{
1070
     3
1000
211597
1002
}
  0
LINE
  5
446
  8
0
 10
-70.0
 20
51.250000000000021
 30
0.0
 11
-50.0
 21
51.250000000000021
 31
0.0
1001
REVIT
1002
{
1070
     3
1000
211597
1002
}
  0
LINE
  5
447
  8
0
 10
-50.0
 20
51.250000000000021
 30
0.0
 11
-48.0
 21
53.750000000000021
 31
0.0
1001
REVIT
1002
{
1070
     3
1000
211597
1002
}
  0
LINE
  5
448
  8
0
 10
-18.0
 20
53.750000000000021
 30
0.0
 11
-20.0
 21
56.250000000000021
 31
0.0
1001
REVIT
1002
{
1070
     3
1000
211597
1002
}
  0
LINE
  5
449
  8
0
 10
-20.0
 20
56.250000000000021
 30
0.0
 11
-40.0
 21
56.250000000000021
 31
0.0
1001
REVIT
1002
{
1070
     3
1000
211597
1002
}
  0
LINE
  5
44A
  8
0
 10
-40.0
 20
56.250000000000021
 30
0.0
 11
-40.0
 21
51.250000000000021
 31
0.0
1001
REVIT
1002
{
1070
     3
1000
211597
1002
}
  0
LINE
  5
44B
  8
0
 10
-40.0
 20
51.250000000000021
 30
0.0
 11
-20.0
 21
51.250000000000021
 31
0.0
1001
REVIT
1002
{
1070
     3
1000
211597
1002
}
  0
LINE
  5
44C
  8
0
 10
-20.0
 20
51.250000000000021
 30
0.0
 11
-18.0
 21
53.750000000000021
 31
0.0
1001
REVIT
1002
{
1070
     3
1000
211597
1002
}
  0
LINE
  5
44D
  8
0
 10
12.0
 20
53.750000000000021
 30
0.0
 11
10.0
 21
56.250000000000021
 31
0.0
1001
REVIT
1002
{
1070
     3
1000
211597
1002
}
  0
LINE
  5
44E
  8
0
 10
10.0
 20
56.250000000000021
 30
0.0
 11
-10.0
 21
56.250000000000021
 31
0.0
1001
REVIT
1002
{
1070
     3
1000
211597
1002
}
  0
LINE
  5
44F
  8
0
 10
-10.0
 20
56.250000000000021
 30
0.0
 11
-10.0
 21
51.250000000000021
 31
0.0
1001
REVIT
1002
{
1070
     3
1000
211597
1002
}
  0
LINE
  5
450
  8
0
 10
-10.0
 20
51.250000000000021
 30
0.0
 11
10.0
 21
51.250000000000021
 31
0.0
1001
REVIT
1002
{
1070
     3
1000
211597
1002
}
  0
LINE
  5
451
  8
0
 10
10.0
 20
51.250000000000021
 30
0.0
 11
12.0
 21
53.750000000000021
 31
0.0
1001
REVIT
1002
{
1070
     3
1000
211597
1002
}
  0
LINE
  5
452
  8
0
 10
42.0
 20
53.750000000000021
 30
0.0
 11
40.0
 21
56.250000000000021
 31
0.0
1001
REVIT
1002
{
1070
     3
1000
211597
1002
}
  0
LINE
  5
453
  8
0
 10
40.0
 20
56.250000000000021
 30
0.0
 11
20.0
 21
56.250000000000021
 31
0.0
1001
REVIT
1002
{
1070
     3
1000
211597
1002
}
  0
LINE
  5
454
  8
0
 10
20.0
 20
56.250000000000021
 30
0.0
 11
20.0
 21
51.250000000000021
 31
0.0
1001
REVIT
1002
{
1070
     3
1000
211597
1002
}
  0
LINE
  5
455
  8
0
 10
20.0
 20
51.250000000000021
 30
0.0
 11
40.0
 21
51.250000000000021
 31
0.0
1001
REVIT
1002
{
1070
     3
1000
211597
1002
}
  0
LINE
  5
456
  8
0
 10
40.0
 20
51.250000000000021
 30
0.0
 11
42.0
 21
53.750000000000021
 31
0.0
1001
REVIT
1002
{
1070
     3
1000
211597
1002
}
  0
LINE
  5
457
  8
0
 10
72.0
 20
53.750000000000021
 30
0.0
 11
70.0
 21
56.250000000000021
 31
0.0
1001
REVIT
1002
{
1070
     3
1000
211597
1002
}
  0
LINE
  5
458
  8
0
 10
70.0
 20
56.250000000000021
 30
0.0
 11
50.0
 21
56.250000000000021
 31
0.0
1001
REVIT
1002
{
1070
     3
1000
211597
1002
}
  0
LINE
  5
459
  8
0
 10
50.0
 20
56.250000000000021
 30
0.0
 11
50.0
 21
51.250000000000021
 31
0.0
1001
REVIT
1002
{
1070
     3
1000
211597
1002
}
  0
LINE
  5
45A
  8
0
 10
50.0
 20
51.250000000000021
 30
0.0
 11
70.0
 21
51.250000000000021
 31
0.0
1001
REVIT
1002
{
1070
     3
1000
211597
1002
}
  0
LINE
  5
45B
  8
0
 10
70.0
 20
51.250000000000021
 30
0.0
 11
72.0
 21
53.750000000000021
 31
0.0
1001
REVIT
1002
{
1070
     3
1000
211597
1002
}
  0
LINE
  5
45C
  8
0
 10
-48.0
 20
73.750000000000028
 30
0.0
 11
-50.0
 21
76.250000000000028
 31
0.0
1001
REVIT
1002
{
1070
     3
1000
211597
1002
}
  0
LINE
  5
45D
  8
0
 10
-50.0
 20
76.250000000000028
 30
0.0
 11
-70.0
 21
76.250000000000028
 31
0.0
1001
REVIT
1002
{
1070
     3
1000
211597
1002
}
  0
LINE
  5
45E
  8
0
 10
-70.0
 20
76.250000000000028
 30
0.0
 11
-70.0
 21
71.250000000000028
 31
0.0
1001
REVIT
1002
{
1070
     3
1000
211597
1002
}
  0
LINE
  5
45F
  8
0
 10
-70.0
 20
71.250000000000028
 30
0.0
 11
-50.0
 21
71.250000000000028
 31
0.0
1001
REVIT
1002
{
1070
     3
1000
211597
1002
}
  0
LINE
  5
460
  8
0
 10
-50.0
 20
71.250000000000028
 30
0.0
 11
-48.0
 21
73.750000000000028
 31
0.0
1001
REVIT
1002
{
1070
     3
1000
211597
1002
}
  0
LINE
  5
461
  8
0
 10
-18.0
 20
73.750000000000028
 30
0.0
 11
-20.0
 21
76.250000000000028
 31
0.0
1001
REVIT
1002
{
1070
     3
1000
211597
1002
}
  0
LINE
  5
462
  8
0
 10
-20.0
 20
76.250000000000028
 30
0.0
 11
-40.0
 21
76.250000000000028
 31
0.0
1001
REVIT
1002
{
1070
     3
1000
211597
1002
}
  0
LINE
  5
463
  8
0
 10
-40.0
 20
76.250000000000028
 30
0.0
 11
-40.0
 21
71.250000000000028
 31
0.0
1001
REVIT
1002
{
1070
     3
1000
211597
1002
}
  0
LINE
  5
464
  8
0
 10
-40.0
 20
71.250000000000028
 30
0.0
 11
-20.0
 21
71.250000000000028
 31
0.0
1001
REVIT
1002
{
1070
     3
1000
211597
1002
}
  0
LINE
  5
465
  8
0
 10
-20.0
 20
71.250000000000028
 30
0.0
 11
-18.0
 21
73.750000000000028
 31
0.0
1001
REVIT
1002
{
1070
     3
1000
211597
1002
}
  0
LINE
  5
466
  8
0
 10
12.0
 20
73.750000000000028
 30
0.0
 11
10.0
 21
76.250000000000028
 31
0.0
1001
REVIT
1002
{
1070
     3
1000
211597
1002
}
  0
LINE
  5
467
  8
0
 10
10.0
 20
76.250000000000028
 30
0.0
 11
-10.0
 21
76.250000000000028
 31
0.0
1001
REVIT
1002
{
1070
     3
1000
211597
1002
}
  0
LINE
  5
468
  8
0
 10
-10.0
 20
76.250000000000028
 30
0.0
 11
-10.0
 21
71.250000000000028
 31
0.0
1001
REVIT
1002
{
1070
     3
1000
211597
1002
}
  0
LINE
  5
469
  8
0
 10
-10.0
 20
71.250000000000028
 30
0.0
 11
10.0
 21
71.250000000000028
 31
0.0
1001
REVIT
1002
{
1070
     3
1000
211597
1002
}
  0
LINE
  5
46A
  8
0
 10
10.0
 20
71.250000000000028
 30
0.0
 11
12.0
 21
73.750000000000028
 31
0.0
1001
REVIT
1002
{
1070
     3
1000
211597
1002
}
  0
LINE
  5
46B
  8
0
 10
42.0
 20
73.750000000000028
 30
0.0
 11
40.0
 21
76.250000000000028
 31
0.0
1001
REVIT
1002
{
1070
     3
1000
211597
1002
}
  0
LINE
  5
46C
  8
0
 10
40.0
 20
76.250000000000028
 30
0.0
 11
20.0
 21
76.250000000000028
 31
0.0
1001
REVIT
1002
{
1070
     3
1000
211597
1002
}
  0
LINE
  5
46D
  8
0
 10
20.0
 20
76.250000000000028
 30
0.0
 11
20.0
 21
71.250000000000028
 31
0.0
1001
REVIT
1002
{
1070
     3
1000
211597
1002
}
  0
LINE
  5
46E
  8
0
 10
20.0
 20
71.250000000000028
 30
0.0
 11
40.0
 21
71.250000000000028
 31
0.0
1001
REVIT
1002
{
1070
     3
1000
211597
1002
}
  0
LINE
  5
46F
  8
0
 10
40.0
 20
71.250000000000028
 30
0.0
 11
42.0
 21
73.750000000000028
 31
0.0
1001
REVIT
1002
{
1070
     3
1000
211597
1002
}
  0
LINE
  5
470
  8
0
 10
72.0
 20
73.750000000000028
 30
0.0
 11
70.0
 21
76.250000000000028
 31
0.0
1001
REVIT
1002
{
1070
     3
1000
211597
1002
}
  0
LINE
  5
471
  8
0
 10
70.0
 20
76.250000000000028
 30
0.0
 11
50.0
 21
76.250000000000028
 31
0.0
1001
REVIT
1002
{
1070
     3
1000
211597
1002
}
  0
LINE
  5
472
  8
0
 10
50.0
 20
76.250000000000028
 30
0.0
 11
50.0
 21
71.250000000000028
 31
0.0
1001
REVIT
1002
{
1070
     3
1000
211597
1002
}
  0
LINE
  5
473
  8
0
 10
50.0
 20
71.250000000000028
 30
0.0
 11
70.0
 21
71.250000000000028
 31
0.0
1001
REVIT
1002
{
1070
     3
1000
211597
1002
}
  0
LINE
  5
474
  8
0
 10
70.0
 20
71.250000000000028
 30
0.0
 11
72.0
 21
73.750000000000028
 31
0.0
1001
REVIT
1002
{
1070
     3
1000
211597
1002
}
  0
LINE
  5
475
  8
0
 10
-48.0
 20
33.750000000000021
 30
0.0
 11
-50.0
 21
36.250000000000021
 31
0.0
1001
REVIT
1002
{
1070
     3
1000
211597
1002
}
  0
LINE
  5
476
  8
0
 10
-50.0
 20
36.250000000000021
 30
0.0
 11
-70.0
 21
36.250000000000021
 31
0.0
1001
REVIT
1002
{
1070
     3
1000
211597
1002
}
  0
LINE
  5
477
  8
0
 10
-70.0
 20
36.250000000000021
 30
0.0
 11
-70.0
 21
31.250000000000021
 31
0.0
1001
REVIT
1002
{
1070
     3
1000
211597
1002
}
  0
LINE
  5
478
  8
0
 10
-70.0
 20
31.250000000000021
 30
0.0
 11
-50.0
 21
31.250000000000021
 31
0.0
1001
REVIT
1002
{
1070
     3
1000
211597
1002
}
  0
LINE
  5
479
  8
0
 10
-50.0
 20
31.250000000000021
 30
0.0
 11
-48.0
 21
33.750000000000021
 31
0.0
1001
REVIT
1002
{
1070
     3
1000
211597
1002
}
  0
LINE
  5
47A
  8
0
 10
-18.0
 20
33.750000000000021
 30
0.0
 11
-20.0
 21
36.250000000000021
 31
0.0
1001
REVIT
1002
{
1070
     3
1000
211597
1002
}
  0
LINE
  5
47B
  8
0
 10
-20.0
 20
36.250000000000021
 30
0.0
 11
-40.0
 21
36.250000000000021
 31
0.0
1001
REVIT
1002
{
1070
     3
1000
211597
1002
}
  0
LINE
  5
47C
  8
0
 10
-40.0
 20
36.250000000000021
 30
0.0
 11
-40.0
 21
31.250000000000021
 31
0.0
1001
REVIT
1002
{
1070
     3
1000
211597
1002
}
  0
LINE
  5
47D
  8
0
 10
-40.0
 20
31.250000000000021
 30
0.0
 11
-20.0
 21
31.250000000000021
 31
0.0
1001
REVIT
1002
{
1070
     3
1000
211597
1002
}
  0
LINE
  5
47E
  8
0
 10
-20.0
 20
31.250000000000021
 30
0.0
 11
-18.0
 21
33.750000000000021
 31
0.0
1001
REVIT
1002
{
1070
     3
1000
211597
1002
}
  0
LINE
  5
47F
  8
0
 10
12.0
 20
33.750000000000021
 30
0.0
 11
10.0
 21
36.250000000000021
 31
0.0
1001
REVIT
1002
{
1070
     3
1000
211597
1002
}
  0
LINE
  5
480
  8
0
 10
10.0
 20
36.250000000000021
 30
0.0
 11
-10.0
 21
36.250000000000021
 31
0.0
1001
REVIT
1002
{
1070
     3
1000
211597
1002
}
  0
LINE
  5
481
  8
0
 10
-10.0
 20
36.250000000000021
 30
0.0
 11
-10.0
 21
31.250000000000021
 31
0.0
1001
REVIT
1002
{
1070
     3
1000
211597
1002
}
  0
LINE
  5
482
  8
0
 10
-10.0
 20
31.250000000000021
 30
0.0
 11
10.0
 21
31.250000000000021
 31
0.0
1001
REVIT
1002
{
1070
     3
1000
211597
1002
}
  0
LINE
  5
483
  8
0
 10
10.0
 20
31.250000000000021
 30
0.0
 11
12.0
 21
33.750000000000021
 31
0.0
1001
REVIT
1002
{
1070
     3
1000
211597
1002
}
  0
LINE
  5
484
  8
0
 10
42.0
 20
33.750000000000021
 30
0.0
 11
40.0
 21
36.250000000000021
 31
0.0
1001
REVIT
1002
{
1070
     3
1000
211597
1002
}
  0
LINE
  5
485
  8
0
 10
40.0
 20
36.250000000000021
 30
0.0
 11
20.0
 21
36.250000000000021
 31
0.0
1001
REVIT
1002
{
1070
     3
1000
211597
1002
}
  0
LINE
  5
486
  8
0
 10
20.0
 20
36.250000000000021
 30
0.0
 11
20.0
 21
31.250000000000021
 31
0.0
1001
REVIT
1002
{
1070
     3
1000
211597
1002
}
  0
LINE
  5
487
  8
0
 10
20.0
 20
31.250000000000021
 30
0.0
 11
40.0
 21
31.250000000000021
 31
0.0
1001
REVIT
1002
{
1070
     3
1000
211597
1002
}
  0
LINE
  5
488
  8
0
 10
40.0
 20
31.250000000000021
 30
0.0
 11
42.0
 21
33.750000000000021
 31
0.0
1001
REVIT
1002
{
1070
     3
1000
211597
1002
}
  0
LINE
  5
489
  8
0
 10
72.0
 20
33.750000000000021
 30
0.0
 11
70.0
 21
36.250000000000021
 31
0.0
1001
REVIT
1002
{
1070
     3
1000
211597
1002
}
  0
LINE
  5
48A
  8
0
 10
70.0
 20
36.250000000000021
 30
0.0
 11
50.0
 21
36.250000000000021
 31
0.0
1001
REVIT
1002
{
1070
     3
1000
211597
1002
}
  0
LINE
  5
48B
  8
0
 10
50.0
 20
36.250000000000021
 30
0.0
 11
50.0
 21
31.250000000000021
 31
0.0
1001
REVIT
1002
{
1070
     3
1000
211597
1002
}
  0
LINE
  5
48C
  8
0
 10
50.0
 20
31.250000000000021
 30
0.0
 11
70.0
 21
31.250000000000021
 31
0.0
1001
REVIT
1002
{
1070
     3
1000
211597
1002
}
  0
LINE
  5
48D
  8
0
 10
70.0
 20
31.250000000000021
 30
0.0
 11
72.0
 21
33.750000000000021
 31
0.0
1001
REVIT
1002
{
1070
     3
1000
211597
1002
}
  0
LINE
  5
48E
  8
0
 10
48.0
 20
43.750000000000021
 30
0.0
 11
50.0
 21
46.250000000000021
 31
0.0
1001
REVIT
1002
{
1070
     3
1000
211597
1002
}
  0
LINE
  5
48F
  8
0
 10
50.0
 20
46.250000000000021
 30
0.0
 11
70.0
 21
46.250000000000021
 31
0.0
1001
REVIT
1002
{
1070
     3
1000
211597
1002
}
  0
LINE
  5
490
  8
0
 10
70.0
 20
46.250000000000021
 30
0.0
 11
70.0
 21
41.250000000000021
 31
0.0
1001
REVIT
1002
{
1070
     3
1000
211597
1002
}
  0
LINE
  5
491
  8
0
 10
70.0
 20
41.250000000000021
 30
0.0
 11
50.0
 21
41.250000000000021
 31
0.0
1001
REVIT
1002
{
1070
     3
1000
211597
1002
}
  0
LINE
  5
492
  8
0
 10
50.0
 20
41.250000000000021
 30
0.0
 11
48.0
 21
43.750000000000021
 31
0.0
1001
REVIT
1002
{
1070
     3
1000
211597
1002
}
  0
LINE
  5
493
  8
0
 10
18.0
 20
43.750000000000021
 30
0.0
 11
20.0
 21
46.250000000000021
 31
0.0
1001
REVIT
1002
{
1070
     3
1000
211597
1002
}
  0
LINE
  5
494
  8
0
 10
20.0
 20
46.250000000000021
 30
0.0
 11
40.0
 21
46.250000000000021
 31
0.0
1001
REVIT
1002
{
1070
     3
1000
211597
1002
}
  0
LINE
  5
495
  8
0
 10
40.0
 20
46.250000000000021
 30
0.0
 11
40.0
 21
41.250000000000021
 31
0.0
1001
REVIT
1002
{
1070
     3
1000
211597
1002
}
  0
LINE
  5
496
  8
0
 10
40.0
 20
41.250000000000021
 30
0.0
 11
20.0
 21
41.250000000000021
 31
0.0
1001
REVIT
1002
{
1070
     3
1000
211597
1002
}
  0
LINE
  5
497
  8
0
 10
20.0
 20
41.250000000000021
 30
0.0
 11
18.0
 21
43.750000000000021
 31
0.0
1001
REVIT
1002
{
1070
     3
1000
211597
1002
}
  0
LINE
  5
498
  8
0
 10
-12.0
 20
43.750000000000021
 30
0.0
 11
-10.0
 21
46.250000000000021
 31
0.0
1001
REVIT
1002
{
1070
     3
1000
211597
1002
}
  0
LINE
  5
499
  8
0
 10
-10.0
 20
46.250000000000021
 30
0.0
 11
10.0
 21
46.250000000000021
 31
0.0
1001
REVIT
1002
{
1070
     3
1000
211597
1002
}
  0
LINE
  5
49A
  8
0
 10
10.0
 20
46.250000000000021
 30
0.0
 11
10.0
 21
41.250000000000021
 31
0.0
1001
REVIT
1002
{
1070
     3
1000
211597
1002
}
  0
LINE
  5
49B
  8
0
 10
10.0
 20
41.250000000000021
 30
0.0
 11
-10.0
 21
41.250000000000021
 31
0.0
1001
REVIT
1002
{
1070
     3
1000
211597
1002
}
  0
LINE
  5
49C
  8
0
 10
-10.0
 20
41.250000000000021
 30
0.0
 11
-12.0
 21
43.750000000000021
 31
0.0
1001
REVIT
1002
{
1070
     3
1000
211597
1002
}
  0
LINE
  5
49D
  8
0
 10
-42.0
 20
43.750000000000021
 30
0.0
 11
-40.0
 21
46.250000000000021
 31
0.0
1001
REVIT
1002
{
1070
     3
1000
211597
1002
}
  0
LINE
  5
49E
  8
0
 10
-40.0
 20
46.250000000000021
 30
0.0
 11
-20.0
 21
46.250000000000021
 31
0.0
1001
REVIT
1002
{
1070
     3
1000
211597
1002
}
  0
LINE
  5
49F
  8
0
 10
-20.0
 20
46.250000000000021
 30
0.0
 11
-20.0
 21
41.250000000000021
 31
0.0
1001
REVIT
1002
{
1070
     3
1000
211597
1002
}
  0
LINE
  5
4A0
  8
0
 10
-20.0
 20
41.250000000000021
 30
0.0
 11
-40.0
 21
41.250000000000021
 31
0.0
1001
REVIT
1002
{
1070
     3
1000
211597
1002
}
  0
LINE
  5
4A1
  8
0
 10
-40.0
 20
41.250000000000021
 30
0.0
 11
-42.0
 21
43.750000000000021
 31
0.0
1001
REVIT
1002
{
1070
     3
1000
211597
1002
}
  0
LINE
  5
4A2
  8
0
 10
-72.0
 20
43.750000000000021
 30
0.0
 11
-70.0
 21
46.250000000000021
 31
0.0
1001
REVIT
1002
{
1070
     3
1000
211597
1002
}
  0
LINE
  5
4A3
  8
0
 10
-70.0
 20
46.250000000000021
 30
0.0
 11
-50.0
 21
46.250000000000021
 31
0.0
1001
REVIT
1002
{
1070
     3
1000
211597
1002
}
  0
LINE
  5
4A4
  8
0
 10
-50.0
 20
46.250000000000021
 30
0.0
 11
-50.0
 21
41.250000000000021
 31
0.0
1001
REVIT
1002
{
1070
     3
1000
211597
1002
}
  0
LINE
  5
4A5
  8
0
 10
-50.0
 20
41.250000000000021
 30
0.0
 11
-70.0
 21
41.250000000000021
 31
0.0
1001
REVIT
1002
{
1070
     3
1000
211597
1002
}
  0
LINE
  5
4A6
  8
0
 10
-70.0
 20
41.250000000000021
 30
0.0
 11
-72.0
 21
43.750000000000021
 31
0.0
1001
REVIT
1002
{
1070
     3
1000
211597
1002
}
  0
LINE
  5
4A7
  8
0
 10
48.0
 20
63.750000000000021
 30
0.0
 11
50.0
 21
66.250000000000028
 31
0.0
1001
REVIT
1002
{
1070
     3
1000
211597
1002
}
  0
LINE
  5
4A8
  8
0
 10
50.0
 20
66.250000000000028
 30
0.0
 11
70.0
 21
66.250000000000028
 31
0.0
1001
REVIT
1002
{
1070
     3
1000
211597
1002
}
  0
LINE
  5
4A9
  8
0
 10
70.0
 20
66.250000000000028
 30
0.0
 11
70.0
 21
61.250000000000028
 31
0.0
1001
REVIT
1002
{
1070
     3
1000
211597
1002
}
  0
LINE
  5
4AA
  8
0
 10
70.0
 20
61.250000000000028
 30
0.0
 11
50.0
 21
61.250000000000028
 31
0.0
1001
REVIT
1002
{
1070
     3
1000
211597
1002
}
  0
LINE
  5
4AB
  8
0
 10
50.0
 20
61.250000000000028
 30
0.0
 11
48.0
 21
63.750000000000021
 31
0.0
1001
REVIT
1002
{
1070
     3
1000
211597
1002
}
  0
LINE
  5
4AC
  8
0
 10
18.0
 20
63.750000000000021
 30
0.0
 11
20.0
 21
66.250000000000028
 31
0.0
1001
REVIT
1002
{
1070
     3
1000
211597
1002
}
  0
LINE
  5
4AD
  8
0
 10
20.0
 20
66.250000000000028
 30
0.0
 11
40.0
 21
66.250000000000028
 31
0.0
1001
REVIT
1002
{
1070
     3
1000
211597
1002
}
  0
LINE
  5
4AE
  8
0
 10
40.0
 20
66.250000000000028
 30
0.0
 11
40.0
 21
61.250000000000028
 31
0.0
1001
REVIT
1002
{
1070
     3
1000
211597
1002
}
  0
LINE
  5
4AF
  8
0
 10
40.0
 20
61.250000000000028
 30
0.0
 11
20.0
 21
61.250000000000028
 31
0.0
1001
REVIT
1002
{
1070
     3
1000
211597
1002
}
  0
LINE
  5
4B0
  8
0
 10
20.0
 20
61.250000000000028
 30
0.0
 11
18.0
 21
63.750000000000021
 31
0.0
1001
REVIT
1002
{
1070
     3
1000
211597
1002
}
  0
LINE
  5
4B1
  8
0
 10
-12.0
 20
63.750000000000021
 30
0.0
 11
-10.0
 21
66.250000000000028
 31
0.0
1001
REVIT
1002
{
1070
     3
1000
211597
1002
}
  0
LINE
  5
4B2
  8
0
 10
-10.0
 20
66.250000000000028
 30
0.0
 11
10.0
 21
66.250000000000028
 31
0.0
1001
REVIT
1002
{
1070
     3
1000
211597
1002
}
  0
LINE
  5
4B3
  8
0
 10
10.0
 20
66.250000000000028
 30
0.0
 11
10.0
 21
61.250000000000028
 31
0.0
1001
REVIT
1002
{
1070
     3
1000
211597
1002
}
  0
LINE
  5
4B4
  8
0
 10
10.0
 20
61.250000000000028
 30
0.0
 11
-10.0
 21
61.250000000000028
 31
0.0
1001
REVIT
1002
{
1070
     3
1000
211597
1002
}
  0
LINE
  5
4B5
  8
0
 10
-10.0
 20
61.250000000000028
 30
0.0
 11
-12.0
 21
63.750000000000021
 31
0.0
1001
REVIT
1002
{
1070
     3
1000
211597
1002
}
  0
LINE
  5
4B6
  8
0
 10
-42.0
 20
63.750000000000021
 30
0.0
 11
-40.0
 21
66.250000000000028
 31
0.0
1001
REVIT
1002
{
1070
     3
1000
211597
1002
}
  0
LINE
  5
4B7
  8
0
 10
-40.0
 20
66.250000000000028
 30
0.0
 11
-20.0
 21
66.250000000000028
 31
0.0
1001
REVIT
1002
{
1070
     3
1000
211597
1002
}
  0
LINE
  5
4B8
  8
0
 10
-20.0
 20
66.250000000000028
 30
0.0
 11
-20.0
 21
61.250000000000028
 31
0.0
1001
REVIT
1002
{
1070
     3
1000
211597
1002
}
  0
LINE
  5
4B9
  8
0
 10
-20.0
 20
61.250000000000028
 30
0.0
 11
-40.0
 21
61.250000000000028
 31
0.0
1001
REVIT
1002
{
1070
     3
1000
211597
1002
}
  0
LINE
  5
4BA
  8
0
 10
-40.0
 20
61.250000000000028
 30
0.0
 11
-42.0
 21
63.750000000000021
 31
0.0
1001
REVIT
1002
{
1070
     3
1000
211597
1002
}
  0
LINE
  5
4BB
  8
0
 10
-72.0
 20
63.750000000000021
 30
0.0
 11
-70.0
 21
66.250000000000028
 31
0.0
1001
REVIT
1002
{
1070
     3
1000
211597
1002
}
  0
LINE
  5
4BC
  8
0
 10
-70.0
 20
66.250000000000028
 30
0.0
 11
-50.0
 21
66.250000000000028
 31
0.0
1001
REVIT
1002
{
1070
     3
1000
211597
1002
}
  0
LINE
  5
4BD
  8
0
 10
-50.0
 20
66.250000000000028
 30
0.0
 11
-50.0
 21
61.250000000000028
 31
0.0
1001
REVIT
1002
{
1070
     3
1000
211597
1002
}
  0
LINE
  5
4BE
  8
0
 10
-50.0
 20
61.250000000000028
 30
0.0
 11
-70.0
 21
61.250000000000028
 31
0.0
1001
REVIT
1002
{
1070
     3
1000
211597
1002
}
  0
LINE
  5
4BF
  8
0
 10
-70.0
 20
61.250000000000028
 30
0.0
 11
-72.0
 21
63.750000000000021
 31
0.0
1001
REVIT
1002
{
1070
     3
1000
211597
1002
}
  0
ARC
  5
4C0
  8
0
 10
600.90827646333241
 20
-62.823214987221192
 30
0.0
 40
1.999816468760713
 50
256.25305736757088
 51
346.25183596679261
1001
REVIT
1002
{
1070
     3
1000
773559
1002
}
  0
ARC
  5
4C1
  8
0
 10
602.77525262776942
 20
-51.344655408260181
 30
0.0
 40
2.0611858542965171
 50
6.5001331594965697
 51
73.962768849426681
1001
REVIT
1002
{
1070
     3
1000
773559
1002
}
  0
ARC
  5
4C2
  8
0
 10
235.53976249883601
 20
64.905012156473575
 30
0.0
 40
2.6309694047366419
 50
75.3217446513314
 51
247.97770938843871
1001
REVIT
1002
{
1070
     3
1000
773559
1002
}
  0
ARC
  5
4C3
  8
0
 10
247.80462437042411
 20
67.369863153457018
 30
0.0
 40
3.0000413488272741
 50
255.44716671571959
 51
73.782241969916697
1001
REVIT
1002
{
1070
     3
1000
773559
1002
}
  0
LINE
  5
4C4
  8
0
 10
585.81678212940335
 20
-61.1899943746755
 30
0.0
 11
600.43305195645223
 21
-64.765746216516447
 31
0.0
1001
REVIT
1002
{
1070
     3
1000
773559
1002
}
  0
LINE
  5
4C5
  8
0
 10
602.8507975616044
 20
-63.2984809038349
 30
0.0
 11
605.10047685608527
 21
-54.103524267743659
 31
0.0
1001
REVIT
1002
{
1070
     3
1000
773559
1002
}
  0
LINE
  5
4C6
  8
0
 10
605.10047685608527
 20
-54.103524267743659
 30
0.0
 11
605.13691289975566
 21
-53.289250543202741
 31
0.0
1001
REVIT
1002
{
1070
     3
1000
773559
1002
}
  0
LINE
  5
4C7
  8
0
 10
605.13691289975566
 20
-53.289250543202762
 30
0.0
 11
604.82318833962916
 21
-51.111317785831069
 31
0.0
1001
REVIT
1002
{
1070
     3
1000
773559
1002
}
  0
LINE
  5
4C8
  8
0
 10
603.34467981275395
 20
-49.363685997352341
 30
0.0
 11
241.57366251318081
 21
59.716806204841177
 31
0.0
1001
REVIT
1002
{
1070
     3
1000
773559
1002
}
  0
LINE
  5
4C9
  8
0
 10
241.57366251318859
 20
59.716806204838797
 30
0.0
 11
234.5532350550217
 21
62.46600342109322
 31
0.0
1001
REVIT
1002
{
1070
     3
1000
773559
1002
}
  0
LINE
  5
4CA
  8
0
 10
236.2064260278004
 20
67.45011721281395
 30
0.0
 11
247.0507960584541
 21
64.466074082132153
 31
0.0
1001
REVIT
1002
{
1070
     3
1000
773559
1002
}
  0
LINE
  5
4CB
  8
0
 10
248.64250208560961
 20
70.250524367322484
 30
0.0
 11
202.28343935114339
 21
83.007138380692467
 31
0.0
1001
REVIT
1002
{
1070
     3
1000
773559
1002
}
  0
ARC
  5
4CC
  8
0
 10
-600.91059569250035
 20
-62.473491334595799
 30
0.0
 40
1.999816468760713
 50
193.7481640332069
 51
283.74694263242912
1001
REVIT
1002
{
1070
     3
1000
773559
1002
}
  0
ARC
  5
4CD
  8
0
 10
-602.77757185693736
 20
-50.994931755634802
 30
0.0
 40
2.0611858542965171
 50
106.03723115057331
 51
173.49986684050299
1001
REVIT
1002
{
1070
     3
1000
773559
1002
}
  0
ARC
  5
4CE
  8
0
 10
-235.54208172800401
 20
65.25473580909896
 30
0.0
 40
2.6309694047366419
 50
292.02229061156129
 51
104.6782553486654
1001
REVIT
1002
{
1070
     3
1000
773559
1002
}
  0
ARC
  5
4CF
  8
0
 10
-247.8069435995921
 20
67.719586806082404
 30
0.0
 40
3.0000413488272741
 50
106.2177580300833
 51
284.55283328428038
1001
REVIT
1002
{
1070
     3
1000
773559
1002
}
  0
LINE
  5
4D0
  8
0
 10
-585.8191013585714
 20
-60.840270722050121
 30
0.0
 11
-600.43537118562006
 21
-64.416022563891062
 31
0.0
1001
REVIT
1002
{
1070
     3
1000
773559
1002
}
  0
LINE
  5
4D1
  8
0
 10
-602.85311679077245
 20
-62.948757251209507
 30
0.0
 11
-605.10279608525343
 21
-53.75380061511828
 31
0.0
1001
REVIT
1002
{
1070
     3
1000
773559
1002
}
  0
LINE
  5
4D2
  8
0
 10
-605.10279608525343
 20
-53.75380061511828
 30
0.0
 11
-605.1392321289236
 21
-52.939526890577362
 31
0.0
1001
REVIT
1002
{
1070
     3
1000
773559
1002
}
  0
LINE
  5
4D3
  8
0
 10
-605.1392321289236
 20
-52.939526890577369
 30
0.0
 11
-604.82550756879732
 21
-50.761594133205691
 31
0.0
1001
REVIT
1002
{
1070
     3
1000
773559
1002
}
  0
LINE
  5
4D4
  8
0
 10
-603.346999041922
 20
-49.013962344726963
 30
0.0
 11
-241.5759817423488
 21
60.066529857466563
 31
0.0
1001
REVIT
1002
{
1070
     3
1000
773559
1002
}
  0
LINE
  5
4D5
  8
0
 10
-241.57598174235659
 20
60.066529857464189
 30
0.0
 11
-234.5555542841897
 21
62.815727073718612
 31
0.0
1001
REVIT
1002
{
1070
     3
1000
773559
1002
}
  0
LINE
  5
4D6
  8
0
 10
-236.2087452569684
 20
67.799840865439336
 30
0.0
 11
-247.05311528762209
 21
64.815797734757538
 31
0.0
1001
REVIT
1002
{
1070
     3
1000
773559
1002
}
  0
LINE
  5
4D7
  8
0
 10
-248.6448213147776
 20
70.600248019947884
 30
0.0
 11
-202.28575858031141
 21
83.356862033317853
 31
0.0
1001
REVIT
1002
{
1070
     3
1000
773559
1002
}
  0
LINE
  5
4D8
  8
0
 10
-0.0000000000002274
 20
13.74999999999994
 30
0.0
 11
529.20690860982404
 21
-178.86556250200979
 31
0.0
1001
REVIT
1002
{
1070
     3
1000
206265
1002
}
  0
LINE
  5
4D9
  8
0
 10
529.20690860982381
 20
-72.44778525441842
 30
0.0
 11
-0.0000000000004547
 21
120.1677772475914
 31
0.0
1001
REVIT
1002
{
1070
     3
1000
206265
1002
}
  0
LINE
  5
4DA
  8
0
 10
0.0000000000004547
 20
120.1677772475914
 30
0.0
 11
-529.20690860982381
 21
-72.44778525441842
 31
0.0
1001
REVIT
1002
{
1070
     3
1000
206265
1002
}
  0
LINE
  5
4DB
  8
0
 10
-529.20690860982404
 20
-178.86556250200979
 30
0.0
 11
0.0000000000002274
 21
13.75
 31
0.0
1001
REVIT
1002
{
1070
     3
1000
206265
1002
}
  0
LINE
  5
4DC
  8
0
 10
-56.010589418843033
 20
154.73464138671511
 30
0.0
 11
-52.206363353661118
 21
155.97070936421531
 31
0.0
1001
REVIT
1002
{
1070
     3
1000
211597
1002
}
  0
LINE
  5
4DD
  8
0
 10
-39.519426168621941
 20
108.8341617088886
 30
0.0
 11
-54.352241898619518
 21
154.48487449105599
 31
0.0
1001
REVIT
1002
{
1070
     3
1000
211597
1002
}
  0
LINE
  5
4DE
  8
0
 10
-38.425863921723398
 20
107.0865571734862
 30
0.0
 11
-39.519426168621941
 21
108.8341617088886
 31
0.0
1001
REVIT
1002
{
1070
     3
1000
211597
1002
}
  0
LINE
  5
4DF
  8
0
 10
-38.568369652326787
 20
109.1431787032636
 30
0.0
 11
-38.425863921723398
 21
107.0865571734862
 31
0.0
1001
REVIT
1002
{
1070
     3
1000
211597
1002
}
  0
LINE
  5
4E0
  8
0
 10
-53.401185382324371
 20
154.793891485431
 30
0.0
 11
-38.568369652326787
 21
109.1431787032636
 31
0.0
1001
REVIT
1002
{
1070
     3
1000
211597
1002
}
  0
LINE
  5
4E1
  8
0
 10
-52.260047342885372
 20
155.16466971056531
 30
0.0
 11
-53.401185382324371
 21
154.793891485431
 31
0.0
1001
REVIT
1002
{
1070
     3
1000
211597
1002
}
  0
LINE
  5
4E2
  8
0
 10
-54.352241898619518
 20
154.48487449105599
 30
0.0
 11
-55.493379938058091
 21
154.1140962659218
 31
0.0
1001
REVIT
1002
{
1070
     3
1000
211597
1002
}
  0
LINE
  5
4E3
  8
0
 10
-56.010589418843033
 20
154.73464138671511
 30
0.0
 11
-55.493379938058091
 21
154.1140962659218
 31
0.0
1001
REVIT
1002
{
1070
     3
1000
211597
1002
}
  0
LINE
  5
4E4
  8
0
 10
-52.206363353661118
 20
155.97070936421531
 30
0.0
 11
-52.260047342885372
 21
155.16466971056531
 31
0.0
1001
REVIT
1002
{
1070
     3
1000
211597
1002
}
  0
LINE
  5
4E5
  8
0
 10
-529.72003662195596
 20
-69.442015259775559
 30
0.0
 11
-39.560759220896422
 21
108.9613717634152
 31
0.0
  0
LINE
  5
4E6
  8
0
 10
-38.62379561088872
 20
109.30239862804819
 30
0.0
 11
-0.0000000000027187
 21
123.36031056477449
 31
0.0
  0
LINE
  5
4E7
  8
0
 10
-0.0000000000027187
 20
123.36031056477449
 30
0.0
 11
-5.1303021498820822
 21
137.4556998765654
 31
0.0
  0
LINE
  5
4E8
  8
0
 10
-5.1303021498820822
 20
137.4556998765654
 30
0.0
 11
-43.258574124662474
 21
123.5781437937566
 31
0.0
  0
LINE
  5
4E9
  8
0
 10
-44.198839529728119
 20
123.2359151740029
 30
0.0
 11
-534.85033877183525
 21
-55.346625947984698
 31
0.0
  0
LINE
  5
4EA
  8
0
 10
-2.5651510749425679
 20
130.40800522067039
 30
0.0
 11
-40.939533970246771
 21
116.44087208846319
 31
0.0
1001
REVIT
1002
{
1070
     3
1000
456193
1002
}
  0
LINE
  5
4EB
  8
0
 10
-41.879799375312409
 20
116.0986434687095
 30
0.0
 11
-532.28518769689583
 21
-62.394320603879663
 31
0.0
1001
REVIT
1002
{
1070
     3
1000
456193
1002
}
  0
LINE
  5
4EC
  8
0
 10
-1.710100716629154
 20
128.0587736687047
 30
0.0
 11
-40.16652058544129
 21
114.0617815200314
 31
0.0
1001
REVIT
1002
{
1070
     3
1000
456193
1002
}
  0
LINE
  5
4ED
  8
0
 10
-41.106785990506928
 20
113.71955290027771
 30
0.0
 11
-531.43013733858231
 21
-64.743552155845322
 31
0.0
1001
REVIT
1002
{
1070
     3
1000
456193
1002
}
  0
LINE
  5
4EE
  8
0
 10
-3.4202014332555049
 20
132.7572367726348
 30
0.0
 11
-41.712547355051782
 21
118.81996265689369
 31
0.0
1001
REVIT
1002
{
1070
     3
1000
456193
1002
}
  0
LINE
  5
4EF
  8
0
 10
-42.652812760117421
 20
118.47773403714
 30
0.0
 11
-533.1402380552081
 21
-60.045089051915078
 31
0.0
1001
REVIT
1002
{
1070
     3
1000
456193
1002
}
  0
LINE
  5
4F0
  8
0
 10
-4.2752517915687234
 20
135.10646832459989
 30
0.0
 11
-42.485560739857
 21
121.199053225325
 31
0.0
1001
REVIT
1002
{
1070
     3
1000
456193
1002
}
  0
LINE
  5
4F1
  8
0
 10
-43.425826144922702
 20
120.85682460557121
 30
0.0
 11
-533.99528841352128
 21
-57.695857499949959
 31
0.0
1001
REVIT
1002
{
1070
     3
1000
456193
1002
}
  0
LINE
  5
4F2
  8
0
 10
-0.8550503583159361
 20
125.7095421167396
 30
0.0
 11
-39.393507200636073
 21
111.68269095160009
 31
0.0
1001
REVIT
1002
{
1070
     3
1000
456193
1002
}
  0
LINE
  5
4F3
  8
0
 10
-40.33377260570176
 20
111.3404623318464
 30
0.0
 11
-530.57508698026902
 21
-67.092783707810412
 31
0.0
1001
REVIT
1002
{
1070
     3
1000
456193
1002
}
  0
LINE
  5
4F4
  8
0
 10
56.010589418843033
 20
154.73464138671511
 30
0.0
 11
52.206363353661118
 21
155.97070936421531
 31
0.0
1001
REVIT
1002
{
1070
     3
1000
211597
1002
}
  0
LINE
  5
4F5
  8
0
 10
39.519426168621898
 20
108.8341617088887
 30
0.0
 11
54.352241898619518
 21
154.48487449105599
 31
0.0
1001
REVIT
1002
{
1070
     3
1000
211597
1002
}
  0
LINE
  5
4F6
  8
0
 10
38.425863921723362
 20
107.0865571734862
 30
0.0
 11
39.519426168621898
 21
108.8341617088887
 31
0.0
1001
REVIT
1002
{
1070
     3
1000
211597
1002
}
  0
LINE
  5
4F7
  8
0
 10
38.568369652326759
 20
109.1431787032636
 30
0.0
 11
38.425863921723362
 21
107.0865571734862
 31
0.0
1001
REVIT
1002
{
1070
     3
1000
211597
1002
}
  0
LINE
  5
4F8
  8
0
 10
53.401185382324371
 20
154.793891485431
 30
0.0
 11
38.568369652326759
 21
109.1431787032636
 31
0.0
1001
REVIT
1002
{
1070
     3
1000
211597
1002
}
  0
LINE
  5
4F9
  8
0
 10
52.260047342885372
 20
155.16466971056531
 30
0.0
 11
53.401185382324371
 21
154.793891485431
 31
0.0
1001
REVIT
1002
{
1070
     3
1000
211597
1002
}
  0
LINE
  5
4FA
  8
0
 10
54.352241898619518
 20
154.48487449105599
 30
0.0
 11
55.493379938058091
 21
154.1140962659218
 31
0.0
1001
REVIT
1002
{
1070
     3
1000
211597
1002
}
  0
LINE
  5
4FB
  8
0
 10
56.010589418843033
 20
154.73464138671511
 30
0.0
 11
55.493379938058091
 21
154.1140962659218
 31
0.0
1001
REVIT
1002
{
1070
     3
1000
211597
1002
}
  0
LINE
  5
4FC
  8
0
 10
52.206363353661118
 20
155.97070936421531
 30
0.0
 11
52.260047342885372
 21
155.16466971056531
 31
0.0
1001
REVIT
1002
{
1070
     3
1000
211597
1002
}
  0
LINE
  5
4FD
  8
0
 10
534.63962253424404
 20
-55.269931509625017
 30
0.0
 11
44.198839529730101
 21
123.23591517400899
 31
0.0
  0
LINE
  5
4FE
  8
0
 10
43.258574124664428
 20
123.57814379376271
 30
0.0
 11
5.1303021498850399
 21
137.45569987657171
 31
0.0
  0
LINE
  5
4FF
  8
0
 10
5.130302149885039
 20
137.45569987657171
 30
0.0
 11
0.0000000000055027
 21
123.3603105647809
 31
0.0
  0
LINE
  5
500
  8
0
 10
0.0000000000055036
 20
123.3603105647809
 30
0.0
 11
38.623795610890802
 21
109.30239862805431
 31
0.0
  0
LINE
  5
501
  8
0
 10
39.560759220898291
 20
108.9613717634214
 30
0.0
 11
529.50932038436451
 21
-69.365320821415821
 31
0.0
  0
LINE
  5
502
  8
0
 10
2.5651510749454389
 20
130.4080052206767
 30
0.0
 11
40.939533970248682
 21
116.4408720884694
 31
0.0
1001
REVIT
1002
{
1070
     3
1000
456193
1002
}
  0
LINE
  5
503
  8
0
 10
41.879799375314349
 20
116.09864346871559
 30
0.0
 11
532.0744714593045
 21
-62.317626165519947
 31
0.0
1001
REVIT
1002
{
1070
     3
1000
456193
1002
}
  0
LINE
  5
504
  8
0
 10
1.7101007166319959
 20
128.0587736687111
 30
0.0
 11
40.166520585443223
 21
114.0617815200376
 31
0.0
1001
REVIT
1002
{
1070
     3
1000
456193
1002
}
  0
LINE
  5
505
  8
0
 10
41.106785990508889
 20
113.7195529002838
 30
0.0
 11
531.21942110099087
 21
-64.666857717485584
 31
0.0
1001
REVIT
1002
{
1070
     3
1000
456193
1002
}
  0
LINE
  5
506
  8
0
 10
3.4202014332584052
 20
132.75723677264111
 30
0.0
 11
41.712547355053822
 21
118.8199626568998
 31
0.0
1001
REVIT
1002
{
1070
     3
1000
456193
1002
}
  0
LINE
  5
507
  8
0
 10
42.652812760119318
 20
118.47773403714611
 30
0.0
 11
532.92952181761666
 21
-59.968394613555382
 31
0.0
1001
REVIT
1002
{
1070
     3
1000
456193
1002
}
  0
LINE
  5
508
  8
0
 10
4.2752517915716526
 20
135.1064683246062
 30
0.0
 11
42.485560739858911
 21
121.1990532253311
 31
0.0
1001
REVIT
1002
{
1070
     3
1000
456193
1002
}
  0
LINE
  5
509
  8
0
 10
43.425826144924592
 20
120.8568246055774
 30
0.0
 11
533.78457217592995
 21
-57.619163061590292
 31
0.0
1001
REVIT
1002
{
1070
     3
1000
456193
1002
}
  0
LINE
  5
50A
  8
0
 10
0.8550503583187495
 20
125.70954211674599
 30
0.0
 11
39.39350720063814
 21
111.6826909516063
 31
0.0
1001
REVIT
1002
{
1070
     3
1000
456193
1002
}
  0
LINE
  5
50B
  8
0
 10
40.333772605703643
 20
111.34046233185261
 30
0.0
 11
530.36437074267758
 21
-67.016089269450674
 31
0.0
1001
REVIT
1002
{
1070
     3
1000
456193
1002
}
  0
LINE
  5
50C
  8
0
  6
DASH
 10
-72.25628970526077
 20
131.19216408033711
 30
0.0
 11
-49.216370497432891
 21
138.6782876305752
 31
0.0
1001
REVIT
1002
{
1070
     3
1000
217411
1002
}
  0
LINE
  5
50D
  8
0
  6
DASH
 10
-48.265313981137751
 20
138.9873046249501
 30
0.0
 11
0.0000000000005542
 21
154.66965578228741
 31
0.0
1001
REVIT
1002
{
1070
     3
1000
217411
1002
}
  0
LINE
  5
50E
  8
0
  6
DASH
 10
72.256289705261509
 20
131.19216408033699
 30
0.0
 11
49.216370497432969
 21
138.6782876305754
 31
0.0
1001
REVIT
1002
{
1070
     3
1000
217411
1002
}
  0
LINE
  5
50F
  8
0
  6
DASH
 10
48.265313981137908
 20
138.9873046249503
 30
0.0
 11
0.0000000000002416
 21
154.66965578228749
 31
0.0
1001
REVIT
1002
{
1070
     3
1000
217411
1002
}
  0
LINE
  5
510
  8
0
 10
0.0000000000000069
 20
168.83326101064401
 30
0.0
 11
52.427893117397787
 21
151.79840590480791
 31
0.0
1001
REVIT
1002
{
1070
     3
1000
224528
1002
}
  0
LINE
  5
511
  8
0
 10
53.378949633693018
 20
151.48938891043289
 30
0.0
 11
133.96432665277459
 21
125.30561268857871
 31
0.0
1001
REVIT
1002
{
1070
     3
1000
224528
1002
}
  0
LINE
  5
512
  8
0
 10
133.96432665277459
 20
125.30561268857871
 30
0.0
 11
137.92730022360189
 21
109.4109938505979
 31
0.0
1001
REVIT
1002
{
1070
     3
1000
224528
1002
}
  0
LINE
  5
513
  8
0
 10
-0.0000000000000056
 20
168.83326101064401
 30
0.0
 11
-52.42789311739844
 21
151.79840590480759
 31
0.0
1001
REVIT
1002
{
1070
     3
1000
224528
1002
}
  0
LINE
  5
514
  8
0
 10
-53.378949633693601
 20
151.48938891043269
 30
0.0
 11
-133.96432665277459
 21
125.30561268857871
 31
0.0
1001
REVIT
1002
{
1070
     3
1000
224528
1002
}
  0
LINE
  5
515
  8
0
 10
-133.96432665277459
 20
125.30561268857871
 30
0.0
 11
-137.92730022360189
 21
109.4109938505979
 31
0.0
1001
REVIT
1002
{
1070
     3
1000
224528
1002
}
  0
LINE
  5
516
  8
0
  6
DASH
 10
0.0
 20
144.64386601453739
 30
0.0
 11
-44.80460089434051
 21
128.33632493082061
 31
0.0
1001
REVIT
1002
{
1070
     3
1000
217411
1002
}
  0
LINE
  5
517
  8
0
  6
DASH
 10
-45.74486629940602
 20
127.9940963110665
 30
0.0
 11
-152.2738242114263
 21
89.220726543694155
 31
0.0
1001
REVIT
1002
{
1070
     3
1000
217411
1002
}
  0
LINE
  5
518
  8
0
  6
DASH
 10
538.12857768950391
 20
-51.218918472450483
 30
0.0
 11
45.7448662994044
 21
127.99409631106749
 31
0.0
1001
REVIT
1002
{
1070
     3
1000
217411
1002
}
  0
LINE
  5
519
  8
0
  6
DASH
 10
44.804600894338868
 20
128.3363249308216
 30
0.0
 11
0.00000000000216
 21
144.6438660145372
 31
0.0
1001
REVIT
1002
{
1070
     3
1000
217411
1002
}
  0
LINE
  5
51A
  8
0
  6
DASH
 10
-5.8143424366106133
 20
139.3350851183518
 30
0.0
 11
-43.876984832572013
 21
125.4814162487031
 31
0.0
1001
REVIT
1002
{
1070
     3
1000
217411
1002
}
  0
LINE
  5
51B
  8
0
  6
DASH
 10
-44.817250237637531
 20
125.1391876289489
 30
0.0
 11
-529.17852865272459
 21
-51.15390034526726
 31
0.0
1001
REVIT
1002
{
1070
     3
1000
217411
1002
}
  0
LINE
  5
51C
  8
0
 10
-73.095110004076446
 20
-12.85444431189751
 30
0.0
 11
-162.02802951217211
 21
-166.89077936535151
 31
0.0
1001
REVIT
1002
{
1070
     3
1000
206265
1002
}
  0
LINE
  5
51D
  8
0
 10
-104.29300259320929
 20
-166.8907793653517
 30
0.0
 11
0.00000000000054
 21
13.749999999999259
 31
0.0
1001
REVIT
1002
{
1070
     3
1000
206265
1002
}
  0
LINE
  5
51E
  8
0
 10
-0.00000000000054
 20
13.749999999999289
 30
0.0
 11
104.29300259320929
 21
-166.8907793653517
 31
0.0
1001
REVIT
1002
{
1070
     3
1000
206265
1002
}
  0
LINE
  5
51F
  8
0
 10
162.02802951217211
 20
-166.89077936535151
 30
0.0
 11
73.095110004076375
 21
-12.854444311897391
 31
0.0
1001
REVIT
1002
{
1070
     3
1000
206265
1002
}
  0
VIEWPORT
  5
407
 67
     1
  8
0
  6
CONTINUOUS
 10
128.5
 20
97.5
 30
0.0
 40
582.84205479452055
 41
222.18000000000001
 68
     1
 69
     1
1001
ACAD
1000
MVIEW
1002
{
1070
    16
1010
0.0
1020
0.0
1030
0.0
1010
0.0
1020
0.0
1030
1.0
1040
0.0
1040
222.18000000000001
1040
128.5
1040
97.5
1040
50.0
1040
0.0
1040
0.0
1070
     0
1070
   100
1070
     1
1070
     1
1070
     0
1070
     0
1070
     0
1070
     0
1040
0.0
1040
0.0
1040
0.0
1040
10.0
1040
10.0
1040
10.0
1040
10.0
1070
     0
1002
{
1002
}
1002
}
  0
VIEWPORT
  5
40B
 67
     1
  8
0
  6
CONTINUOUS
 10
128.5
 20
97.5
 30
0.0
 40
205.59999999999999
 41
156.0
 68
     2
 69
     2
1001
ACAD
1000
MVIEW
1002
{
1070
    16
1010
0.0
1020
0.0
1030
0.0
1010
0.0
1020
0.0
1030
1.0
1040
0.0
1040
926.5743510974379
1040
-0.0011596145840258
1040
80.693277386475955
1040
50.0
1040
0.0
1040
0.0
1070
     0
1070
  1000
1070
     1
1070
     1
1070
     0
1070
     0
1070
     0
1070
     0
1040
0.0
1040
0.0
1040
0.0
1040
1.0
1040
1.0
1040
0.0
1040
0.0
1070
     0
1002
{
1002
}
1002
}
  0
ENDSEC
  0
EOF
