  0
SECTION
  2
HEADER
  9
$ACADVER
  1
AC1009
  9
$INSBASE
 10
0.0
 20
0.0
 30
0.0
  9
$EXTMIN
 10
-743.76782500657964
 20
-243.96363762743729
 30
0.0
  9
$EXTMAX
 10
274.93216436871973
 20
466.7799875833644
 30
0.0
  9
$LIMMIN
 10
0.0
 20
0.0
  9
$LIMMAX
 10
12.0
 20
9.0
  9
$ORTHOMODE
 70
     0
  9
$REGENMODE
 70
     1
  9
$FILLMODE
 70
     1
  9
$QTEXTMODE
 70
     0
  9
$MIRRTEXT
 70
     0
  9
$DRAGMODE
 70
     2
  9
$LTSCALE
 40
1.0
  9
$OSMODE
 70
     0
  9
$ATTMODE
 70
     1
  9
$TEXTSIZE
 40
0.2
  9
$TRACEWID
 40
0.05
  9
$TEXTSTYLE
  7
STANDARD
  9
$CLAYER
  8
0
  9
$CELTYPE
  6
BYLAYER
  9
$CECOLOR
 62
   256
  9
$DIMSCALE
 40
1.0
  9
$DIMASZ
 40
0.18
  9
$DIMEXO
 40
0.0625
  9
$DIMDLI
 40
0.38
  9
$DIMRND
 40
0.0
  9
$DIMDLE
 40
0.0
  9
$DIMEXE
 40
0.18
  9
$DIMTP
 40
0.0
  9
$DIMTM
 40
0.0
  9
$DIMTXT
 40
0.18
  9
$DIMCEN
 40
0.09
  9
$DIMTSZ
 40
0.0
  9
$DIMTOL
 70
     0
  9
$DIMLIM
 70
     0
  9
$DIMTIH
 70
     1
  9
$DIMTOH
 70
     1
  9
$DIMSE1
 70
     0
  9
$DIMSE2
 70
     0
  9
$DIMTAD
 70
     0
  9
$DIMZIN
 70
     0
  9
$DIMBLK
  1

  9
$DIMASO
 70
     1
  9
$DIMSHO
 70
     1
  9
$DIMPOST
  1

  9
$DIMAPOST
  1

  9
$DIMALT
 70
     0
  9
$DIMALTD
 70
     2
  9
$DIMALTF
 40
25.399999999999999
  9
$DIMLFAC
 40
1.0
  9
$DIMTOFL
 70
     0
  9
$DIMTVP
 40
0.0
  9
$DIMTIX
 70
     0
  9
$DIMSOXD
 70
     0
  9
$DIMSAH
 70
     0
  9
$DIMBLK1
  1

  9
$DIMBLK2
  1

  9
$DIMSTYLE
  2
STANDARD
  9
$DIMCLRD
 70
     0
  9
$DIMCLRE
 70
     0
  9
$DIMCLRT
 70
     0
  9
$DIMTFAC
 40
1.0
  9
$DIMGAP
 40
0.09
  9
$LUNITS
 70
     2
  9
$LUPREC
 70
     4
  9
$SKETCHINC
 40
0.1
  9
$FILLETRAD
 40
0.0
  9
$AUNITS
 70
     0
  9
$AUPREC
 70
     0
  9
$MENU
  1
.
  9
$ELEVATION
 40
0.0
  9
$PELEVATION
 40
0.0
  9
$THICKNESS
 40
0.0
  9
$LIMCHECK
 70
     0
  9
$BLIPMODE
 70
     0
  9
$CHAMFERA
 40
0.0
  9
$CHAMFERB
 40
0.0
  9
$SKPOLY
 70
     0
  9
$TDCREATE
 40
2457745.6364626968
  9
$TDUPDATE
 40
2457745.6829395839
  9
$TDINDWG
 40
0.0001340509
  9
$TDUSRTIMER
 40
0.0001340509
  9
$USRTIMER
 70
     1
  9
$ANGBASE
 50
0.0
  9
$ANGDIR
 70
     0
  9
$PDMODE
 70
     0
  9
$PDSIZE
 40
0.0
  9
$PLINEWID
 40
0.0
  9
$COORDS
 70
     2
  9
$SPLFRAME
 70
     0
  9
$SPLINETYPE
 70
     6
  9
$SPLINESEGS
 70
     8
  9
$ATTDIA
 70
     0
  9
$ATTREQ
 70
     0
  9
$HANDLING
 70
     1
  9
$HANDSEED
  5
91D
  9
$SURFTAB1
 70
     6
  9
$SURFTAB2
 70
     6
  9
$SURFTYPE
 70
     6
  9
$SURFU
 70
     6
  9
$SURFV
 70
     6
  9
$UCSNAME
  2

  9
$UCSORG
 10
0.0
 20
0.0
 30
0.0
  9
$UCSXDIR
 10
1.0
 20
0.0
 30
0.0
  9
$UCSYDIR
 10
0.0
 20
1.0
 30
0.0
  9
$PUCSNAME
  2

  9
$PUCSORG
 10
0.0
 20
0.0
 30
0.0
  9
$PUCSXDIR
 10
1.0
 20
0.0
 30
0.0
  9
$PUCSYDIR
 10
0.0
 20
1.0
 30
0.0
  9
$USERI1
 70
     0
  9
$USERI2
 70
     0
  9
$USERI3
 70
     0
  9
$USERI4
 70
     0
  9
$USERI5
 70
     0
  9
$USERR1
 40
0.0
  9
$USERR2
 40
0.0
  9
$USERR3
 40
0.0
  9
$USERR4
 40
0.0
  9
$USERR5
 40
0.0
  9
$WORLDVIEW
 70
     1
  9
$SHADEDGE
 70
     3
  9
$SHADEDIF
 70
    70
  9
$TILEMODE
 70
     1
  9
$MAXACTVP
 70
    64
  9
$PLIMCHECK
 70
     0
  9
$PEXTMIN
 10
28.674481201171879
 20
19.966517114639291
 30
0.0
  9
$PEXTMAX
 10
258.07033081054692
 20
179.69865403175351
 30
0.0
  9
$PLIMMIN
 10
-5.069427490234375
 20
-5.1964163780212402
  9
$PLIMMAX
 10
291.89889526367187
 20
204.77691125869751
  9
$UNITMODE
 70
     0
  9
$VISRETAIN
 70
     1
  9
$PLINEGEN
 70
     0
  9
$PSLTSCALE
 70
     1
  0
ENDSEC
  0
SECTION
  2
TABLES
  0
TABLE
  2
VPORT
 70
     1
  0
VPORT
  2
*ACTIVE
 70
     0
 10
0.0
 20
0.0
 11
1.0
 21
1.0
 12
-210.08962480888411
 22
111.3180233831314
 13
0.0
 23
0.0
 14
1.0
 24
1.0
 15
0.0
 25
0.0
 16
0.0
 26
0.0
 36
1.0
 17
0.0
 27
0.0
 37
0.0
 40
704.41624118281402
 41
1.5065088757396441
 42
50.0
 43
0.0
 44
0.0
 50
0.0
 51
0.0
 71
     0
 72
  1000
 73
     1
 74
     1
 75
     0
 76
     0
 77
     0
 78
     0
  0
ENDTAB
  0
TABLE
  2
LTYPE
 70
     2
  0
LTYPE
  2
CONTINUOUS
 70
     0
  3
Solid line
 72
    65
 73
     0
 40
0.0
  0
LTYPE
  2
DASH
 70
     0
  3

 72
    65
 73
     2
 40
6.3499999999999996
 49
3.1749999999999998
 49
-3.1749999999999998
  0
ENDTAB
  0
TABLE
  2
LAYER
 70
     9
  0
LAYER
  2
0
 70
     0
 62
     7
  6
CONTINUOUS
  0
ENDTAB
  0
TABLE
  2
STYLE
 70
     8
  0
STYLE
  2
STANDARD
 70
     0
 40
0.0
 41
1.0
 50
0.0
 71
     0
 42
0.2
  3
txt
  4

  0
STYLE
  2
ARIAL
 70
     0
 40
12.2941616766467
 41
1.0
 50
0.0
 71
     0
 42
0.2
  3
txt
  4

  0
ENDTAB
  0
TABLE
  2
VIEW
 70
     1
  0
ENDTAB
  0
TABLE
  2
UCS
 70
     0
  0
ENDTAB
  0
TABLE
  2
APPID
 70
     6
  0
APPID
  2
ACAD
 70
     0
  0
APPID
  2
ACADANNOTATIVE
 70
     0
  0
APPID
  2
REVIT
 70
     0
  0
APPID
  2
ACAD_PSEXT
 70
     0
  0
APPID
  2
ACAD_NAV_VCDISPLAY
 70
     0
  0
APPID
  2
ACAD_MLEADERVER
 70
     0
  0
ENDTAB
  0
TABLE
  2
DIMSTYLE
 70
     2
  0
DIMSTYLE
  2
STANDARD
 70
     0
  3

  4

  5

  6

  7

 40
1.0
 41
0.18
 42
0.0625
 43
0.38
 44
0.18
 45
0.0
 46
0.0
 47
0.0
 48
0.0
140
0.18
141
0.09
142
0.0
143
25.399999999999999
144
1.0
145
0.0
146
1.0
147
0.09
 71
     0
 72
     0
 73
     1
 74
     1
 75
     0
 76
     0
 77
     0
 78
     0
170
     0
171
     2
172
     0
173
     0
174
     0
175
     0
176
     0
177
     0
178
     0
  0
ENDTAB
  0
ENDSEC
  0
SECTION
  2
BLOCKS
  0
BLOCK
  8
0
  2
$MODEL_SPACE
 70
     0
 10
0.0
 20
0.0
 30
0.0
  3
$MODEL_SPACE
  1

  0
ENDBLK
  5
72
  8
0
  0
BLOCK
 67
     1
  8
0
  2
$PAPER_SPACE
 70
     0
 10
0.0
 20
0.0
 30
0.0
  3
$PAPER_SPACE
  1

  0
ENDBLK
  5
76
 67
     1
  8
0
  0
BLOCK
  8
0
  2
*U24
 70
     1
 10
0.0
 20
0.0
 30
0.0
  3
*U24
  1

  0
SOLID
  5
4C7
  8
0
  6
CONTINUOUS
 10
155.23796610192281
 20
371.8001838547633
 30
0.0
 11
154.46542361598549
 21
371.67782514550117
 31
0.0
 12
156.01050858786019
 22
371.67782514550117
 32
0.0
 13
156.01050858786019
 23
371.67782514550117
 33
0.0
  0
SOLID
  5
4C8
  8
0
  6
CONTINUOUS
 10
154.46542361598549
 20
371.67782514550117
 30
0.0
 11
153.76850297119171
 21
371.32272634070068
 31
0.0
 12
156.70742923265399
 22
371.32272634070068
 32
0.0
 13
156.70742923265399
 23
371.32272634070068
 33
0.0
210
0.0
220
0.0
230
1.0
  0
SOLID
  5
4C9
  8
0
  6
CONTINUOUS
 10
-154.46542361598549
 20
371.67782514550117
 30
0.0
 11
-156.01050858786019
 21
371.67782514550117
 31
0.0
 12
-156.70742923265399
 22
371.32272634070068
 32
0.0
 13
-156.70742923265399
 23
371.32272634070068
 33
0.0
210
0.0
220
0.0
230
-1.0
  0
SOLID
  5
4CA
  8
0
  6
CONTINUOUS
 10
153.76850297119171
 20
371.32272634070068
 30
0.0
 11
153.21542361598549
 21
370.76964698549449
 31
0.0
 12
157.26050858786019
 22
370.76964698549449
 32
0.0
 13
157.26050858786019
 23
370.76964698549449
 33
0.0
210
0.0
220
0.0
230
1.0
  0
SOLID
  5
4CB
  8
0
  6
CONTINUOUS
 10
-153.76850297119171
 20
371.32272634070068
 30
0.0
 11
-156.70742923265399
 21
371.32272634070068
 31
0.0
 12
-157.26050858786019
 22
370.76964698549449
 32
0.0
 13
-157.26050858786019
 23
370.76964698549449
 33
0.0
210
0.0
220
0.0
230
-1.0
  0
SOLID
  5
4CC
  8
0
  6
CONTINUOUS
 10
153.21542361598549
 20
370.76964698549449
 30
0.0
 11
152.860324811185
 21
370.07272634070068
 31
0.0
 12
157.61560739266071
 22
370.07272634070068
 32
0.0
 13
157.61560739266071
 23
370.07272634070068
 33
0.0
210
0.0
220
0.0
230
1.0
  0
SOLID
  5
4CD
  8
0
  6
CONTINUOUS
 10
-153.21542361598549
 20
370.76964698549449
 30
0.0
 11
-157.26050858786019
 21
370.76964698549449
 31
0.0
 12
-157.61560739266071
 22
370.07272634070068
 32
0.0
 13
-157.61560739266071
 23
370.07272634070068
 33
0.0
210
0.0
220
0.0
230
-1.0
  0
SOLID
  5
4CE
  8
0
  6
CONTINUOUS
 10
152.860324811185
 20
370.07272634070068
 30
0.0
 11
152.73796610192281
 21
369.3001838547633
 31
0.0
 12
157.73796610192289
 22
369.3001838547633
 32
0.0
 13
157.73796610192289
 23
369.3001838547633
 33
0.0
210
0.0
220
0.0
230
1.0
  0
SOLID
  5
4CF
  8
0
  6
CONTINUOUS
 10
-152.860324811185
 20
370.07272634070068
 30
0.0
 11
-157.61560739266071
 21
370.07272634070068
 31
0.0
 12
-157.73796610192289
 22
369.3001838547633
 32
0.0
 13
-157.73796610192289
 23
369.3001838547633
 33
0.0
210
0.0
220
0.0
230
-1.0
  0
SOLID
  5
4D0
  8
0
  6
CONTINUOUS
 10
152.73796610192281
 20
369.3001838547633
 30
0.0
 11
152.860324811185
 21
368.52764136882593
 31
0.0
 12
157.61560739266071
 22
368.52764136882593
 32
0.0
 13
157.61560739266071
 23
368.52764136882593
 33
0.0
210
0.0
220
0.0
230
1.0
  0
SOLID
  5
4D1
  8
0
  6
CONTINUOUS
 10
-152.73796610192281
 20
369.3001838547633
 30
0.0
 11
-157.73796610192289
 21
369.3001838547633
 31
0.0
 12
-157.61560739266071
 22
368.52764136882593
 32
0.0
 13
-157.61560739266071
 23
368.52764136882593
 33
0.0
210
0.0
220
0.0
230
-1.0
  0
SOLID
  5
4D2
  8
0
  6
CONTINUOUS
 10
152.860324811185
 20
368.52764136882593
 30
0.0
 11
153.21542361598549
 21
367.83072072403212
 31
0.0
 12
157.26050858786019
 22
367.83072072403212
 32
0.0
 13
157.26050858786019
 23
367.83072072403212
 33
0.0
210
0.0
220
0.0
230
1.0
  0
SOLID
  5
4D3
  8
0
  6
CONTINUOUS
 10
-152.860324811185
 20
368.52764136882593
 30
0.0
 11
-157.61560739266071
 21
368.52764136882593
 31
0.0
 12
-157.26050858786019
 22
367.83072072403212
 32
0.0
 13
-157.26050858786019
 23
367.83072072403212
 33
0.0
210
0.0
220
0.0
230
-1.0
  0
SOLID
  5
4D4
  8
0
  6
CONTINUOUS
 10
153.21542361598549
 20
367.83072072403212
 30
0.0
 11
153.76850297119171
 21
367.27764136882593
 31
0.0
 12
156.70742923265399
 22
367.27764136882593
 32
0.0
 13
156.70742923265399
 23
367.27764136882593
 33
0.0
210
0.0
220
0.0
230
1.0
  0
SOLID
  5
4D5
  8
0
  6
CONTINUOUS
 10
-153.21542361598549
 20
367.83072072403212
 30
0.0
 11
-157.26050858786019
 21
367.83072072403212
 31
0.0
 12
-156.70742923265399
 22
367.27764136882593
 32
0.0
 13
-156.70742923265399
 23
367.27764136882593
 33
0.0
210
0.0
220
0.0
230
-1.0
  0
SOLID
  5
4D6
  8
0
  6
CONTINUOUS
 10
-154.46542361598549
 20
366.92254256402549
 30
0.0
 11
-156.01050858786019
 21
366.92254256402549
 31
0.0
 12
-155.23796610192281
 22
366.8001838547633
 32
0.0
 13
-155.23796610192281
 23
366.8001838547633
 33
0.0
210
0.0
220
0.0
230
-1.0
  0
SOLID
  5
4D7
  8
0
  6
CONTINUOUS
 10
153.76850297119171
 20
367.27764136882593
 30
0.0
 11
154.46542361598549
 21
366.92254256402549
 31
0.0
 12
156.01050858786019
 22
366.92254256402549
 32
0.0
 13
156.01050858786019
 23
366.92254256402549
 33
0.0
210
0.0
220
0.0
230
1.0
  0
SOLID
  5
4D8
  8
0
  6
CONTINUOUS
 10
-153.76850297119171
 20
367.27764136882593
 30
0.0
 11
-156.70742923265399
 21
367.27764136882593
 31
0.0
 12
-156.01050858786019
 22
366.92254256402549
 32
0.0
 13
-156.01050858786019
 23
366.92254256402549
 33
0.0
210
0.0
220
0.0
230
-1.0
  0
LINE
  5
4D9
  8
0
  6
CONTINUOUS
 10
155.23796610192281
 20
371.8001838547633
 30
0.0
 11
154.46542361598549
 21
371.67782514550117
 31
0.0
  0
LINE
  5
4DA
  8
0
  6
CONTINUOUS
 10
156.01050858786019
 20
371.67782514550117
 30
0.0
 11
155.23796610192281
 21
371.8001838547633
 31
0.0
  0
LINE
  5
4DB
  8
0
  6
CONTINUOUS
 10
154.46542361598549
 20
371.67782514550117
 30
0.0
 11
153.76850297119171
 21
371.32272634070068
 31
0.0
  0
LINE
  5
4DC
  8
0
  6
CONTINUOUS
 10
156.01050858786019
 20
371.67782514550117
 30
0.0
 11
156.70742923265399
 21
371.32272634070068
 31
0.0
  0
LINE
  5
4DD
  8
0
  6
CONTINUOUS
 10
153.76850297119171
 20
371.32272634070068
 30
0.0
 11
153.21542361598549
 21
370.76964698549449
 31
0.0
  0
LINE
  5
4DE
  8
0
  6
CONTINUOUS
 10
156.70742923265399
 20
371.32272634070068
 30
0.0
 11
157.26050858786019
 21
370.76964698549449
 31
0.0
  0
LINE
  5
4DF
  8
0
  6
CONTINUOUS
 10
153.21542361598549
 20
370.76964698549449
 30
0.0
 11
152.860324811185
 21
370.07272634070068
 31
0.0
  0
LINE
  5
4E0
  8
0
  6
CONTINUOUS
 10
157.26050858786019
 20
370.76964698549449
 30
0.0
 11
157.61560739266071
 21
370.07272634070068
 31
0.0
  0
LINE
  5
4E1
  8
0
  6
CONTINUOUS
 10
152.860324811185
 20
370.07272634070068
 30
0.0
 11
152.73796610192281
 21
369.3001838547633
 31
0.0
  0
LINE
  5
4E2
  8
0
  6
CONTINUOUS
 10
157.61560739266071
 20
370.07272634070068
 30
0.0
 11
157.73796610192289
 21
369.3001838547633
 31
0.0
  0
LINE
  5
4E3
  8
0
  6
CONTINUOUS
 10
152.73796610192281
 20
369.3001838547633
 30
0.0
 11
152.860324811185
 21
368.52764136882593
 31
0.0
  0
LINE
  5
4E4
  8
0
  6
CONTINUOUS
 10
157.73796610192289
 20
369.3001838547633
 30
0.0
 11
157.61560739266071
 21
368.52764136882593
 31
0.0
  0
LINE
  5
4E5
  8
0
  6
CONTINUOUS
 10
152.860324811185
 20
368.52764136882593
 30
0.0
 11
153.21542361598549
 21
367.83072072403212
 31
0.0
  0
LINE
  5
4E6
  8
0
  6
CONTINUOUS
 10
157.61560739266071
 20
368.52764136882593
 30
0.0
 11
157.26050858786019
 21
367.83072072403212
 31
0.0
  0
LINE
  5
4E7
  8
0
  6
CONTINUOUS
 10
153.21542361598549
 20
367.83072072403212
 30
0.0
 11
153.76850297119171
 21
367.27764136882593
 31
0.0
  0
LINE
  5
4E8
  8
0
  6
CONTINUOUS
 10
157.26050858786019
 20
367.83072072403212
 30
0.0
 11
156.70742923265399
 21
367.27764136882593
 31
0.0
  0
LINE
  5
4E9
  8
0
  6
CONTINUOUS
 10
156.01050858786019
 20
366.92254256402549
 30
0.0
 11
155.23796610192281
 21
366.8001838547633
 31
0.0
  0
LINE
  5
4EA
  8
0
  6
CONTINUOUS
 10
155.23796610192281
 20
366.8001838547633
 30
0.0
 11
154.46542361598549
 21
366.92254256402549
 31
0.0
  0
LINE
  5
4EB
  8
0
  6
CONTINUOUS
 10
153.76850297119171
 20
367.27764136882593
 30
0.0
 11
154.46542361598549
 21
366.92254256402549
 31
0.0
  0
LINE
  5
4EC
  8
0
  6
CONTINUOUS
 10
156.70742923265399
 20
367.27764136882593
 30
0.0
 11
156.01050858786019
 21
366.92254256402549
 31
0.0
  0
ENDBLK
  5
4EE
  8
0
  0
BLOCK
  8
0
  2
*U25
 70
     1
 10
0.0
 20
0.0
 30
0.0
  3
*U25
  1

  0
TEXT
  5
4F0
  8
0
 10
-48.895437581720962
 20
449.7143526150773
 30
0.0
 40
12.2941616766467
  1
Tilcor Shake Tile
  7
ARIAL
  0
ENDBLK
  5
4F2
  8
0
  0
BLOCK
  8
0
  2
*U26
 70
     1
 10
0.0
 20
0.0
 30
0.0
  3
*U26
  1

  0
TEXT
  5
4F4
  8
0
 62
     7
 10
-734.73355424821625
 20
-236.79204331605999
 30
0.0
 40
12.294161676646709
  1
* Similar design detail for metal fascia systems
  7
ARIAL
  0
ENDBLK
  5
4F6
  8
0
  0
BLOCK
  8
0
  2
*U27
 70
     1
 10
0.0
 20
0.0
 30
0.0
  3
*U27
  1

  0
SOLID
  5
4F8
  8
0
  6
CONTINUOUS
 10
57.467704130765313
 20
255.29246749175039
 30
0.0
 11
56.695161644827948
 21
255.1701087824882
 31
0.0
 12
58.240246616702677
 22
255.1701087824882
 32
0.0
 13
58.240246616702677
 23
255.1701087824882
 33
0.0
210
0.0
220
0.0
230
1.0
  0
SOLID
  5
4F9
  8
0
  6
CONTINUOUS
 10
56.695161644827948
 20
255.1701087824882
 30
0.0
 11
55.998241000034128
 21
254.81500997768779
 31
0.0
 12
58.937167261496498
 22
254.81500997768779
 32
0.0
 13
58.937167261496498
 23
254.81500997768779
 33
0.0
210
0.0
220
0.0
230
1.0
  0
SOLID
  5
4FA
  8
0
  6
CONTINUOUS
 10
-56.695161644827948
 20
255.1701087824882
 30
0.0
 11
-58.240246616702677
 21
255.1701087824882
 31
0.0
 12
-58.937167261496498
 22
254.81500997768779
 32
0.0
 13
-58.937167261496498
 23
254.81500997768779
 33
0.0
210
0.0
220
0.0
230
-1.0
  0
SOLID
  5
4FB
  8
0
  6
CONTINUOUS
 10
55.998241000034128
 20
254.81500997768779
 30
0.0
 11
55.445161644827948
 21
254.26193062248149
 31
0.0
 12
59.490246616702677
 22
254.26193062248149
 32
0.0
 13
59.490246616702677
 23
254.26193062248149
 33
0.0
210
0.0
220
0.0
230
1.0
  0
SOLID
  5
4FC
  8
0
  6
CONTINUOUS
 10
-55.998241000034128
 20
254.81500997768779
 30
0.0
 11
-58.937167261496498
 21
254.81500997768779
 31
0.0
 12
-59.490246616702677
 22
254.26193062248149
 32
0.0
 13
-59.490246616702677
 23
254.26193062248149
 33
0.0
210
0.0
220
0.0
230
-1.0
  0
SOLID
  5
4FD
  8
0
  6
CONTINUOUS
 10
55.445161644827948
 20
254.26193062248149
 30
0.0
 11
55.090062840027429
 21
253.56500997768771
 31
0.0
 12
59.845345421503197
 22
253.56500997768771
 32
0.0
 13
59.845345421503197
 23
253.56500997768771
 33
0.0
210
0.0
220
0.0
230
1.0
  0
SOLID
  5
4FE
  8
0
  6
CONTINUOUS
 10
-55.445161644827948
 20
254.26193062248149
 30
0.0
 11
-59.490246616702677
 21
254.26193062248149
 31
0.0
 12
-59.845345421503197
 22
253.56500997768771
 32
0.0
 13
-59.845345421503197
 23
253.56500997768771
 33
0.0
210
0.0
220
0.0
230
-1.0
  0
SOLID
  5
4FF
  8
0
  6
CONTINUOUS
 10
55.090062840027429
 20
253.56500997768771
 30
0.0
 11
54.967704130765313
 21
252.79246749175039
 31
0.0
 12
59.967704130765313
 22
252.79246749175039
 32
0.0
 13
59.967704130765313
 23
252.79246749175039
 33
0.0
210
0.0
220
0.0
230
1.0
  0
SOLID
  5
500
  8
0
  6
CONTINUOUS
 10
-55.090062840027429
 20
253.56500997768771
 30
0.0
 11
-59.845345421503197
 21
253.56500997768771
 31
0.0
 12
-59.967704130765313
 22
252.79246749175039
 32
0.0
 13
-59.967704130765313
 23
252.79246749175039
 33
0.0
210
0.0
220
0.0
230
-1.0
  0
SOLID
  5
501
  8
0
  6
CONTINUOUS
 10
54.967704130765313
 20
252.79246749175039
 30
0.0
 11
55.090062840027429
 21
252.01992500581301
 31
0.0
 12
59.845345421503197
 22
252.01992500581301
 32
0.0
 13
59.845345421503197
 23
252.01992500581301
 33
0.0
210
0.0
220
0.0
230
1.0
  0
SOLID
  5
502
  8
0
  6
CONTINUOUS
 10
-54.967704130765313
 20
252.79246749175039
 30
0.0
 11
-59.967704130765313
 21
252.79246749175039
 31
0.0
 12
-59.845345421503197
 22
252.01992500581301
 32
0.0
 13
-59.845345421503197
 23
252.01992500581301
 33
0.0
210
0.0
220
0.0
230
-1.0
  0
SOLID
  5
503
  8
0
  6
CONTINUOUS
 10
55.090062840027429
 20
252.01992500581301
 30
0.0
 11
55.445161644827948
 21
251.3230043610192
 31
0.0
 12
59.490246616702677
 22
251.3230043610192
 32
0.0
 13
59.490246616702677
 23
251.3230043610192
 33
0.0
210
0.0
220
0.0
230
1.0
  0
SOLID
  5
504
  8
0
  6
CONTINUOUS
 10
-55.090062840027429
 20
252.01992500581301
 30
0.0
 11
-59.845345421503197
 21
252.01992500581301
 31
0.0
 12
-59.490246616702677
 22
251.3230043610192
 32
0.0
 13
-59.490246616702677
 23
251.3230043610192
 33
0.0
210
0.0
220
0.0
230
-1.0
  0
SOLID
  5
505
  8
0
  6
CONTINUOUS
 10
55.445161644827948
 20
251.3230043610192
 30
0.0
 11
55.998241000034128
 21
250.76992500581301
 31
0.0
 12
58.937167261496491
 22
250.76992500581301
 32
0.0
 13
58.937167261496491
 23
250.76992500581301
 33
0.0
210
0.0
220
0.0
230
1.0
  0
SOLID
  5
506
  8
0
  6
CONTINUOUS
 10
-55.445161644827948
 20
251.3230043610192
 30
0.0
 11
-59.490246616702677
 21
251.3230043610192
 31
0.0
 12
-58.937167261496491
 22
250.76992500581301
 32
0.0
 13
-58.937167261496491
 23
250.76992500581301
 33
0.0
210
0.0
220
0.0
230
-1.0
  0
SOLID
  5
507
  8
0
  6
CONTINUOUS
 10
-56.695161644827941
 20
250.41482620101249
 30
0.0
 11
-58.240246616702677
 21
250.41482620101249
 31
0.0
 12
-57.467704130765313
 22
250.29246749175039
 32
0.0
 13
-57.467704130765313
 23
250.29246749175039
 33
0.0
210
0.0
220
0.0
230
-1.0
  0
SOLID
  5
508
  8
0
  6
CONTINUOUS
 10
55.998241000034128
 20
250.76992500581301
 30
0.0
 11
56.695161644827941
 21
250.41482620101249
 31
0.0
 12
58.240246616702677
 22
250.41482620101249
 32
0.0
 13
58.240246616702677
 23
250.41482620101249
 33
0.0
210
0.0
220
0.0
230
1.0
  0
SOLID
  5
509
  8
0
  6
CONTINUOUS
 10
-55.998241000034128
 20
250.76992500581301
 30
0.0
 11
-58.937167261496491
 21
250.76992500581301
 31
0.0
 12
-58.240246616702677
 22
250.41482620101249
 32
0.0
 13
-58.240246616702677
 23
250.41482620101249
 33
0.0
210
0.0
220
0.0
230
-1.0
  0
LINE
  5
50A
  8
0
  6
CONTINUOUS
 10
57.467704130765313
 20
255.29246749175039
 30
0.0
 11
56.695161644827948
 21
255.1701087824882
 31
0.0
  0
LINE
  5
50B
  8
0
  6
CONTINUOUS
 10
58.240246616702677
 20
255.1701087824882
 30
0.0
 11
57.467704130765313
 21
255.29246749175039
 31
0.0
  0
LINE
  5
50C
  8
0
  6
CONTINUOUS
 10
56.695161644827948
 20
255.1701087824882
 30
0.0
 11
55.998241000034128
 21
254.81500997768779
 31
0.0
  0
LINE
  5
50D
  8
0
  6
CONTINUOUS
 10
58.240246616702677
 20
255.1701087824882
 30
0.0
 11
58.937167261496498
 21
254.81500997768779
 31
0.0
  0
LINE
  5
50E
  8
0
  6
CONTINUOUS
 10
55.998241000034128
 20
254.81500997768779
 30
0.0
 11
55.445161644827948
 21
254.26193062248149
 31
0.0
  0
LINE
  5
50F
  8
0
  6
CONTINUOUS
 10
58.937167261496498
 20
254.81500997768779
 30
0.0
 11
59.490246616702677
 21
254.26193062248149
 31
0.0
  0
LINE
  5
510
  8
0
  6
CONTINUOUS
 10
55.445161644827948
 20
254.26193062248149
 30
0.0
 11
55.090062840027429
 21
253.56500997768771
 31
0.0
  0
LINE
  5
511
  8
0
  6
CONTINUOUS
 10
59.490246616702677
 20
254.26193062248149
 30
0.0
 11
59.845345421503197
 21
253.56500997768771
 31
0.0
  0
LINE
  5
512
  8
0
  6
CONTINUOUS
 10
55.090062840027429
 20
253.56500997768771
 30
0.0
 11
54.967704130765313
 21
252.79246749175039
 31
0.0
  0
LINE
  5
513
  8
0
  6
CONTINUOUS
 10
59.845345421503197
 20
253.56500997768771
 30
0.0
 11
59.967704130765313
 21
252.79246749175039
 31
0.0
  0
LINE
  5
514
  8
0
  6
CONTINUOUS
 10
54.967704130765313
 20
252.79246749175039
 30
0.0
 11
55.090062840027429
 21
252.01992500581301
 31
0.0
  0
LINE
  5
515
  8
0
  6
CONTINUOUS
 10
59.967704130765313
 20
252.79246749175039
 30
0.0
 11
59.845345421503197
 21
252.01992500581301
 31
0.0
  0
LINE
  5
516
  8
0
  6
CONTINUOUS
 10
55.090062840027429
 20
252.01992500581301
 30
0.0
 11
55.445161644827948
 21
251.3230043610192
 31
0.0
  0
LINE
  5
517
  8
0
  6
CONTINUOUS
 10
59.845345421503197
 20
252.01992500581301
 30
0.0
 11
59.490246616702677
 21
251.3230043610192
 31
0.0
  0
LINE
  5
518
  8
0
  6
CONTINUOUS
 10
55.445161644827948
 20
251.3230043610192
 30
0.0
 11
55.998241000034128
 21
250.76992500581301
 31
0.0
  0
LINE
  5
519
  8
0
  6
CONTINUOUS
 10
59.490246616702677
 20
251.3230043610192
 30
0.0
 11
58.937167261496491
 21
250.76992500581301
 31
0.0
  0
LINE
  5
51A
  8
0
  6
CONTINUOUS
 10
58.240246616702677
 20
250.41482620101249
 30
0.0
 11
57.467704130765313
 21
250.29246749175039
 31
0.0
  0
LINE
  5
51B
  8
0
  6
CONTINUOUS
 10
57.467704130765313
 20
250.29246749175039
 30
0.0
 11
56.695161644827941
 21
250.41482620101249
 31
0.0
  0
LINE
  5
51C
  8
0
  6
CONTINUOUS
 10
55.998241000034128
 20
250.76992500581301
 30
0.0
 11
56.695161644827941
 21
250.41482620101249
 31
0.0
  0
LINE
  5
51D
  8
0
  6
CONTINUOUS
 10
58.937167261496491
 20
250.76992500581301
 30
0.0
 11
58.240246616702677
 21
250.41482620101249
 31
0.0
  0
ENDBLK
  5
51F
  8
0
  0
BLOCK
  8
0
  2
*U28
 70
     1
 10
0.0
 20
0.0
 30
0.0
  3
*U28
  1

  0
TEXT
  5
521
  8
0
 10
-49.843077601817193
 20
390.23251889054183
 30
0.0
 40
12.2941616766467
  1
Rafter
  7
ARIAL
  0
ENDBLK
  5
523
  8
0
  0
BLOCK
  8
0
  2
*U29
 70
     1
 10
0.0
 20
0.0
 30
0.0
  3
*U29
  1

  0
SOLID
  5
525
  8
0
  6
CONTINUOUS
 10
-498.74805997483128
 20
18.674638231084469
 30
0.0
 11
-499.52060246076871
 21
18.55227952182236
 31
0.0
 12
-497.9755174888939
 22
18.55227952182236
 32
0.0
 13
-497.9755174888939
 23
18.55227952182236
 33
0.0
210
0.0
220
0.0
230
1.0
  0
SOLID
  5
526
  8
0
  6
CONTINUOUS
 10
-499.52060246076871
 20
18.55227952182236
 30
0.0
 11
-500.21752310556252
 21
18.19718071702184
 31
0.0
 12
-497.27859684410009
 22
18.19718071702184
 32
0.0
 13
-497.27859684410009
 23
18.19718071702184
 33
0.0
210
0.0
220
0.0
230
1.0
  0
SOLID
  5
527
  8
0
  6
CONTINUOUS
 10
499.52060246076871
 20
18.55227952182236
 30
0.0
 11
497.9755174888939
 21
18.55227952182236
 31
0.0
 12
497.27859684410009
 22
18.19718071702184
 32
0.0
 13
497.27859684410009
 23
18.19718071702184
 33
0.0
210
0.0
220
0.0
230
-1.0
  0
SOLID
  5
528
  8
0
  6
CONTINUOUS
 10
-500.21752310556252
 20
18.19718071702184
 30
0.0
 11
-500.77060246076871
 21
17.644101361815661
 31
0.0
 12
-496.7255174888939
 22
17.644101361815661
 32
0.0
 13
-496.7255174888939
 23
17.644101361815661
 33
0.0
210
0.0
220
0.0
230
1.0
  0
SOLID
  5
529
  8
0
  6
CONTINUOUS
 10
500.21752310556252
 20
18.19718071702184
 30
0.0
 11
497.27859684410009
 21
18.19718071702184
 31
0.0
 12
496.7255174888939
 22
17.644101361815661
 32
0.0
 13
496.7255174888939
 23
17.644101361815661
 33
0.0
210
0.0
220
0.0
230
-1.0
  0
SOLID
  5
52A
  8
0
  6
CONTINUOUS
 10
-500.77060246076871
 20
17.644101361815661
 30
0.0
 11
-501.12570126556921
 21
16.947180717021851
 31
0.0
 12
-496.37041868409341
 22
16.947180717021851
 32
0.0
 13
-496.37041868409341
 23
16.947180717021851
 33
0.0
210
0.0
220
0.0
230
1.0
  0
SOLID
  5
52B
  8
0
  6
CONTINUOUS
 10
500.77060246076871
 20
17.644101361815661
 30
0.0
 11
496.7255174888939
 21
17.644101361815661
 31
0.0
 12
496.37041868409341
 22
16.947180717021851
 32
0.0
 13
496.37041868409341
 23
16.947180717021851
 33
0.0
210
0.0
220
0.0
230
-1.0
  0
SOLID
  5
52C
  8
0
  6
CONTINUOUS
 10
-501.12570126556921
 20
16.947180717021851
 30
0.0
 11
-501.24805997483128
 21
16.174638231084479
 31
0.0
 12
-496.24805997483128
 22
16.174638231084479
 32
0.0
 13
-496.24805997483128
 23
16.174638231084479
 33
0.0
210
0.0
220
0.0
230
1.0
  0
SOLID
  5
52D
  8
0
  6
CONTINUOUS
 10
501.12570126556921
 20
16.947180717021851
 30
0.0
 11
496.37041868409341
 21
16.947180717021851
 31
0.0
 12
496.24805997483128
 22
16.174638231084479
 32
0.0
 13
496.24805997483128
 23
16.174638231084479
 33
0.0
210
0.0
220
0.0
230
-1.0
  0
SOLID
  5
52E
  8
0
  6
CONTINUOUS
 10
-501.24805997483128
 20
16.174638231084479
 30
0.0
 11
-501.12570126556921
 21
15.402095745147109
 31
0.0
 12
-496.37041868409341
 22
15.402095745147109
 32
0.0
 13
-496.37041868409341
 23
15.402095745147109
 33
0.0
210
0.0
220
0.0
230
1.0
  0
SOLID
  5
52F
  8
0
  6
CONTINUOUS
 10
501.24805997483128
 20
16.174638231084479
 30
0.0
 11
496.24805997483128
 21
16.174638231084479
 31
0.0
 12
496.37041868409341
 22
15.402095745147109
 32
0.0
 13
496.37041868409341
 23
15.402095745147109
 33
0.0
210
0.0
220
0.0
230
-1.0
  0
SOLID
  5
530
  8
0
  6
CONTINUOUS
 10
-501.12570126556921
 20
15.402095745147109
 30
0.0
 11
-500.77060246076871
 21
14.7051751003533
 31
0.0
 12
-496.7255174888939
 22
14.7051751003533
 32
0.0
 13
-496.7255174888939
 23
14.7051751003533
 33
0.0
  0
SOLID
  5
531
  8
0
  6
CONTINUOUS
 10
501.12570126556921
 20
15.402095745147109
 30
0.0
 11
496.37041868409341
 21
15.402095745147109
 31
0.0
 12
496.7255174888939
 22
14.7051751003533
 32
0.0
 13
496.7255174888939
 23
14.7051751003533
 33
0.0
210
0.0
220
0.0
230
-1.0
  0
SOLID
  5
532
  8
0
  6
CONTINUOUS
 10
-500.77060246076871
 20
14.7051751003533
 30
0.0
 11
-500.21752310556252
 21
14.152095745147109
 31
0.0
 12
-497.27859684410009
 22
14.152095745147109
 32
0.0
 13
-497.27859684410009
 23
14.152095745147109
 33
0.0
210
0.0
220
0.0
230
1.0
  0
SOLID
  5
533
  8
0
  6
CONTINUOUS
 10
500.77060246076871
 20
14.7051751003533
 30
0.0
 11
496.7255174888939
 21
14.7051751003533
 31
0.0
 12
497.27859684410009
 22
14.152095745147109
 32
0.0
 13
497.27859684410009
 23
14.152095745147109
 33
0.0
210
0.0
220
0.0
230
-1.0
  0
SOLID
  5
534
  8
0
  6
CONTINUOUS
 10
499.52060246076871
 20
13.796996940346601
 30
0.0
 11
497.9755174888939
 21
13.796996940346601
 31
0.0
 12
498.74805997483128
 22
13.674638231084479
 32
0.0
 13
498.74805997483128
 23
13.674638231084479
 33
0.0
210
0.0
220
0.0
230
-1.0
  0
SOLID
  5
535
  8
0
  6
CONTINUOUS
 10
-500.21752310556252
 20
14.152095745147109
 30
0.0
 11
-499.52060246076871
 21
13.796996940346601
 31
0.0
 12
-497.9755174888939
 22
13.796996940346601
 32
0.0
 13
-497.9755174888939
 23
13.796996940346601
 33
0.0
210
0.0
220
0.0
230
1.0
  0
SOLID
  5
536
  8
0
  6
CONTINUOUS
 10
500.21752310556252
 20
14.152095745147109
 30
0.0
 11
497.27859684410009
 21
14.152095745147109
 31
0.0
 12
497.9755174888939
 22
13.796996940346601
 32
0.0
 13
497.9755174888939
 23
13.796996940346601
 33
0.0
210
0.0
220
0.0
230
-1.0
  0
LINE
  5
537
  8
0
  6
CONTINUOUS
 10
-498.74805997483128
 20
18.674638231084469
 30
0.0
 11
-499.52060246076871
 21
18.55227952182236
 31
0.0
  0
LINE
  5
538
  8
0
  6
CONTINUOUS
 10
-497.9755174888939
 20
18.55227952182236
 30
0.0
 11
-498.74805997483128
 21
18.674638231084469
 31
0.0
  0
LINE
  5
539
  8
0
  6
CONTINUOUS
 10
-499.52060246076871
 20
18.55227952182236
 30
0.0
 11
-500.21752310556252
 21
18.19718071702184
 31
0.0
  0
LINE
  5
53A
  8
0
  6
CONTINUOUS
 10
-497.9755174888939
 20
18.55227952182236
 30
0.0
 11
-497.27859684410009
 21
18.19718071702184
 31
0.0
  0
LINE
  5
53B
  8
0
  6
CONTINUOUS
 10
-500.21752310556252
 20
18.19718071702184
 30
0.0
 11
-500.77060246076871
 21
17.644101361815661
 31
0.0
  0
LINE
  5
53C
  8
0
  6
CONTINUOUS
 10
-497.27859684410009
 20
18.19718071702184
 30
0.0
 11
-496.7255174888939
 21
17.644101361815661
 31
0.0
  0
LINE
  5
53D
  8
0
  6
CONTINUOUS
 10
-500.77060246076871
 20
17.644101361815661
 30
0.0
 11
-501.12570126556921
 21
16.947180717021851
 31
0.0
  0
LINE
  5
53E
  8
0
  6
CONTINUOUS
 10
-496.7255174888939
 20
17.644101361815661
 30
0.0
 11
-496.37041868409341
 21
16.947180717021851
 31
0.0
  0
LINE
  5
53F
  8
0
  6
CONTINUOUS
 10
-501.12570126556921
 20
16.947180717021851
 30
0.0
 11
-501.24805997483128
 21
16.174638231084479
 31
0.0
  0
LINE
  5
540
  8
0
  6
CONTINUOUS
 10
-496.37041868409341
 20
16.947180717021851
 30
0.0
 11
-496.24805997483128
 21
16.174638231084479
 31
0.0
  0
LINE
  5
541
  8
0
  6
CONTINUOUS
 10
-501.24805997483128
 20
16.174638231084479
 30
0.0
 11
-501.12570126556921
 21
15.402095745147109
 31
0.0
  0
LINE
  5
542
  8
0
  6
CONTINUOUS
 10
-496.24805997483128
 20
16.174638231084479
 30
0.0
 11
-496.37041868409341
 21
15.402095745147109
 31
0.0
  0
LINE
  5
543
  8
0
  6
CONTINUOUS
 10
-501.12570126556921
 20
15.402095745147109
 30
0.0
 11
-500.77060246076871
 21
14.7051751003533
 31
0.0
  0
LINE
  5
544
  8
0
  6
CONTINUOUS
 10
-496.37041868409341
 20
15.402095745147109
 30
0.0
 11
-496.7255174888939
 21
14.7051751003533
 31
0.0
  0
LINE
  5
545
  8
0
  6
CONTINUOUS
 10
-500.77060246076871
 20
14.7051751003533
 30
0.0
 11
-500.21752310556252
 21
14.152095745147109
 31
0.0
  0
LINE
  5
546
  8
0
  6
CONTINUOUS
 10
-496.7255174888939
 20
14.7051751003533
 30
0.0
 11
-497.27859684410009
 21
14.152095745147109
 31
0.0
  0
LINE
  5
547
  8
0
  6
CONTINUOUS
 10
-497.9755174888939
 20
13.796996940346601
 30
0.0
 11
-498.74805997483128
 21
13.674638231084479
 31
0.0
  0
LINE
  5
548
  8
0
  6
CONTINUOUS
 10
-498.74805997483128
 20
13.674638231084479
 30
0.0
 11
-499.52060246076871
 21
13.796996940346601
 31
0.0
  0
LINE
  5
549
  8
0
  6
CONTINUOUS
 10
-500.21752310556252
 20
14.152095745147109
 30
0.0
 11
-499.52060246076871
 21
13.796996940346601
 31
0.0
  0
LINE
  5
54A
  8
0
  6
CONTINUOUS
 10
-497.27859684410009
 20
14.152095745147109
 30
0.0
 11
-497.9755174888939
 21
13.796996940346601
 31
0.0
  0
ENDBLK
  5
54C
  8
0
  0
BLOCK
  8
0
  2
*U30
 70
     1
 10
0.0
 20
0.0
 30
0.0
  3
*U30
  1

  0
TEXT
  5
54E
  8
0
 10
-732.46581451528391
 20
-35.476771766981571
 30
0.0
 40
12.2941616766467
  1
Selected fascia* & gutter
  7
ARIAL
  0
TEXT
  5
54F
  8
0
 10
-732.7341727510634
 20
-54.70754099775079
 30
0.0
 40
12.2941616766467
  1
(Fascia board height not to
  7
ARIAL
  0
TEXT
  5
550
  8
0
 10
-732.32324920252609
 20
-73.93831022852001
 30
0.0
 40
12.2941616766467
  1
exceed batten height)
  7
ARIAL
  0
ENDBLK
  5
552
  8
0
  0
BLOCK
  8
0
  2
*U31
 70
     1
 10
0.0
 20
0.0
 30
0.0
  3
*U31
  1

  0
SOLID
  5
554
  8
0
  6
CONTINUOUS
 10
-97.992596134563996
 20
275.4601171767124
 30
0.0
 11
-98.765138620501375
 21
275.33775846745021
 31
0.0
 12
-97.220053648626603
 22
275.33775846745021
 32
0.0
 13
-97.220053648626603
 23
275.33775846745021
 33
0.0
  0
SOLID
  5
555
  8
0
  6
CONTINUOUS
 10
-98.765138620501375
 20
275.33775846745021
 30
0.0
 11
-99.462059265295167
 21
274.98265966264972
 31
0.0
 12
-96.523133003832797
 22
274.98265966264972
 32
0.0
 13
-96.523133003832797
 23
274.98265966264972
 33
0.0
210
0.0
220
0.0
230
1.0
  0
SOLID
  5
556
  8
0
  6
CONTINUOUS
 10
98.765138620501375
 20
275.33775846745021
 30
0.0
 11
97.220053648626603
 21
275.33775846745021
 31
0.0
 12
96.523133003832797
 22
274.98265966264972
 32
0.0
 13
96.523133003832797
 23
274.98265966264972
 33
0.0
210
0.0
220
0.0
230
-1.0
  0
SOLID
  5
557
  8
0
  6
CONTINUOUS
 10
-99.462059265295167
 20
274.98265966264972
 30
0.0
 11
-100.0151386205013
 21
274.42958030744347
 31
0.0
 12
-95.970053648626603
 22
274.42958030744347
 32
0.0
 13
-95.970053648626603
 23
274.42958030744347
 33
0.0
210
0.0
220
0.0
230
1.0
  0
SOLID
  5
558
  8
0
  6
CONTINUOUS
 10
99.462059265295167
 20
274.98265966264972
 30
0.0
 11
96.523133003832797
 21
274.98265966264972
 31
0.0
 12
95.970053648626603
 22
274.42958030744347
 32
0.0
 13
95.970053648626603
 23
274.42958030744347
 33
0.0
210
0.0
220
0.0
230
-1.0
  0
SOLID
  5
559
  8
0
  6
CONTINUOUS
 10
-100.0151386205013
 20
274.42958030744347
 30
0.0
 11
-100.37023742530189
 21
273.73265966264972
 31
0.0
 12
-95.614954843826084
 22
273.73265966264972
 32
0.0
 13
-95.614954843826084
 23
273.73265966264972
 33
0.0
210
0.0
220
0.0
230
1.0
  0
SOLID
  5
55A
  8
0
  6
CONTINUOUS
 10
100.0151386205013
 20
274.42958030744347
 30
0.0
 11
95.970053648626603
 21
274.42958030744347
 31
0.0
 12
95.614954843826084
 22
273.73265966264972
 32
0.0
 13
95.614954843826084
 23
273.73265966264972
 33
0.0
210
0.0
220
0.0
230
-1.0
  0
SOLID
  5
55B
  8
0
  6
CONTINUOUS
 10
-100.37023742530189
 20
273.73265966264972
 30
0.0
 11
-100.492596134564
 21
272.96011717671229
 31
0.0
 12
-95.492596134563968
 22
272.96011717671229
 32
0.0
 13
-95.492596134563968
 23
272.96011717671229
 33
0.0
210
0.0
220
0.0
230
1.0
  0
SOLID
  5
55C
  8
0
  6
CONTINUOUS
 10
100.37023742530189
 20
273.73265966264972
 30
0.0
 11
95.614954843826084
 21
273.73265966264972
 31
0.0
 12
95.492596134563968
 22
272.96011717671229
 32
0.0
 13
95.492596134563968
 23
272.96011717671229
 33
0.0
210
0.0
220
0.0
230
-1.0
  0
SOLID
  5
55D
  8
0
  6
CONTINUOUS
 10
-100.492596134564
 20
272.96011717671229
 30
0.0
 11
-100.37023742530189
 21
272.18757469077502
 31
0.0
 12
-95.614954843826084
 22
272.18757469077502
 32
0.0
 13
-95.614954843826084
 23
272.18757469077502
 33
0.0
210
0.0
220
0.0
230
1.0
  0
SOLID
  5
55E
  8
0
  6
CONTINUOUS
 10
100.492596134564
 20
272.96011717671229
 30
0.0
 11
95.492596134563968
 21
272.96011717671229
 31
0.0
 12
95.614954843826084
 22
272.18757469077502
 32
0.0
 13
95.614954843826084
 23
272.18757469077502
 33
0.0
210
0.0
220
0.0
230
-1.0
  0
SOLID
  5
55F
  8
0
  6
CONTINUOUS
 10
-100.37023742530189
 20
272.18757469077502
 30
0.0
 11
-100.0151386205013
 21
271.49065404598122
 31
0.0
 12
-95.970053648626603
 22
271.49065404598122
 32
0.0
 13
-95.970053648626603
 23
271.49065404598122
 33
0.0
210
0.0
220
0.0
230
1.0
  0
SOLID
  5
560
  8
0
  6
CONTINUOUS
 10
100.37023742530189
 20
272.18757469077502
 30
0.0
 11
95.614954843826084
 21
272.18757469077502
 31
0.0
 12
95.970053648626603
 22
271.49065404598122
 32
0.0
 13
95.970053648626603
 23
271.49065404598122
 33
0.0
210
0.0
220
0.0
230
-1.0
  0
SOLID
  5
561
  8
0
  6
CONTINUOUS
 10
-100.0151386205013
 20
271.49065404598122
 30
0.0
 11
-99.462059265295167
 21
270.93757469077491
 31
0.0
 12
-96.523133003832797
 22
270.93757469077491
 32
0.0
 13
-96.523133003832797
 23
270.93757469077491
 33
0.0
210
0.0
220
0.0
230
1.0
  0
SOLID
  5
562
  8
0
  6
CONTINUOUS
 10
100.0151386205013
 20
271.49065404598122
 30
0.0
 11
95.970053648626603
 21
271.49065404598122
 31
0.0
 12
96.523133003832797
 22
270.93757469077491
 32
0.0
 13
96.523133003832797
 23
270.93757469077491
 33
0.0
210
0.0
220
0.0
230
-1.0
  0
SOLID
  5
563
  8
0
  6
CONTINUOUS
 10
98.765138620501375
 20
270.58247588597447
 30
0.0
 11
97.220053648626617
 21
270.58247588597447
 31
0.0
 12
97.992596134563996
 22
270.46011717671229
 32
0.0
 13
97.992596134563996
 23
270.46011717671229
 33
0.0
210
0.0
220
0.0
230
-1.0
  0
SOLID
  5
564
  8
0
  6
CONTINUOUS
 10
-99.462059265295167
 20
270.93757469077491
 30
0.0
 11
-98.765138620501375
 21
270.58247588597447
 31
0.0
 12
-97.220053648626617
 22
270.58247588597447
 32
0.0
 13
-97.220053648626617
 23
270.58247588597447
 33
0.0
210
0.0
220
0.0
230
1.0
  0
SOLID
  5
565
  8
0
  6
CONTINUOUS
 10
99.462059265295167
 20
270.93757469077491
 30
0.0
 11
96.523133003832797
 21
270.93757469077491
 31
0.0
 12
97.220053648626617
 22
270.58247588597447
 32
0.0
 13
97.220053648626617
 23
270.58247588597447
 33
0.0
210
0.0
220
0.0
230
-1.0
  0
LINE
  5
566
  8
0
  6
CONTINUOUS
 10
-97.992596134563996
 20
275.4601171767124
 30
0.0
 11
-98.765138620501375
 21
275.33775846745021
 31
0.0
  0
LINE
  5
567
  8
0
  6
CONTINUOUS
 10
-97.220053648626603
 20
275.33775846745021
 30
0.0
 11
-97.992596134563996
 21
275.4601171767124
 31
0.0
  0
LINE
  5
568
  8
0
  6
CONTINUOUS
 10
-98.765138620501375
 20
275.33775846745021
 30
0.0
 11
-99.462059265295167
 21
274.98265966264972
 31
0.0
  0
LINE
  5
569
  8
0
  6
CONTINUOUS
 10
-97.220053648626603
 20
275.33775846745021
 30
0.0
 11
-96.523133003832797
 21
274.98265966264972
 31
0.0
  0
LINE
  5
56A
  8
0
  6
CONTINUOUS
 10
-99.462059265295167
 20
274.98265966264972
 30
0.0
 11
-100.0151386205013
 21
274.42958030744347
 31
0.0
  0
LINE
  5
56B
  8
0
  6
CONTINUOUS
 10
-96.523133003832797
 20
274.98265966264972
 30
0.0
 11
-95.970053648626603
 21
274.42958030744347
 31
0.0
  0
LINE
  5
56C
  8
0
  6
CONTINUOUS
 10
-100.0151386205013
 20
274.42958030744347
 30
0.0
 11
-100.37023742530189
 21
273.73265966264972
 31
0.0
  0
LINE
  5
56D
  8
0
  6
CONTINUOUS
 10
-95.970053648626603
 20
274.42958030744347
 30
0.0
 11
-95.614954843826084
 21
273.73265966264972
 31
0.0
  0
LINE
  5
56E
  8
0
  6
CONTINUOUS
 10
-100.37023742530189
 20
273.73265966264972
 30
0.0
 11
-100.492596134564
 21
272.96011717671229
 31
0.0
  0
LINE
  5
56F
  8
0
  6
CONTINUOUS
 10
-95.614954843826084
 20
273.73265966264972
 30
0.0
 11
-95.492596134563968
 21
272.96011717671229
 31
0.0
  0
LINE
  5
570
  8
0
  6
CONTINUOUS
 10
-100.492596134564
 20
272.96011717671229
 30
0.0
 11
-100.37023742530189
 21
272.18757469077502
 31
0.0
  0
LINE
  5
571
  8
0
  6
CONTINUOUS
 10
-95.492596134563968
 20
272.96011717671229
 30
0.0
 11
-95.614954843826084
 21
272.18757469077502
 31
0.0
  0
LINE
  5
572
  8
0
  6
CONTINUOUS
 10
-100.37023742530189
 20
272.18757469077502
 30
0.0
 11
-100.0151386205013
 21
271.49065404598122
 31
0.0
  0
LINE
  5
573
  8
0
  6
CONTINUOUS
 10
-95.614954843826084
 20
272.18757469077502
 30
0.0
 11
-95.970053648626603
 21
271.49065404598122
 31
0.0
  0
LINE
  5
574
  8
0
  6
CONTINUOUS
 10
-100.0151386205013
 20
271.49065404598122
 30
0.0
 11
-99.462059265295167
 21
270.93757469077491
 31
0.0
  0
LINE
  5
575
  8
0
  6
CONTINUOUS
 10
-95.970053648626603
 20
271.49065404598122
 30
0.0
 11
-96.523133003832797
 21
270.93757469077491
 31
0.0
  0
LINE
  5
576
  8
0
  6
CONTINUOUS
 10
-97.220053648626617
 20
270.58247588597447
 30
0.0
 11
-97.992596134563996
 21
270.46011717671229
 31
0.0
  0
LINE
  5
577
  8
0
  6
CONTINUOUS
 10
-97.992596134563996
 20
270.46011717671229
 30
0.0
 11
-98.765138620501375
 21
270.58247588597447
 31
0.0
  0
LINE
  5
578
  8
0
  6
CONTINUOUS
 10
-99.462059265295167
 20
270.93757469077491
 30
0.0
 11
-98.765138620501375
 21
270.58247588597447
 31
0.0
  0
LINE
  5
579
  8
0
  6
CONTINUOUS
 10
-96.523133003832797
 20
270.93757469077491
 30
0.0
 11
-97.220053648626617
 21
270.58247588597447
 31
0.0
  0
ENDBLK
  5
57B
  8
0
  0
BLOCK
  8
0
  2
*U32
 70
     1
 10
0.0
 20
0.0
 30
0.0
  3
*U32
  1

  0
TEXT
  5
57D
  8
0
 10
-359.65238005004329
 20
451.2319822978917
 30
0.0
 40
12.2941616766467
  1
2" x 2"  Tile batten on 14 1/2"
  7
ARIAL
  0
TEXT
  5
57E
  8
0
 10
-359.45111137320868
 20
432.00121306712248
 30
0.0
 40
12.2941616766467
  1
truss spacing's
  7
ARIAL
  0
ENDBLK
  5
580
  8
0
  0
BLOCK
  8
0
  2
*U33
 70
     1
 10
0.0
 20
0.0
 30
0.0
  3
*U33
  1

  0
SOLID
  5
582
  8
0
  6
CONTINUOUS
 10
-371.36066987241207
 20
-2.1125983903006
 30
0.0
 11
-372.1332123583494
 21
-2.2349570995627142
 31
0.0
 12
-370.5881273864747
 22
-2.2349570995627142
 32
0.0
 13
-370.5881273864747
 23
-2.2349570995627142
 33
0.0
210
0.0
220
0.0
230
1.0
  0
SOLID
  5
583
  8
0
  6
CONTINUOUS
 10
-372.1332123583494
 20
-2.2349570995627142
 30
0.0
 11
-372.8301330031432
 21
-2.5900559043632221
 31
0.0
 12
-369.89120674168089
 22
-2.5900559043632221
 32
0.0
 13
-369.89120674168089
 23
-2.5900559043632221
 33
0.0
210
0.0
220
0.0
230
1.0
  0
SOLID
  5
584
  8
0
  6
CONTINUOUS
 10
372.1332123583494
 20
-2.2349570995627142
 30
0.0
 11
370.5881273864747
 21
-2.2349570995627142
 31
0.0
 12
369.89120674168089
 22
-2.5900559043632221
 32
0.0
 13
369.89120674168089
 23
-2.5900559043632221
 33
0.0
210
0.0
220
0.0
230
-1.0
  0
SOLID
  5
585
  8
0
  6
CONTINUOUS
 10
-372.8301330031432
 20
-2.5900559043632221
 30
0.0
 11
-373.3832123583494
 21
-3.143135259569394
 31
0.0
 12
-369.33812738647481
 22
-3.143135259569394
 32
0.0
 13
-369.33812738647481
 23
-3.143135259569394
 33
0.0
210
0.0
220
0.0
230
1.0
  0
SOLID
  5
586
  8
0
  6
CONTINUOUS
 10
372.8301330031432
 20
-2.5900559043632221
 30
0.0
 11
369.89120674168089
 21
-2.5900559043632221
 31
0.0
 12
369.33812738647481
 22
-3.143135259569394
 32
0.0
 13
369.33812738647481
 23
-3.143135259569394
 33
0.0
210
0.0
220
0.0
230
-1.0
  0
SOLID
  5
587
  8
0
  6
CONTINUOUS
 10
-373.3832123583494
 20
-3.143135259569394
 30
0.0
 11
-373.73831116314989
 21
-3.8400559043631932
 31
0.0
 12
-368.98302858167432
 22
-3.8400559043631932
 32
0.0
 13
-368.98302858167432
 23
-3.8400559043631932
 33
0.0
  0
SOLID
  5
588
  8
0
  6
CONTINUOUS
 10
373.3832123583494
 20
-3.143135259569394
 30
0.0
 11
369.33812738647481
 21
-3.143135259569394
 31
0.0
 12
368.98302858167432
 22
-3.8400559043631932
 32
0.0
 13
368.98302858167432
 23
-3.8400559043631932
 33
0.0
210
0.0
220
0.0
230
-1.0
  0
SOLID
  5
589
  8
0
  6
CONTINUOUS
 10
-373.73831116314989
 20
-3.8400559043631932
 30
0.0
 11
-373.86066987241202
 21
-4.6125983903005441
 31
0.0
 12
-368.86066987241207
 22
-4.6125983903005441
 32
0.0
 13
-368.86066987241207
 23
-4.6125983903005441
 33
0.0
210
0.0
220
0.0
230
1.0
  0
SOLID
  5
58A
  8
0
  6
CONTINUOUS
 10
373.73831116314989
 20
-3.8400559043631932
 30
0.0
 11
368.98302858167432
 21
-3.8400559043631932
 31
0.0
 12
368.86066987241207
 22
-4.6125983903005441
 32
0.0
 13
368.86066987241207
 23
-4.6125983903005441
 33
0.0
210
0.0
220
0.0
230
-1.0
  0
SOLID
  5
58B
  8
0
  6
CONTINUOUS
 10
-373.86066987241202
 20
-4.6125983903005441
 30
0.0
 11
-373.73831116314989
 21
-5.3851408762378954
 31
0.0
 12
-368.98302858167432
 22
-5.3851408762378954
 32
0.0
 13
-368.98302858167432
 23
-5.3851408762378954
 33
0.0
210
0.0
220
0.0
230
1.0
  0
SOLID
  5
58C
  8
0
  6
CONTINUOUS
 10
373.86066987241202
 20
-4.6125983903005441
 30
0.0
 11
368.86066987241207
 21
-4.6125983903005441
 31
0.0
 12
368.98302858167432
 22
-5.3851408762378954
 32
0.0
 13
368.98302858167432
 23
-5.3851408762378954
 33
0.0
210
0.0
220
0.0
230
-1.0
  0
SOLID
  5
58D
  8
0
  6
CONTINUOUS
 10
-373.73831116314989
 20
-5.3851408762378954
 30
0.0
 11
-373.3832123583494
 21
-6.0820615210316928
 31
0.0
 12
-369.33812738647481
 22
-6.0820615210316928
 32
0.0
 13
-369.33812738647481
 23
-6.0820615210316928
 33
0.0
210
0.0
220
0.0
230
1.0
  0
SOLID
  5
58E
  8
0
  6
CONTINUOUS
 10
373.73831116314989
 20
-5.3851408762378954
 30
0.0
 11
368.98302858167432
 21
-5.3851408762378954
 31
0.0
 12
369.33812738647481
 22
-6.0820615210316928
 32
0.0
 13
369.33812738647481
 23
-6.0820615210316928
 33
0.0
210
0.0
220
0.0
230
-1.0
  0
SOLID
  5
58F
  8
0
  6
CONTINUOUS
 10
-373.3832123583494
 20
-6.0820615210316928
 30
0.0
 11
-372.8301330031432
 21
-6.6351408762378661
 31
0.0
 12
-369.89120674168089
 22
-6.6351408762378661
 32
0.0
 13
-369.89120674168089
 23
-6.6351408762378661
 33
0.0
210
0.0
220
0.0
230
1.0
  0
SOLID
  5
590
  8
0
  6
CONTINUOUS
 10
373.3832123583494
 20
-6.0820615210316928
 30
0.0
 11
369.33812738647481
 21
-6.0820615210316928
 31
0.0
 12
369.89120674168089
 22
-6.6351408762378661
 32
0.0
 13
369.89120674168089
 23
-6.6351408762378661
 33
0.0
210
0.0
220
0.0
230
-1.0
  0
SOLID
  5
591
  8
0
  6
CONTINUOUS
 10
372.1332123583494
 20
-6.990239681038374
 30
0.0
 11
370.5881273864747
 21
-6.990239681038374
 31
0.0
 12
371.36066987241207
 22
-7.1125983903004872
 32
0.0
 13
371.36066987241207
 23
-7.1125983903004872
 33
0.0
210
0.0
220
0.0
230
-1.0
  0
SOLID
  5
592
  8
0
  6
CONTINUOUS
 10
-372.8301330031432
 20
-6.6351408762378661
 30
0.0
 11
-372.1332123583494
 21
-6.990239681038374
 31
0.0
 12
-370.5881273864747
 22
-6.990239681038374
 32
0.0
 13
-370.5881273864747
 23
-6.990239681038374
 33
0.0
210
0.0
220
0.0
230
1.0
  0
SOLID
  5
593
  8
0
  6
CONTINUOUS
 10
372.8301330031432
 20
-6.6351408762378661
 30
0.0
 11
369.89120674168089
 21
-6.6351408762378661
 31
0.0
 12
370.5881273864747
 22
-6.990239681038374
 32
0.0
 13
370.5881273864747
 23
-6.990239681038374
 33
0.0
210
0.0
220
0.0
230
-1.0
  0
LINE
  5
594
  8
0
  6
CONTINUOUS
 10
-371.36066987241207
 20
-2.1125983903006
 30
0.0
 11
-372.1332123583494
 21
-2.2349570995627142
 31
0.0
  0
LINE
  5
595
  8
0
  6
CONTINUOUS
 10
-370.5881273864747
 20
-2.2349570995627142
 30
0.0
 11
-371.36066987241207
 21
-2.1125983903006
 31
0.0
  0
LINE
  5
596
  8
0
  6
CONTINUOUS
 10
-372.1332123583494
 20
-2.2349570995627142
 30
0.0
 11
-372.8301330031432
 21
-2.5900559043632221
 31
0.0
  0
LINE
  5
597
  8
0
  6
CONTINUOUS
 10
-370.5881273864747
 20
-2.2349570995627142
 30
0.0
 11
-369.89120674168089
 21
-2.5900559043632221
 31
0.0
  0
LINE
  5
598
  8
0
  6
CONTINUOUS
 10
-372.8301330031432
 20
-2.5900559043632221
 30
0.0
 11
-373.3832123583494
 21
-3.143135259569394
 31
0.0
  0
LINE
  5
599
  8
0
  6
CONTINUOUS
 10
-369.89120674168089
 20
-2.5900559043632221
 30
0.0
 11
-369.33812738647481
 21
-3.143135259569394
 31
0.0
  0
LINE
  5
59A
  8
0
  6
CONTINUOUS
 10
-373.3832123583494
 20
-3.143135259569394
 30
0.0
 11
-373.73831116314989
 21
-3.8400559043631932
 31
0.0
  0
LINE
  5
59B
  8
0
  6
CONTINUOUS
 10
-369.33812738647481
 20
-3.143135259569394
 30
0.0
 11
-368.98302858167432
 21
-3.8400559043631932
 31
0.0
  0
LINE
  5
59C
  8
0
  6
CONTINUOUS
 10
-373.73831116314989
 20
-3.8400559043631932
 30
0.0
 11
-373.86066987241202
 21
-4.6125983903005441
 31
0.0
  0
LINE
  5
59D
  8
0
  6
CONTINUOUS
 10
-368.98302858167432
 20
-3.8400559043631932
 30
0.0
 11
-368.86066987241207
 21
-4.6125983903005441
 31
0.0
  0
LINE
  5
59E
  8
0
  6
CONTINUOUS
 10
-373.86066987241202
 20
-4.6125983903005441
 30
0.0
 11
-373.73831116314989
 21
-5.3851408762378954
 31
0.0
  0
LINE
  5
59F
  8
0
  6
CONTINUOUS
 10
-368.86066987241207
 20
-4.6125983903005441
 30
0.0
 11
-368.98302858167432
 21
-5.3851408762378954
 31
0.0
  0
LINE
  5
5A0
  8
0
  6
CONTINUOUS
 10
-373.73831116314989
 20
-5.3851408762378954
 30
0.0
 11
-373.3832123583494
 21
-6.0820615210316928
 31
0.0
  0
LINE
  5
5A1
  8
0
  6
CONTINUOUS
 10
-368.98302858167432
 20
-5.3851408762378954
 30
0.0
 11
-369.33812738647481
 21
-6.0820615210316928
 31
0.0
  0
LINE
  5
5A2
  8
0
  6
CONTINUOUS
 10
-373.3832123583494
 20
-6.0820615210316928
 30
0.0
 11
-372.8301330031432
 21
-6.6351408762378661
 31
0.0
  0
LINE
  5
5A3
  8
0
  6
CONTINUOUS
 10
-369.33812738647481
 20
-6.0820615210316928
 30
0.0
 11
-369.89120674168089
 21
-6.6351408762378661
 31
0.0
  0
LINE
  5
5A4
  8
0
  6
CONTINUOUS
 10
-370.5881273864747
 20
-6.990239681038374
 30
0.0
 11
-371.36066987241207
 21
-7.1125983903004872
 31
0.0
  0
LINE
  5
5A5
  8
0
  6
CONTINUOUS
 10
-371.36066987241207
 20
-7.1125983903004872
 30
0.0
 11
-372.1332123583494
 21
-6.990239681038374
 31
0.0
  0
LINE
  5
5A6
  8
0
  6
CONTINUOUS
 10
-372.8301330031432
 20
-6.6351408762378661
 30
0.0
 11
-372.1332123583494
 21
-6.990239681038374
 31
0.0
  0
LINE
  5
5A7
  8
0
  6
CONTINUOUS
 10
-369.89120674168089
 20
-6.6351408762378661
 30
0.0
 11
-370.5881273864747
 21
-6.990239681038374
 31
0.0
  0
ENDBLK
  5
5A9
  8
0
  0
BLOCK
  8
0
  2
*U34
 70
     1
 10
0.0
 20
0.0
 30
0.0
  3
*U34
  1

  0
TEXT
  5
5AB
  8
0
 10
-733.05284815605148
 20
-135.62109843766211
 30
0.0
 40
12.2941616766467
  1
Eaves soffit
  7
ARIAL
  0
ENDBLK
  5
5AD
  8
0
  0
BLOCK
  8
0
  2
*U35
 70
     1
 10
0.0
 20
0.0
 30
0.0
  3
*U35
  1

  0
SOLID
  5
5AF
  8
0
  6
CONTINUOUS
 10
-431.28179687252208
 20
-40.464082662386659
 30
0.0
 11
-432.0543393584594
 21
-40.586441371648768
 31
0.0
 12
-430.5092543865847
 22
-40.586441371648768
 32
0.0
 13
-430.5092543865847
 23
-40.586441371648768
 33
0.0
210
0.0
220
0.0
230
1.0
  0
SOLID
  5
5B0
  8
0
  6
CONTINUOUS
 10
-432.0543393584594
 20
-40.586441371648768
 30
0.0
 11
-432.75126000325332
 21
-40.941540176449287
 31
0.0
 12
-429.81233374179089
 22
-40.941540176449287
 32
0.0
 13
-429.81233374179089
 23
-40.941540176449287
 33
0.0
210
0.0
220
0.0
230
1.0
  0
SOLID
  5
5B1
  8
0
  6
CONTINUOUS
 10
432.0543393584594
 20
-40.586441371648768
 30
0.0
 11
430.5092543865847
 21
-40.586441371648768
 31
0.0
 12
429.81233374179089
 22
-40.941540176449287
 32
0.0
 13
429.81233374179089
 23
-40.941540176449287
 33
0.0
210
0.0
220
0.0
230
-1.0
  0
SOLID
  5
5B2
  8
0
  6
CONTINUOUS
 10
-432.75126000325332
 20
-40.941540176449287
 30
0.0
 11
-433.30433935845952
 21
-41.494619531655466
 31
0.0
 12
-429.2592543865847
 22
-41.494619531655466
 32
0.0
 13
-429.2592543865847
 23
-41.494619531655466
 33
0.0
  0
SOLID
  5
5B3
  8
0
  6
CONTINUOUS
 10
432.75126000325332
 20
-40.941540176449287
 30
0.0
 11
429.81233374179089
 21
-40.941540176449287
 31
0.0
 12
429.2592543865847
 22
-41.494619531655466
 32
0.0
 13
429.2592543865847
 23
-41.494619531655466
 33
0.0
210
0.0
220
0.0
230
-1.0
  0
SOLID
  5
5B4
  8
0
  6
CONTINUOUS
 10
-433.30433935845952
 20
-41.494619531655466
 30
0.0
 11
-433.65943816326001
 21
-42.191540176449287
 31
0.0
 12
-428.90415558178421
 22
-42.191540176449287
 32
0.0
 13
-428.90415558178421
 23
-42.191540176449287
 33
0.0
210
0.0
220
0.0
230
1.0
  0
SOLID
  5
5B5
  8
0
  6
CONTINUOUS
 10
433.30433935845952
 20
-41.494619531655466
 30
0.0
 11
429.2592543865847
 21
-41.494619531655466
 31
0.0
 12
428.90415558178421
 22
-42.191540176449287
 32
0.0
 13
428.90415558178421
 23
-42.191540176449287
 33
0.0
210
0.0
220
0.0
230
-1.0
  0
SOLID
  5
5B6
  8
0
  6
CONTINUOUS
 10
-433.65943816326001
 20
-42.191540176449287
 30
0.0
 11
-433.78179687252208
 21
-42.964082662386659
 31
0.0
 12
-428.78179687252208
 22
-42.964082662386659
 32
0.0
 13
-428.78179687252208
 23
-42.964082662386659
 33
0.0
210
0.0
220
0.0
230
1.0
  0
SOLID
  5
5B7
  8
0
  6
CONTINUOUS
 10
433.65943816326001
 20
-42.191540176449287
 30
0.0
 11
428.90415558178421
 21
-42.191540176449287
 31
0.0
 12
428.78179687252208
 22
-42.964082662386659
 32
0.0
 13
428.78179687252208
 23
-42.964082662386659
 33
0.0
210
0.0
220
0.0
230
-1.0
  0
SOLID
  5
5B8
  8
0
  6
CONTINUOUS
 10
-433.78179687252208
 20
-42.964082662386659
 30
0.0
 11
-433.65943816326001
 21
-43.736625148324023
 31
0.0
 12
-428.90415558178421
 22
-43.736625148324023
 32
0.0
 13
-428.90415558178421
 23
-43.736625148324023
 33
0.0
210
0.0
220
0.0
230
1.0
  0
SOLID
  5
5B9
  8
0
  6
CONTINUOUS
 10
433.78179687252208
 20
-42.964082662386659
 30
0.0
 11
428.78179687252208
 21
-42.964082662386659
 31
0.0
 12
428.90415558178421
 22
-43.736625148324023
 32
0.0
 13
428.90415558178421
 23
-43.736625148324023
 33
0.0
210
0.0
220
0.0
230
-1.0
  0
SOLID
  5
5BA
  8
0
  6
CONTINUOUS
 10
-433.65943816326001
 20
-43.736625148324023
 30
0.0
 11
-433.30433935845952
 21
-44.433545793117837
 31
0.0
 12
-429.2592543865847
 22
-44.433545793117837
 32
0.0
 13
-429.2592543865847
 23
-44.433545793117837
 33
0.0
  0
SOLID
  5
5BB
  8
0
  6
CONTINUOUS
 10
433.65943816326001
 20
-43.736625148324023
 30
0.0
 11
428.90415558178421
 21
-43.736625148324023
 31
0.0
 12
429.2592543865847
 22
-44.433545793117837
 32
0.0
 13
429.2592543865847
 23
-44.433545793117837
 33
0.0
210
0.0
220
0.0
230
-1.0
  0
SOLID
  5
5BC
  8
0
  6
CONTINUOUS
 10
-433.30433935845952
 20
-44.433545793117837
 30
0.0
 11
-432.75126000325332
 21
-44.986625148324023
 31
0.0
 12
-429.81233374179089
 22
-44.986625148324023
 32
0.0
 13
-429.81233374179089
 23
-44.986625148324023
 33
0.0
210
0.0
220
0.0
230
1.0
  0
SOLID
  5
5BD
  8
0
  6
CONTINUOUS
 10
433.30433935845952
 20
-44.433545793117837
 30
0.0
 11
429.2592543865847
 21
-44.433545793117837
 31
0.0
 12
429.81233374179089
 22
-44.986625148324023
 32
0.0
 13
429.81233374179089
 23
-44.986625148324023
 33
0.0
210
0.0
220
0.0
230
-1.0
  0
SOLID
  5
5BE
  8
0
  6
CONTINUOUS
 10
432.0543393584594
 20
-45.341723953124543
 30
0.0
 11
430.5092543865847
 21
-45.341723953124543
 31
0.0
 12
431.28179687252208
 22
-45.464082662386659
 32
0.0
 13
431.28179687252208
 23
-45.464082662386659
 33
0.0
210
0.0
220
0.0
230
-1.0
  0
SOLID
  5
5BF
  8
0
  6
CONTINUOUS
 10
-432.75126000325332
 20
-44.986625148324023
 30
0.0
 11
-432.0543393584594
 21
-45.341723953124543
 31
0.0
 12
-430.5092543865847
 22
-45.341723953124543
 32
0.0
 13
-430.5092543865847
 23
-45.341723953124543
 33
0.0
210
0.0
220
0.0
230
1.0
  0
SOLID
  5
5C0
  8
0
  6
CONTINUOUS
 10
432.75126000325332
 20
-44.986625148324023
 30
0.0
 11
429.81233374179089
 21
-44.986625148324023
 31
0.0
 12
430.5092543865847
 22
-45.341723953124543
 32
0.0
 13
430.5092543865847
 23
-45.341723953124543
 33
0.0
210
0.0
220
0.0
230
-1.0
  0
LINE
  5
5C1
  8
0
  6
CONTINUOUS
 10
-431.28179687252208
 20
-40.464082662386659
 30
0.0
 11
-432.0543393584594
 21
-40.586441371648768
 31
0.0
  0
LINE
  5
5C2
  8
0
  6
CONTINUOUS
 10
-430.5092543865847
 20
-40.586441371648768
 30
0.0
 11
-431.28179687252208
 21
-40.464082662386659
 31
0.0
  0
LINE
  5
5C3
  8
0
  6
CONTINUOUS
 10
-432.0543393584594
 20
-40.586441371648768
 30
0.0
 11
-432.75126000325332
 21
-40.941540176449287
 31
0.0
  0
LINE
  5
5C4
  8
0
  6
CONTINUOUS
 10
-430.5092543865847
 20
-40.586441371648768
 30
0.0
 11
-429.81233374179089
 21
-40.941540176449287
 31
0.0
  0
LINE
  5
5C5
  8
0
  6
CONTINUOUS
 10
-432.75126000325332
 20
-40.941540176449287
 30
0.0
 11
-433.30433935845952
 21
-41.494619531655466
 31
0.0
  0
LINE
  5
5C6
  8
0
  6
CONTINUOUS
 10
-429.81233374179089
 20
-40.941540176449287
 30
0.0
 11
-429.2592543865847
 21
-41.494619531655466
 31
0.0
  0
LINE
  5
5C7
  8
0
  6
CONTINUOUS
 10
-433.30433935845952
 20
-41.494619531655466
 30
0.0
 11
-433.65943816326001
 21
-42.191540176449287
 31
0.0
  0
LINE
  5
5C8
  8
0
  6
CONTINUOUS
 10
-429.2592543865847
 20
-41.494619531655466
 30
0.0
 11
-428.90415558178421
 21
-42.191540176449287
 31
0.0
  0
LINE
  5
5C9
  8
0
  6
CONTINUOUS
 10
-433.65943816326001
 20
-42.191540176449287
 30
0.0
 11
-433.78179687252208
 21
-42.964082662386659
 31
0.0
  0
LINE
  5
5CA
  8
0
  6
CONTINUOUS
 10
-428.90415558178421
 20
-42.191540176449287
 30
0.0
 11
-428.78179687252208
 21
-42.964082662386659
 31
0.0
  0
LINE
  5
5CB
  8
0
  6
CONTINUOUS
 10
-433.78179687252208
 20
-42.964082662386659
 30
0.0
 11
-433.65943816326001
 21
-43.736625148324023
 31
0.0
  0
LINE
  5
5CC
  8
0
  6
CONTINUOUS
 10
-428.78179687252208
 20
-42.964082662386659
 30
0.0
 11
-428.90415558178421
 21
-43.736625148324023
 31
0.0
  0
LINE
  5
5CD
  8
0
  6
CONTINUOUS
 10
-433.65943816326001
 20
-43.736625148324023
 30
0.0
 11
-433.30433935845952
 21
-44.433545793117837
 31
0.0
  0
LINE
  5
5CE
  8
0
  6
CONTINUOUS
 10
-428.90415558178421
 20
-43.736625148324023
 30
0.0
 11
-429.2592543865847
 21
-44.433545793117837
 31
0.0
  0
LINE
  5
5CF
  8
0
  6
CONTINUOUS
 10
-433.30433935845952
 20
-44.433545793117837
 30
0.0
 11
-432.75126000325332
 21
-44.986625148324023
 31
0.0
  0
LINE
  5
5D0
  8
0
  6
CONTINUOUS
 10
-429.2592543865847
 20
-44.433545793117837
 30
0.0
 11
-429.81233374179089
 21
-44.986625148324023
 31
0.0
  0
LINE
  5
5D1
  8
0
  6
CONTINUOUS
 10
-430.5092543865847
 20
-45.341723953124543
 30
0.0
 11
-431.28179687252208
 21
-45.464082662386659
 31
0.0
  0
LINE
  5
5D2
  8
0
  6
CONTINUOUS
 10
-431.28179687252208
 20
-45.464082662386659
 30
0.0
 11
-432.0543393584594
 21
-45.341723953124543
 31
0.0
  0
LINE
  5
5D3
  8
0
  6
CONTINUOUS
 10
-432.75126000325332
 20
-44.986625148324023
 30
0.0
 11
-432.0543393584594
 21
-45.341723953124543
 31
0.0
  0
LINE
  5
5D4
  8
0
  6
CONTINUOUS
 10
-429.81233374179089
 20
-44.986625148324023
 30
0.0
 11
-430.5092543865847
 21
-45.341723953124543
 31
0.0
  0
ENDBLK
  5
5D6
  8
0
  0
BLOCK
  8
0
  2
*U36
 70
     1
 10
0.0
 20
0.0
 30
0.0
  3
*U36
  1

  0
TEXT
  5
5D8
  8
0
 10
-732.19745627950454
 20
-104.6186858504133
 30
0.0
 40
12.2941616766467
  1
2"x6" Flush with OSB
  7
ARIAL
  0
ENDBLK
  5
5DA
  8
0
  0
BLOCK
  8
0
  2
*U37
 70
     1
 10
0.0
 20
0.0
 30
0.0
  3
*U37
  1

  0
SOLID
  5
5DC
  8
0
  6
CONTINUOUS
 10
-341.22830697254972
 20
146.14999636024109
 30
0.0
 11
-342.0008494584871
 21
146.02763765097899
 31
0.0
 12
-340.4557644866124
 22
146.02763765097899
 32
0.0
 13
-340.4557644866124
 23
146.02763765097899
 33
0.0
  0
SOLID
  5
5DD
  8
0
  6
CONTINUOUS
 10
-342.0008494584871
 20
146.02763765097899
 30
0.0
 11
-342.6977701032809
 21
145.6725388461785
 31
0.0
 12
-339.75884384181859
 22
145.6725388461785
 32
0.0
 13
-339.75884384181859
 23
145.6725388461785
 33
0.0
210
0.0
220
0.0
230
1.0
  0
SOLID
  5
5DE
  8
0
  6
CONTINUOUS
 10
342.0008494584871
 20
146.02763765097899
 30
0.0
 11
340.4557644866124
 21
146.02763765097899
 31
0.0
 12
339.75884384181859
 22
145.6725388461785
 32
0.0
 13
339.75884384181859
 23
145.6725388461785
 33
0.0
210
0.0
220
0.0
230
-1.0
  0
SOLID
  5
5DF
  8
0
  6
CONTINUOUS
 10
-342.6977701032809
 20
145.6725388461785
 30
0.0
 11
-343.2508494584871
 21
145.1194594909723
 31
0.0
 12
-339.20576448661228
 22
145.1194594909723
 32
0.0
 13
-339.20576448661228
 23
145.1194594909723
 33
0.0
210
0.0
220
0.0
230
1.0
  0
SOLID
  5
5E0
  8
0
  6
CONTINUOUS
 10
342.6977701032809
 20
145.6725388461785
 30
0.0
 11
339.75884384181859
 21
145.6725388461785
 31
0.0
 12
339.20576448661228
 22
145.1194594909723
 32
0.0
 13
339.20576448661228
 23
145.1194594909723
 33
0.0
210
0.0
220
0.0
230
-1.0
  0
SOLID
  5
5E1
  8
0
  6
CONTINUOUS
 10
-343.2508494584871
 20
145.1194594909723
 30
0.0
 11
-343.60594826328759
 21
144.4225388461785
 31
0.0
 12
-338.8506656818119
 22
144.4225388461785
 32
0.0
 13
-338.8506656818119
 23
144.4225388461785
 33
0.0
210
0.0
220
0.0
230
1.0
  0
SOLID
  5
5E2
  8
0
  6
CONTINUOUS
 10
343.2508494584871
 20
145.1194594909723
 30
0.0
 11
339.20576448661228
 21
145.1194594909723
 31
0.0
 12
338.8506656818119
 22
144.4225388461785
 32
0.0
 13
338.8506656818119
 23
144.4225388461785
 33
0.0
210
0.0
220
0.0
230
-1.0
  0
SOLID
  5
5E3
  8
0
  6
CONTINUOUS
 10
-343.60594826328759
 20
144.4225388461785
 30
0.0
 11
-343.72830697254972
 21
143.6499963602412
 31
0.0
 12
-338.72830697254972
 22
143.6499963602412
 32
0.0
 13
-338.72830697254972
 23
143.6499963602412
 33
0.0
210
0.0
220
0.0
230
1.0
  0
SOLID
  5
5E4
  8
0
  6
CONTINUOUS
 10
343.60594826328759
 20
144.4225388461785
 30
0.0
 11
338.8506656818119
 21
144.4225388461785
 31
0.0
 12
338.72830697254972
 22
143.6499963602412
 32
0.0
 13
338.72830697254972
 23
143.6499963602412
 33
0.0
210
0.0
220
0.0
230
-1.0
  0
SOLID
  5
5E5
  8
0
  6
CONTINUOUS
 10
-343.72830697254972
 20
143.6499963602412
 30
0.0
 11
-343.60594826328759
 21
142.8774538743038
 31
0.0
 12
-338.8506656818119
 22
142.8774538743038
 32
0.0
 13
-338.8506656818119
 23
142.8774538743038
 33
0.0
210
0.0
220
0.0
230
1.0
  0
SOLID
  5
5E6
  8
0
  6
CONTINUOUS
 10
343.72830697254972
 20
143.6499963602412
 30
0.0
 11
338.72830697254972
 21
143.6499963602412
 31
0.0
 12
338.8506656818119
 22
142.8774538743038
 32
0.0
 13
338.8506656818119
 23
142.8774538743038
 33
0.0
210
0.0
220
0.0
230
-1.0
  0
SOLID
  5
5E7
  8
0
  6
CONTINUOUS
 10
-343.60594826328759
 20
142.8774538743038
 30
0.0
 11
-343.2508494584871
 21
142.18053322950999
 31
0.0
 12
-339.20576448661228
 22
142.18053322950999
 32
0.0
 13
-339.20576448661228
 23
142.18053322950999
 33
0.0
210
0.0
220
0.0
230
1.0
  0
SOLID
  5
5E8
  8
0
  6
CONTINUOUS
 10
343.60594826328759
 20
142.8774538743038
 30
0.0
 11
338.8506656818119
 21
142.8774538743038
 31
0.0
 12
339.20576448661228
 22
142.18053322950999
 32
0.0
 13
339.20576448661228
 23
142.18053322950999
 33
0.0
210
0.0
220
0.0
230
-1.0
  0
SOLID
  5
5E9
  8
0
  6
CONTINUOUS
 10
-343.2508494584871
 20
142.18053322950999
 30
0.0
 11
-342.6977701032809
 21
141.6274538743038
 31
0.0
 12
-339.75884384181859
 22
141.6274538743038
 32
0.0
 13
-339.75884384181859
 23
141.6274538743038
 33
0.0
210
0.0
220
0.0
230
1.0
  0
SOLID
  5
5EA
  8
0
  6
CONTINUOUS
 10
343.2508494584871
 20
142.18053322950999
 30
0.0
 11
339.20576448661228
 21
142.18053322950999
 31
0.0
 12
339.75884384181859
 22
141.6274538743038
 32
0.0
 13
339.75884384181859
 23
141.6274538743038
 33
0.0
210
0.0
220
0.0
230
-1.0
  0
SOLID
  5
5EB
  8
0
  6
CONTINUOUS
 10
342.0008494584871
 20
141.27235506950331
 30
0.0
 11
340.4557644866124
 21
141.27235506950331
 31
0.0
 12
341.22830697254972
 22
141.14999636024109
 32
0.0
 13
341.22830697254972
 23
141.14999636024109
 33
0.0
210
0.0
220
0.0
230
-1.0
  0
SOLID
  5
5EC
  8
0
  6
CONTINUOUS
 10
-342.6977701032809
 20
141.6274538743038
 30
0.0
 11
-342.0008494584871
 21
141.27235506950331
 31
0.0
 12
-340.4557644866124
 22
141.27235506950331
 32
0.0
 13
-340.4557644866124
 23
141.27235506950331
 33
0.0
210
0.0
220
0.0
230
1.0
  0
SOLID
  5
5ED
  8
0
  6
CONTINUOUS
 10
342.6977701032809
 20
141.6274538743038
 30
0.0
 11
339.75884384181859
 21
141.6274538743038
 31
0.0
 12
340.4557644866124
 22
141.27235506950331
 32
0.0
 13
340.4557644866124
 23
141.27235506950331
 33
0.0
210
0.0
220
0.0
230
-1.0
  0
LINE
  5
5EE
  8
0
  6
CONTINUOUS
 10
-341.22830697254972
 20
146.14999636024109
 30
0.0
 11
-342.0008494584871
 21
146.02763765097899
 31
0.0
  0
LINE
  5
5EF
  8
0
  6
CONTINUOUS
 10
-340.4557644866124
 20
146.02763765097899
 30
0.0
 11
-341.22830697254972
 21
146.14999636024109
 31
0.0
  0
LINE
  5
5F0
  8
0
  6
CONTINUOUS
 10
-342.0008494584871
 20
146.02763765097899
 30
0.0
 11
-342.6977701032809
 21
145.6725388461785
 31
0.0
  0
LINE
  5
5F1
  8
0
  6
CONTINUOUS
 10
-340.4557644866124
 20
146.02763765097899
 30
0.0
 11
-339.75884384181859
 21
145.6725388461785
 31
0.0
  0
LINE
  5
5F2
  8
0
  6
CONTINUOUS
 10
-342.6977701032809
 20
145.6725388461785
 30
0.0
 11
-343.2508494584871
 21
145.1194594909723
 31
0.0
  0
LINE
  5
5F3
  8
0
  6
CONTINUOUS
 10
-339.75884384181859
 20
145.6725388461785
 30
0.0
 11
-339.20576448661228
 21
145.1194594909723
 31
0.0
  0
LINE
  5
5F4
  8
0
  6
CONTINUOUS
 10
-343.2508494584871
 20
145.1194594909723
 30
0.0
 11
-343.60594826328759
 21
144.4225388461785
 31
0.0
  0
LINE
  5
5F5
  8
0
  6
CONTINUOUS
 10
-339.20576448661228
 20
145.1194594909723
 30
0.0
 11
-338.8506656818119
 21
144.4225388461785
 31
0.0
  0
LINE
  5
5F6
  8
0
  6
CONTINUOUS
 10
-343.60594826328759
 20
144.4225388461785
 30
0.0
 11
-343.72830697254972
 21
143.6499963602412
 31
0.0
  0
LINE
  5
5F7
  8
0
  6
CONTINUOUS
 10
-338.8506656818119
 20
144.4225388461785
 30
0.0
 11
-338.72830697254972
 21
143.6499963602412
 31
0.0
  0
LINE
  5
5F8
  8
0
  6
CONTINUOUS
 10
-343.72830697254972
 20
143.6499963602412
 30
0.0
 11
-343.60594826328759
 21
142.8774538743038
 31
0.0
  0
LINE
  5
5F9
  8
0
  6
CONTINUOUS
 10
-338.72830697254972
 20
143.6499963602412
 30
0.0
 11
-338.8506656818119
 21
142.8774538743038
 31
0.0
  0
LINE
  5
5FA
  8
0
  6
CONTINUOUS
 10
-343.60594826328759
 20
142.8774538743038
 30
0.0
 11
-343.2508494584871
 21
142.18053322950999
 31
0.0
  0
LINE
  5
5FB
  8
0
  6
CONTINUOUS
 10
-338.8506656818119
 20
142.8774538743038
 30
0.0
 11
-339.20576448661228
 21
142.18053322950999
 31
0.0
  0
LINE
  5
5FC
  8
0
  6
CONTINUOUS
 10
-343.2508494584871
 20
142.18053322950999
 30
0.0
 11
-342.6977701032809
 21
141.6274538743038
 31
0.0
  0
LINE
  5
5FD
  8
0
  6
CONTINUOUS
 10
-339.20576448661228
 20
142.18053322950999
 30
0.0
 11
-339.75884384181859
 21
141.6274538743038
 31
0.0
  0
LINE
  5
5FE
  8
0
  6
CONTINUOUS
 10
-340.4557644866124
 20
141.27235506950331
 30
0.0
 11
-341.22830697254972
 21
141.14999636024109
 31
0.0
  0
LINE
  5
5FF
  8
0
  6
CONTINUOUS
 10
-341.22830697254972
 20
141.14999636024109
 30
0.0
 11
-342.0008494584871
 21
141.27235506950331
 31
0.0
  0
LINE
  5
600
  8
0
  6
CONTINUOUS
 10
-342.6977701032809
 20
141.6274538743038
 30
0.0
 11
-342.0008494584871
 21
141.27235506950331
 31
0.0
  0
LINE
  5
601
  8
0
  6
CONTINUOUS
 10
-339.75884384181859
 20
141.6274538743038
 30
0.0
 11
-340.4557644866124
 21
141.27235506950331
 31
0.0
  0
ENDBLK
  5
603
  8
0
  0
BLOCK
  8
0
  2
*U38
 70
     1
 10
0.0
 20
0.0
 30
0.0
  3
*U38
  1

  0
TEXT
  5
605
  8
0
 10
-732.50774548962454
 20
-171.31719405844089
 30
0.0
 40
12.2941616766467
  1
7/16 OSB or counter batten
  7
ARIAL
  0
TEXT
  5
606
  8
0
 10
-732.26454583844941
 20
-190.54796328921009
 30
0.0
 40
12.2941616766467
  1
over spaced sheathing
  7
ARIAL
  0
ENDBLK
  5
608
  8
0
  0
BLOCK
  8
0
  2
*U39
 70
     1
 10
0.0
 20
0.0
 30
0.0
  3
*U39
  1

  0
SOLID
  5
60A
  8
0
  6
CONTINUOUS
 10
-442.10053408952308
 20
146.67086578853349
 30
0.0
 11
-442.87307657546052
 21
146.54850707927139
 31
0.0
 12
-441.32799160358582
 22
146.54850707927139
 32
0.0
 13
-441.32799160358582
 23
146.54850707927139
 33
0.0
210
0.0
220
0.0
230
1.0
  0
SOLID
  5
60B
  8
0
  6
CONTINUOUS
 10
-442.87307657546052
 20
146.54850707927139
 30
0.0
 11
-443.56999722025421
 21
146.1934082744709
 31
0.0
 12
-440.63107095879201
 22
146.1934082744709
 32
0.0
 13
-440.63107095879201
 23
146.1934082744709
 33
0.0
210
0.0
220
0.0
230
1.0
  0
SOLID
  5
60C
  8
0
  6
CONTINUOUS
 10
442.87307657546052
 20
146.54850707927139
 30
0.0
 11
441.32799160358582
 21
146.54850707927139
 31
0.0
 12
440.63107095879201
 22
146.1934082744709
 32
0.0
 13
440.63107095879201
 23
146.1934082744709
 33
0.0
210
0.0
220
0.0
230
-1.0
  0
SOLID
  5
60D
  8
0
  6
CONTINUOUS
 10
-443.56999722025421
 20
146.1934082744709
 30
0.0
 11
-444.1230765754604
 21
145.6403289192647
 31
0.0
 12
-440.0779916035857
 22
145.6403289192647
 32
0.0
 13
-440.0779916035857
 23
145.6403289192647
 33
0.0
  0
SOLID
  5
60E
  8
0
  6
CONTINUOUS
 10
443.56999722025421
 20
146.1934082744709
 30
0.0
 11
440.63107095879201
 21
146.1934082744709
 31
0.0
 12
440.0779916035857
 22
145.6403289192647
 32
0.0
 13
440.0779916035857
 23
145.6403289192647
 33
0.0
210
0.0
220
0.0
230
-1.0
  0
SOLID
  5
60F
  8
0
  6
CONTINUOUS
 10
-444.1230765754604
 20
145.6403289192647
 30
0.0
 11
-444.47817538026089
 21
144.9434082744709
 31
0.0
 12
-439.72289279878521
 22
144.9434082744709
 32
0.0
 13
-439.72289279878521
 23
144.9434082744709
 33
0.0
210
0.0
220
0.0
230
1.0
  0
SOLID
  5
610
  8
0
  6
CONTINUOUS
 10
444.1230765754604
 20
145.6403289192647
 30
0.0
 11
440.0779916035857
 21
145.6403289192647
 31
0.0
 12
439.72289279878521
 22
144.9434082744709
 32
0.0
 13
439.72289279878521
 23
144.9434082744709
 33
0.0
210
0.0
220
0.0
230
-1.0
  0
SOLID
  5
611
  8
0
  6
CONTINUOUS
 10
-444.47817538026089
 20
144.9434082744709
 30
0.0
 11
-444.60053408952302
 21
144.1708657885336
 31
0.0
 12
-439.60053408952308
 22
144.1708657885336
 32
0.0
 13
-439.60053408952308
 23
144.1708657885336
 33
0.0
210
0.0
220
0.0
230
1.0
  0
SOLID
  5
612
  8
0
  6
CONTINUOUS
 10
444.47817538026089
 20
144.9434082744709
 30
0.0
 11
439.72289279878521
 21
144.9434082744709
 31
0.0
 12
439.60053408952308
 22
144.1708657885336
 32
0.0
 13
439.60053408952308
 23
144.1708657885336
 33
0.0
210
0.0
220
0.0
230
-1.0
  0
SOLID
  5
613
  8
0
  6
CONTINUOUS
 10
-444.60053408952302
 20
144.1708657885336
 30
0.0
 11
-444.47817538026089
 21
143.3983233025962
 31
0.0
 12
-439.72289279878521
 22
143.3983233025962
 32
0.0
 13
-439.72289279878521
 23
143.3983233025962
 33
0.0
210
0.0
220
0.0
230
1.0
  0
SOLID
  5
614
  8
0
  6
CONTINUOUS
 10
444.60053408952302
 20
144.1708657885336
 30
0.0
 11
439.60053408952308
 21
144.1708657885336
 31
0.0
 12
439.72289279878521
 22
143.3983233025962
 32
0.0
 13
439.72289279878521
 23
143.3983233025962
 33
0.0
210
0.0
220
0.0
230
-1.0
  0
SOLID
  5
615
  8
0
  6
CONTINUOUS
 10
-444.47817538026089
 20
143.3983233025962
 30
0.0
 11
-444.1230765754604
 21
142.70140265780239
 31
0.0
 12
-440.0779916035857
 22
142.70140265780239
 32
0.0
 13
-440.0779916035857
 23
142.70140265780239
 33
0.0
210
0.0
220
0.0
230
1.0
  0
SOLID
  5
616
  8
0
  6
CONTINUOUS
 10
444.47817538026089
 20
143.3983233025962
 30
0.0
 11
439.72289279878521
 21
143.3983233025962
 31
0.0
 12
440.0779916035857
 22
142.70140265780239
 32
0.0
 13
440.0779916035857
 23
142.70140265780239
 33
0.0
210
0.0
220
0.0
230
-1.0
  0
SOLID
  5
617
  8
0
  6
CONTINUOUS
 10
-444.1230765754604
 20
142.70140265780239
 30
0.0
 11
-443.56999722025421
 21
142.14832330259631
 31
0.0
 12
-440.63107095879201
 22
142.14832330259631
 32
0.0
 13
-440.63107095879201
 23
142.14832330259631
 33
0.0
210
0.0
220
0.0
230
1.0
  0
SOLID
  5
618
  8
0
  6
CONTINUOUS
 10
444.1230765754604
 20
142.70140265780239
 30
0.0
 11
440.0779916035857
 21
142.70140265780239
 31
0.0
 12
440.63107095879201
 22
142.14832330259631
 32
0.0
 13
440.63107095879201
 23
142.14832330259631
 33
0.0
210
0.0
220
0.0
230
-1.0
  0
SOLID
  5
619
  8
0
  6
CONTINUOUS
 10
442.87307657546052
 20
141.79322449779571
 30
0.0
 11
441.32799160358582
 21
141.79322449779571
 31
0.0
 12
442.10053408952308
 22
141.6708657885336
 32
0.0
 13
442.10053408952308
 23
141.6708657885336
 33
0.0
210
0.0
220
0.0
230
-1.0
  0
SOLID
  5
61A
  8
0
  6
CONTINUOUS
 10
-443.56999722025421
 20
142.14832330259631
 30
0.0
 11
-442.87307657546052
 21
141.79322449779571
 31
0.0
 12
-441.32799160358582
 22
141.79322449779571
 32
0.0
 13
-441.32799160358582
 23
141.79322449779571
 33
0.0
  0
SOLID
  5
61B
  8
0
  6
CONTINUOUS
 10
443.56999722025421
 20
142.14832330259631
 30
0.0
 11
440.63107095879201
 21
142.14832330259631
 31
0.0
 12
441.32799160358582
 22
141.79322449779571
 32
0.0
 13
441.32799160358582
 23
141.79322449779571
 33
0.0
210
0.0
220
0.0
230
-1.0
  0
LINE
  5
61C
  8
0
  6
CONTINUOUS
 10
-442.10053408952308
 20
146.67086578853349
 30
0.0
 11
-442.87307657546052
 21
146.54850707927139
 31
0.0
  0
LINE
  5
61D
  8
0
  6
CONTINUOUS
 10
-441.32799160358582
 20
146.54850707927139
 30
0.0
 11
-442.10053408952308
 21
146.67086578853349
 31
0.0
  0
LINE
  5
61E
  8
0
  6
CONTINUOUS
 10
-442.87307657546052
 20
146.54850707927139
 30
0.0
 11
-443.56999722025421
 21
146.1934082744709
 31
0.0
  0
LINE
  5
61F
  8
0
  6
CONTINUOUS
 10
-441.32799160358582
 20
146.54850707927139
 30
0.0
 11
-440.63107095879201
 21
146.1934082744709
 31
0.0
  0
LINE
  5
620
  8
0
  6
CONTINUOUS
 10
-443.56999722025421
 20
146.1934082744709
 30
0.0
 11
-444.1230765754604
 21
145.6403289192647
 31
0.0
  0
LINE
  5
621
  8
0
  6
CONTINUOUS
 10
-440.63107095879201
 20
146.1934082744709
 30
0.0
 11
-440.0779916035857
 21
145.6403289192647
 31
0.0
  0
LINE
  5
622
  8
0
  6
CONTINUOUS
 10
-444.1230765754604
 20
145.6403289192647
 30
0.0
 11
-444.47817538026089
 21
144.9434082744709
 31
0.0
  0
LINE
  5
623
  8
0
  6
CONTINUOUS
 10
-440.0779916035857
 20
145.6403289192647
 30
0.0
 11
-439.72289279878521
 21
144.9434082744709
 31
0.0
  0
LINE
  5
624
  8
0
  6
CONTINUOUS
 10
-444.47817538026089
 20
144.9434082744709
 30
0.0
 11
-444.60053408952302
 21
144.1708657885336
 31
0.0
  0
LINE
  5
625
  8
0
  6
CONTINUOUS
 10
-439.72289279878521
 20
144.9434082744709
 30
0.0
 11
-439.60053408952308
 21
144.1708657885336
 31
0.0
  0
LINE
  5
626
  8
0
  6
CONTINUOUS
 10
-444.60053408952302
 20
144.1708657885336
 30
0.0
 11
-444.47817538026089
 21
143.3983233025962
 31
0.0
  0
LINE
  5
627
  8
0
  6
CONTINUOUS
 10
-439.60053408952308
 20
144.1708657885336
 30
0.0
 11
-439.72289279878521
 21
143.3983233025962
 31
0.0
  0
LINE
  5
628
  8
0
  6
CONTINUOUS
 10
-444.47817538026089
 20
143.3983233025962
 30
0.0
 11
-444.1230765754604
 21
142.70140265780239
 31
0.0
  0
LINE
  5
629
  8
0
  6
CONTINUOUS
 10
-439.72289279878521
 20
143.3983233025962
 30
0.0
 11
-440.0779916035857
 21
142.70140265780239
 31
0.0
  0
LINE
  5
62A
  8
0
  6
CONTINUOUS
 10
-444.1230765754604
 20
142.70140265780239
 30
0.0
 11
-443.56999722025421
 21
142.14832330259631
 31
0.0
  0
LINE
  5
62B
  8
0
  6
CONTINUOUS
 10
-440.0779916035857
 20
142.70140265780239
 30
0.0
 11
-440.63107095879201
 21
142.14832330259631
 31
0.0
  0
LINE
  5
62C
  8
0
  6
CONTINUOUS
 10
-441.32799160358582
 20
141.79322449779571
 30
0.0
 11
-442.10053408952308
 21
141.6708657885336
 31
0.0
  0
LINE
  5
62D
  8
0
  6
CONTINUOUS
 10
-442.10053408952308
 20
141.6708657885336
 30
0.0
 11
-442.87307657546052
 21
141.79322449779571
 31
0.0
  0
LINE
  5
62E
  8
0
  6
CONTINUOUS
 10
-443.56999722025421
 20
142.14832330259631
 30
0.0
 11
-442.87307657546052
 21
141.79322449779571
 31
0.0
  0
LINE
  5
62F
  8
0
  6
CONTINUOUS
 10
-440.63107095879201
 20
142.14832330259631
 30
0.0
 11
-441.32799160358582
 21
141.79322449779571
 31
0.0
  0
ENDBLK
  5
631
  8
0
  0
BLOCK
  8
0
  2
*U40
 70
     1
 10
0.0
 20
0.0
 30
0.0
  3
*U40
  1

  0
TEXT
  5
633
  8
0
 10
-741.19745627950454
 20
344.23109917209609
 30
0.0
 40
12.2941616766467
  1
2x2 Batten flush with Fascia
  7
ARIAL
  0
ENDBLK
  5
635
  8
0
  0
BLOCK
  8
0
  2
*U41
 70
     1
 10
0.0
 20
0.0
 30
0.0
  3
*U41
  1

  0
SOLID
  5
637
  8
0
  6
CONTINUOUS
 10
-472.67092566436889
 20
125.6447852743555
 30
0.0
 11
-473.44346815030627
 21
125.5224265650934
 31
0.0
 12
-471.89838317843152
 22
125.5224265650934
 32
0.0
 13
-471.89838317843152
 23
125.5224265650934
 33
0.0
210
0.0
220
0.0
230
1.0
  0
SOLID
  5
638
  8
0
  6
CONTINUOUS
 10
-473.44346815030627
 20
125.5224265650934
 30
0.0
 11
-474.14038879510008
 21
125.16732776029291
 31
0.0
 12
-471.20146253363782
 22
125.16732776029291
 32
0.0
 13
-471.20146253363782
 23
125.16732776029291
 33
0.0
210
0.0
220
0.0
230
1.0
  0
SOLID
  5
639
  8
0
  6
CONTINUOUS
 10
473.44346815030627
 20
125.5224265650934
 30
0.0
 11
471.89838317843152
 21
125.5224265650934
 31
0.0
 12
471.20146253363782
 22
125.16732776029291
 32
0.0
 13
471.20146253363782
 23
125.16732776029291
 33
0.0
210
0.0
220
0.0
230
-1.0
  0
SOLID
  5
63A
  8
0
  6
CONTINUOUS
 10
-474.14038879510008
 20
125.16732776029291
 30
0.0
 11
-474.69346815030627
 21
124.6142484050867
 31
0.0
 12
-470.64838317843152
 22
124.6142484050867
 32
0.0
 13
-470.64838317843152
 23
124.6142484050867
 33
0.0
  0
SOLID
  5
63B
  8
0
  6
CONTINUOUS
 10
474.14038879510008
 20
125.16732776029291
 30
0.0
 11
471.20146253363782
 21
125.16732776029291
 31
0.0
 12
470.64838317843152
 22
124.6142484050867
 32
0.0
 13
470.64838317843152
 23
124.6142484050867
 33
0.0
210
0.0
220
0.0
230
-1.0
  0
SOLID
  5
63C
  8
0
  6
CONTINUOUS
 10
-474.69346815030627
 20
124.6142484050867
 30
0.0
 11
-475.04856695510682
 21
123.91732776029291
 31
0.0
 12
-470.29328437363102
 22
123.91732776029291
 32
0.0
 13
-470.29328437363102
 23
123.91732776029291
 33
0.0
210
0.0
220
0.0
230
1.0
  0
SOLID
  5
63D
  8
0
  6
CONTINUOUS
 10
474.69346815030627
 20
124.6142484050867
 30
0.0
 11
470.64838317843152
 21
124.6142484050867
 31
0.0
 12
470.29328437363102
 22
123.91732776029291
 32
0.0
 13
470.29328437363102
 23
123.91732776029291
 33
0.0
210
0.0
220
0.0
230
-1.0
  0
SOLID
  5
63E
  8
0
  6
CONTINUOUS
 10
-475.04856695510682
 20
123.91732776029291
 30
0.0
 11
-475.17092566436889
 21
123.1447852743555
 31
0.0
 12
-470.17092566436889
 22
123.1447852743555
 32
0.0
 13
-470.17092566436889
 23
123.1447852743555
 33
0.0
210
0.0
220
0.0
230
1.0
  0
SOLID
  5
63F
  8
0
  6
CONTINUOUS
 10
475.04856695510682
 20
123.91732776029291
 30
0.0
 11
470.29328437363102
 21
123.91732776029291
 31
0.0
 12
470.17092566436889
 22
123.1447852743555
 32
0.0
 13
470.17092566436889
 23
123.1447852743555
 33
0.0
210
0.0
220
0.0
230
-1.0
  0
SOLID
  5
640
  8
0
  6
CONTINUOUS
 10
-475.17092566436889
 20
123.1447852743555
 30
0.0
 11
-475.04856695510682
 21
122.37224278841821
 31
0.0
 12
-470.29328437363102
 22
122.37224278841821
 32
0.0
 13
-470.29328437363102
 23
122.37224278841821
 33
0.0
210
0.0
220
0.0
230
1.0
  0
SOLID
  5
641
  8
0
  6
CONTINUOUS
 10
475.17092566436889
 20
123.1447852743555
 30
0.0
 11
470.17092566436889
 21
123.1447852743555
 31
0.0
 12
470.29328437363102
 22
122.37224278841821
 32
0.0
 13
470.29328437363102
 23
122.37224278841821
 33
0.0
210
0.0
220
0.0
230
-1.0
  0
SOLID
  5
642
  8
0
  6
CONTINUOUS
 10
-475.04856695510682
 20
122.37224278841821
 30
0.0
 11
-474.69346815030627
 21
121.6753221436243
 31
0.0
 12
-470.64838317843152
 22
121.6753221436243
 32
0.0
 13
-470.64838317843152
 23
121.6753221436243
 33
0.0
210
0.0
220
0.0
230
1.0
  0
SOLID
  5
643
  8
0
  6
CONTINUOUS
 10
475.04856695510682
 20
122.37224278841821
 30
0.0
 11
470.29328437363102
 21
122.37224278841821
 31
0.0
 12
470.64838317843152
 22
121.6753221436243
 32
0.0
 13
470.64838317843152
 23
121.6753221436243
 33
0.0
210
0.0
220
0.0
230
-1.0
  0
SOLID
  5
644
  8
0
  6
CONTINUOUS
 10
-474.69346815030627
 20
121.6753221436243
 30
0.0
 11
-474.14038879510008
 21
121.12224278841821
 31
0.0
 12
-471.20146253363782
 22
121.12224278841821
 32
0.0
 13
-471.20146253363782
 23
121.12224278841821
 33
0.0
210
0.0
220
0.0
230
1.0
  0
SOLID
  5
645
  8
0
  6
CONTINUOUS
 10
474.69346815030627
 20
121.6753221436243
 30
0.0
 11
470.64838317843152
 21
121.6753221436243
 31
0.0
 12
471.20146253363782
 22
121.12224278841821
 32
0.0
 13
471.20146253363782
 23
121.12224278841821
 33
0.0
210
0.0
220
0.0
230
-1.0
  0
SOLID
  5
646
  8
0
  6
CONTINUOUS
 10
473.44346815030627
 20
120.7671439836176
 30
0.0
 11
471.89838317843152
 21
120.7671439836176
 31
0.0
 12
472.67092566436889
 22
120.6447852743555
 32
0.0
 13
472.67092566436889
 23
120.6447852743555
 33
0.0
210
0.0
220
0.0
230
-1.0
  0
SOLID
  5
647
  8
0
  6
CONTINUOUS
 10
-474.14038879510008
 20
121.12224278841821
 30
0.0
 11
-473.44346815030627
 21
120.7671439836176
 31
0.0
 12
-471.89838317843152
 22
120.7671439836176
 32
0.0
 13
-471.89838317843152
 23
120.7671439836176
 33
0.0
210
0.0
220
0.0
230
1.0
  0
SOLID
  5
648
  8
0
  6
CONTINUOUS
 10
474.14038879510008
 20
121.12224278841821
 30
0.0
 11
471.20146253363782
 21
121.12224278841821
 31
0.0
 12
471.89838317843152
 22
120.7671439836176
 32
0.0
 13
471.89838317843152
 23
120.7671439836176
 33
0.0
210
0.0
220
0.0
230
-1.0
  0
LINE
  5
649
  8
0
  6
CONTINUOUS
 10
-472.67092566436889
 20
125.6447852743555
 30
0.0
 11
-473.44346815030627
 21
125.5224265650934
 31
0.0
  0
LINE
  5
64A
  8
0
  6
CONTINUOUS
 10
-471.89838317843152
 20
125.5224265650934
 30
0.0
 11
-472.67092566436889
 21
125.6447852743555
 31
0.0
  0
LINE
  5
64B
  8
0
  6
CONTINUOUS
 10
-473.44346815030627
 20
125.5224265650934
 30
0.0
 11
-474.14038879510008
 21
125.16732776029291
 31
0.0
  0
LINE
  5
64C
  8
0
  6
CONTINUOUS
 10
-471.89838317843152
 20
125.5224265650934
 30
0.0
 11
-471.20146253363782
 21
125.16732776029291
 31
0.0
  0
LINE
  5
64D
  8
0
  6
CONTINUOUS
 10
-474.14038879510008
 20
125.16732776029291
 30
0.0
 11
-474.69346815030627
 21
124.6142484050867
 31
0.0
  0
LINE
  5
64E
  8
0
  6
CONTINUOUS
 10
-471.20146253363782
 20
125.16732776029291
 30
0.0
 11
-470.64838317843152
 21
124.6142484050867
 31
0.0
  0
LINE
  5
64F
  8
0
  6
CONTINUOUS
 10
-474.69346815030627
 20
124.6142484050867
 30
0.0
 11
-475.04856695510682
 21
123.91732776029291
 31
0.0
  0
LINE
  5
650
  8
0
  6
CONTINUOUS
 10
-470.64838317843152
 20
124.6142484050867
 30
0.0
 11
-470.29328437363102
 21
123.91732776029291
 31
0.0
  0
LINE
  5
651
  8
0
  6
CONTINUOUS
 10
-475.04856695510682
 20
123.91732776029291
 30
0.0
 11
-475.17092566436889
 21
123.1447852743555
 31
0.0
  0
LINE
  5
652
  8
0
  6
CONTINUOUS
 10
-470.29328437363102
 20
123.91732776029291
 30
0.0
 11
-470.17092566436889
 21
123.1447852743555
 31
0.0
  0
LINE
  5
653
  8
0
  6
CONTINUOUS
 10
-475.17092566436889
 20
123.1447852743555
 30
0.0
 11
-475.04856695510682
 21
122.37224278841821
 31
0.0
  0
LINE
  5
654
  8
0
  6
CONTINUOUS
 10
-470.17092566436889
 20
123.1447852743555
 30
0.0
 11
-470.29328437363102
 21
122.37224278841821
 31
0.0
  0
LINE
  5
655
  8
0
  6
CONTINUOUS
 10
-475.04856695510682
 20
122.37224278841821
 30
0.0
 11
-474.69346815030627
 21
121.6753221436243
 31
0.0
  0
LINE
  5
656
  8
0
  6
CONTINUOUS
 10
-470.29328437363102
 20
122.37224278841821
 30
0.0
 11
-470.64838317843152
 21
121.6753221436243
 31
0.0
  0
LINE
  5
657
  8
0
  6
CONTINUOUS
 10
-474.69346815030627
 20
121.6753221436243
 30
0.0
 11
-474.14038879510008
 21
121.12224278841821
 31
0.0
  0
LINE
  5
658
  8
0
  6
CONTINUOUS
 10
-470.64838317843152
 20
121.6753221436243
 30
0.0
 11
-471.20146253363782
 21
121.12224278841821
 31
0.0
  0
LINE
  5
659
  8
0
  6
CONTINUOUS
 10
-471.89838317843152
 20
120.7671439836176
 30
0.0
 11
-472.67092566436889
 21
120.6447852743555
 31
0.0
  0
LINE
  5
65A
  8
0
  6
CONTINUOUS
 10
-472.67092566436889
 20
120.6447852743555
 30
0.0
 11
-473.44346815030627
 21
120.7671439836176
 31
0.0
  0
LINE
  5
65B
  8
0
  6
CONTINUOUS
 10
-474.14038879510008
 20
121.12224278841821
 30
0.0
 11
-473.44346815030627
 21
120.7671439836176
 31
0.0
  0
LINE
  5
65C
  8
0
  6
CONTINUOUS
 10
-471.20146253363782
 20
121.12224278841821
 30
0.0
 11
-471.89838317843152
 21
120.7671439836176
 31
0.0
  0
ENDBLK
  5
65E
  8
0
  0
BLOCK
  8
0
  2
*U42
 70
     1
 10
0.0
 20
0.0
 30
0.0
  3
*U42
  1

  0
TEXT
  5
660
  8
0
 10
-733.10316532526008
 20
117.47170835127859
 30
0.0
 40
12.2941616766467
  1
Fascia flashing
  7
ARIAL
  0
ENDBLK
  5
662
  8
0
  0
BLOCK
  8
0
  2
*U43
 70
     1
 10
0.0
 20
0.0
 30
0.0
  3
*U43
  1

  0
SOLID
  5
66E
  8
0
  6
CONTINUOUS
 10
-471.55000000000189
 20
155.07042973825349
 30
0.0
 11
-473.550000000002
 21
154.3424892697212
 31
0.0
 12
-471.55000000000189
 22
154.3424892697212
 32
0.0
 13
-471.55000000000189
 23
154.3424892697212
 33
0.0
210
0.0
220
0.0
230
1.0
  0
SOLID
  5
66F
  8
0
  6
CONTINUOUS
 10
-473.550000000002
 20
154.3424892697212
 30
0.0
 11
-473.55000000000189
 21
56.470844814672887
 31
0.0
 12
-471.55000000000189
 22
56.470844814672887
 32
0.0
 13
-471.55000000000189
 23
56.470844814672887
 33
0.0
210
0.0
220
0.0
230
1.0
  0
SOLID
  5
670
  8
0
  6
CONTINUOUS
 10
473.550000000002
 20
154.3424892697212
 30
0.0
 11
471.55000000000189
 21
154.3424892697212
 31
0.0
 12
471.55000000000189
 22
56.470844814672887
 32
0.0
 13
471.55000000000189
 23
56.470844814672887
 33
0.0
210
0.0
220
0.0
230
-1.0
  0
LINE
  5
671
  8
0
  6
CONTINUOUS
 10
-471.55000000000189
 20
155.07042973825349
 30
0.0
 11
-473.550000000002
 21
154.3424892697212
 31
0.0
  0
LINE
  5
672
  8
0
  6
CONTINUOUS
 10
-471.55000000000189
 20
154.3424892697212
 30
0.0
 11
-471.55000000000189
 21
155.07042973825349
 31
0.0
  0
LINE
  5
673
  8
0
  6
CONTINUOUS
 10
-473.550000000002
 20
154.3424892697212
 30
0.0
 11
-473.55000000000189
 21
56.470844814672887
 31
0.0
  0
LINE
  5
674
  8
0
  6
CONTINUOUS
 10
-471.55000000000189
 20
154.3424892697212
 30
0.0
 11
-471.55000000000189
 21
56.470844814672887
 31
0.0
  0
ENDBLK
  5
676
  8
0
  0
BLOCK
  8
0
  2
*U44
 70
     1
 10
0.0
 20
0.0
 30
0.0
  3
*U44
  1

  0
SOLID
  5
678
  8
0
  6
CONTINUOUS
 10
-426.56536896070622
 20
173.57185198095641
 30
0.0
 11
-431.72893747438138
 21
171.6924667393844
 31
0.0
 12
-425.88132867405488
 22
171.6924667393844
 32
0.0
 13
-425.88132867405488
 23
171.6924667393844
 33
0.0
210
0.0
220
0.0
230
1.0
  0
SOLID
  5
679
  8
0
  6
CONTINUOUS
 10
473.55000000000189
 20
156.470844814673
 30
0.0
 11
467.70239119967528
 21
156.470844814673
 31
0.0
 12
473.55000000000172
 22
154.3424892697212
 32
0.0
 13
473.55000000000172
 23
154.3424892697212
 33
0.0
210
0.0
220
0.0
230
-1.0
  0
SOLID
  5
67A
  8
0
  6
CONTINUOUS
 10
-431.72893747438138
 20
171.6924667393844
 30
0.0
 11
-473.55000000000189
 21
156.470844814673
 31
0.0
 12
-467.70239119967528
 22
156.470844814673
 32
0.0
 13
-467.70239119967528
 23
156.470844814673
 33
0.0
210
0.0
220
0.0
230
1.0
  0
SOLID
  5
67B
  8
0
  6
CONTINUOUS
 10
431.72893747438138
 20
171.6924667393844
 30
0.0
 11
425.88132867405488
 21
171.6924667393844
 31
0.0
 12
467.70239119967528
 22
156.470844814673
 32
0.0
 13
467.70239119967528
 23
156.470844814673
 33
0.0
210
0.0
220
0.0
230
-1.0
  0
LINE
  5
67C
  8
0
  6
CONTINUOUS
 10
-426.56536896070622
 20
173.57185198095641
 30
0.0
 11
-431.72893747438138
 21
171.6924667393844
 31
0.0
  0
LINE
  5
67D
  8
0
  6
CONTINUOUS
 10
-425.88132867405488
 20
171.6924667393844
 30
0.0
 11
-426.56536896070622
 21
173.57185198095641
 31
0.0
  0
LINE
  5
67E
  8
0
  6
CONTINUOUS
 10
-467.70239119967528
 20
156.470844814673
 30
0.0
 11
-473.55000000000172
 21
154.3424892697212
 31
0.0
  0
LINE
  5
67F
  8
0
  6
CONTINUOUS
 10
-473.55000000000172
 20
154.3424892697212
 30
0.0
 11
-473.55000000000189
 21
156.470844814673
 31
0.0
  0
LINE
  5
680
  8
0
  6
CONTINUOUS
 10
-431.72893747438138
 20
171.6924667393844
 30
0.0
 11
-473.55000000000189
 21
156.470844814673
 31
0.0
  0
LINE
  5
681
  8
0
  6
CONTINUOUS
 10
-425.88132867405488
 20
171.6924667393844
 30
0.0
 11
-467.70239119967528
 21
156.470844814673
 31
0.0
  0
ENDBLK
  5
683
  8
0
  0
BLOCK
  8
0
  2
*U45
 70
     1
 10
0.0
 20
0.0
 30
0.0
  3
*U45
  1

  0
SOLID
  5
685
  8
0
  6
CONTINUOUS
 10
-577.46130677724068
 20
110.8114641914291
 30
0.0
 11
-590.69149628925186
 21
110.7648641205929
 31
0.0
 12
-577.107344097534
 22
110.7648641205929
 32
0.0
 13
-577.107344097534
 23
110.7648641205929
 33
0.0
210
0.0
220
0.0
230
1.0
  0
SOLID
  5
686
  8
0
  6
CONTINUOUS
 10
-590.69149628925186
 20
110.7648641205929
 30
0.0
 11
-590.72753385466171
 21
110.7518343874348
 31
0.0
 12
-577.00837344831132
 22
110.7518343874348
 32
0.0
 13
-577.00837344831132
 23
110.7518343874348
 33
0.0
210
0.0
220
0.0
230
1.0
  0
SOLID
  5
687
  8
0
  6
CONTINUOUS
 10
590.69149628925186
 20
110.7648641205929
 30
0.0
 11
577.107344097534
 21
110.7648641205929
 31
0.0
 12
577.00837344831132
 22
110.7518343874348
 32
0.0
 13
577.00837344831132
 23
110.7518343874348
 33
0.0
210
0.0
220
0.0
230
-1.0
  0
SOLID
  5
688
  8
0
  6
CONTINUOUS
 10
-590.72753385466171
 20
110.7518343874348
 30
0.0
 11
-591.07129083749078
 21
110.6275456984918
 31
0.0
 12
-576.70831400981524
 22
110.6275456984918
 32
0.0
 13
-576.70831400981524
 23
110.6275456984918
 33
0.0
210
0.0
220
0.0
230
1.0
  0
SOLID
  5
689
  8
0
  6
CONTINUOUS
 10
590.72753385466171
 20
110.7518343874348
 30
0.0
 11
577.00837344831132
 21
110.7518343874348
 31
0.0
 12
576.70831400981524
 22
110.6275456984918
 32
0.0
 13
576.70831400981524
 23
110.6275456984918
 33
0.0
210
0.0
220
0.0
230
-1.0
  0
SOLID
  5
68A
  8
0
  6
CONTINUOUS
 10
-591.07129083749078
 20
110.6275456984918
 30
0.0
 11
-591.14872610085342
 21
110.5770086480518
 31
0.0
 12
-576.58630677724057
 22
110.5770086480518
 32
0.0
 13
-576.58630677724057
 23
110.5770086480518
 33
0.0
210
0.0
220
0.0
230
1.0
  0
SOLID
  5
68B
  8
0
  6
CONTINUOUS
 10
591.07129083749078
 20
110.6275456984918
 30
0.0
 11
576.70831400981524
 21
110.6275456984918
 31
0.0
 12
576.58630677724057
 22
110.5770086480518
 32
0.0
 13
576.58630677724057
 23
110.5770086480518
 33
0.0
210
0.0
220
0.0
230
-1.0
  0
SOLID
  5
68C
  8
0
  6
CONTINUOUS
 10
-591.14872610085342
 20
110.5770086480518
 30
0.0
 11
-591.40949395866267
 21
110.40682212306329
 31
0.0
 12
-576.36451537975995
 22
110.40682212306329
 32
0.0
 13
-576.36451537975995
 23
110.40682212306329
 33
0.0
210
0.0
220
0.0
230
1.0
  0
SOLID
  5
68D
  8
0
  6
CONTINUOUS
 10
591.14872610085342
 20
110.5770086480518
 30
0.0
 11
576.58630677724057
 21
110.5770086480518
 31
0.0
 12
576.36451537975995
 22
110.40682212306329
 32
0.0
 13
576.36451537975995
 23
110.40682212306329
 33
0.0
210
0.0
220
0.0
230
-1.0
  0
SOLID
  5
68E
  8
0
  6
CONTINUOUS
 10
-591.40949395866267
 20
110.40682212306329
 30
0.0
 11
-591.51233088082995
 21
110.29890105850551
 31
0.0
 12
-576.22386991016424
 22
110.29890105850551
 32
0.0
 13
-576.22386991016424
 23
110.29890105850551
 33
0.0
210
0.0
220
0.0
230
1.0
  0
SOLID
  5
68F
  8
0
  6
CONTINUOUS
 10
591.40949395866267
 20
110.40682212306329
 30
0.0
 11
576.36451537975995
 21
110.40682212306329
 31
0.0
 12
576.22386991016424
 22
110.29890105850551
 32
0.0
 13
576.22386991016424
 23
110.29890105850551
 33
0.0
210
0.0
220
0.0
230
-1.0
  0
SOLID
  5
690
  8
0
  6
CONTINUOUS
 10
-591.51233088082995
 20
110.29890105850551
 30
0.0
 11
-591.68809389344983
 21
110.114448519164
 31
0.0
 12
-576.08233449872625
 22
110.114448519164
 32
0.0
 13
-576.08233449872625
 23
110.114448519164
 33
0.0
210
0.0
220
0.0
230
1.0
  0
SOLID
  5
691
  8
0
  6
CONTINUOUS
 10
591.51233088082995
 20
110.29890105850551
 30
0.0
 11
576.22386991016424
 21
110.29890105850551
 31
0.0
 12
576.08233449872625
 22
110.114448519164
 32
0.0
 13
576.08233449872625
 23
110.114448519164
 33
0.0
210
0.0
220
0.0
230
-1.0
  0
SOLID
  5
692
  8
0
  6
CONTINUOUS
 10
-591.68809389344983
 20
110.114448519164
 30
0.0
 11
-591.79237536863104
 21
109.9364641914291
 31
0.0
 12
-575.94576232061797
 22
109.9364641914291
 32
0.0
 13
-575.94576232061797
 23
109.9364641914291
 33
0.0
  0
SOLID
  5
693
  8
0
  6
CONTINUOUS
 10
591.68809389344983
 20
110.114448519164
 30
0.0
 11
576.08233449872625
 21
110.114448519164
 31
0.0
 12
575.94576232061797
 22
109.9364641914291
 32
0.0
 13
575.94576232061797
 23
109.9364641914291
 33
0.0
210
0.0
220
0.0
230
-1.0
  0
SOLID
  5
694
  8
0
  6
CONTINUOUS
 10
-591.79237536863104
 20
109.9364641914291
 30
0.0
 11
-591.86561318998054
 21
109.8114641914291
 31
0.0
 12
-575.89398562532131
 22
109.8114641914291
 32
0.0
 13
-575.89398562532131
 23
109.8114641914291
 33
0.0
210
0.0
220
0.0
230
1.0
  0
SOLID
  5
695
  8
0
  6
CONTINUOUS
 10
591.79237536863104
 20
109.9364641914291
 30
0.0
 11
575.94576232061797
 21
109.9364641914291
 31
0.0
 12
575.89398562532131
 22
109.8114641914291
 32
0.0
 13
575.89398562532131
 23
109.8114641914291
 33
0.0
210
0.0
220
0.0
230
-1.0
  0
SOLID
  5
696
  8
0
  6
CONTINUOUS
 10
-590.29033711720342
 20
109.8114641914291
 30
0.0
 11
-580.11288521632537
 21
109.7914927324983
 31
0.0
 12
-575.88571317617175
 22
109.7914927324983
 32
0.0
 13
-575.88571317617175
 23
109.7914927324983
 33
0.0
210
0.0
220
0.0
230
1.0
  0
SOLID
  5
697
  8
0
  6
CONTINUOUS
 10
590.29033711720342
 20
109.8114641914291
 30
0.0
 11
575.89398562532131
 21
109.8114641914291
 31
0.0
 12
575.88571317617175
 22
109.7914927324983
 32
0.0
 13
575.88571317617175
 23
109.7914927324983
 33
0.0
210
0.0
220
0.0
230
-1.0
  0
SOLID
  5
698
  8
0
  6
CONTINUOUS
 10
-591.86561318998054
 20
109.8114641914291
 30
0.0
 11
-591.87731451911066
 21
109.7914927324983
 31
0.0
 12
-590.46226247665288
 22
109.7914927324983
 32
0.0
 13
-590.46226247665288
 23
109.7914927324983
 33
0.0
210
0.0
220
0.0
230
1.0
  0
SOLID
  5
699
  8
0
  6
CONTINUOUS
 10
591.86561318998054
 20
109.8114641914291
 30
0.0
 11
590.29033711720342
 21
109.8114641914291
 31
0.0
 12
590.46226247665288
 22
109.7914927324983
 32
0.0
 13
590.46226247665288
 23
109.7914927324983
 33
0.0
210
0.0
220
0.0
230
-1.0
  0
SOLID
  5
69A
  8
0
  6
CONTINUOUS
 10
-580.11288521632537
 20
109.7914927324983
 30
0.0
 11
-577.26719249341375
 21
109.7859085611458
 31
0.0
 12
-575.88340013666289
 22
109.7859085611458
 32
0.0
 13
-575.88340013666289
 23
109.7859085611458
 33
0.0
210
0.0
220
0.0
230
1.0
  0
SOLID
  5
69B
  8
0
  6
CONTINUOUS
 10
580.11288521632537
 20
109.7914927324983
 30
0.0
 11
575.88571317617175
 21
109.7914927324983
 31
0.0
 12
575.88340013666289
 22
109.7859085611458
 32
0.0
 13
575.88340013666289
 23
109.7859085611458
 33
0.0
210
0.0
220
0.0
230
-1.0
  0
SOLID
  5
69C
  8
0
  6
CONTINUOUS
 10
-591.87731451911066
 20
109.7914927324983
 30
0.0
 11
-591.89225318277136
 21
109.7659958932532
 31
0.0
 12
-590.5133924314672
 22
109.7659958932532
 32
0.0
 13
-590.5133924314672
 23
109.7659958932532
 33
0.0
  0
SOLID
  5
69D
  8
0
  6
CONTINUOUS
 10
591.87731451911066
 20
109.7914927324983
 30
0.0
 11
590.46226247665288
 21
109.7914927324983
 31
0.0
 12
590.5133924314672
 22
109.7659958932532
 32
0.0
 13
590.5133924314672
 23
109.7659958932532
 33
0.0
210
0.0
220
0.0
230
-1.0
  0
SOLID
  5
69E
  8
0
  6
CONTINUOUS
 10
-591.89225318277136
 20
109.7659958932532
 30
0.0
 11
-591.93165032496984
 21
109.63804616212821
 31
0.0
 12
-590.7699757635437
 22
109.63804616212821
 32
0.0
 13
-590.7699757635437
 23
109.63804616212821
 33
0.0
210
0.0
220
0.0
230
1.0
  0
SOLID
  5
69F
  8
0
  6
CONTINUOUS
 10
591.89225318277136
 20
109.7659958932532
 30
0.0
 11
590.5133924314672
 21
109.7659958932532
 31
0.0
 12
590.7699757635437
 22
109.63804616212821
 32
0.0
 13
590.7699757635437
 23
109.63804616212821
 33
0.0
210
0.0
220
0.0
230
-1.0
  0
SOLID
  5
6A0
  8
0
  6
CONTINUOUS
 10
-577.26719249341375
 20
109.7859085611458
 30
0.0
 11
-576.93097669135068
 21
109.591794277319
 31
0.0
 12
-575.80299536765165
 22
109.591794277319
 32
0.0
 13
-575.80299536765165
 23
109.591794277319
 33
0.0
  0
SOLID
  5
6A1
  8
0
  6
CONTINUOUS
 10
577.26719249341375
 20
109.7859085611458
 30
0.0
 11
575.88340013666289
 21
109.7859085611458
 31
0.0
 12
575.80299536765165
 22
109.591794277319
 32
0.0
 13
575.80299536765165
 23
109.591794277319
 33
0.0
210
0.0
220
0.0
230
-1.0
  0
SOLID
  5
6A2
  8
0
  6
CONTINUOUS
 10
-576.93097669135068
 20
109.591794277319
 30
0.0
 11
-576.88629165288523
 21
109.5143975203584
 31
0.0
 12
-575.77093658123476
 22
109.5143975203584
 32
0.0
 13
-575.77093658123476
 23
109.5143975203584
 33
0.0
210
0.0
220
0.0
230
1.0
  0
SOLID
  5
6A3
  8
0
  6
CONTINUOUS
 10
576.93097669135068
 20
109.591794277319
 30
0.0
 11
575.80299536765165
 21
109.591794277319
 31
0.0
 12
575.77093658123476
 22
109.5143975203584
 32
0.0
 13
575.77093658123476
 23
109.5143975203584
 33
0.0
210
0.0
220
0.0
230
-1.0
  0
SOLID
  5
6A4
  8
0
  6
CONTINUOUS
 10
-591.93165032496984
 20
109.63804616212821
 30
0.0
 11
-592.01109886966333
 21
109.3800218648167
 31
0.0
 12
-590.96435546240264
 22
109.3800218648167
 32
0.0
 13
-590.96435546240264
 23
109.3800218648167
 33
0.0
210
0.0
220
0.0
230
1.0
  0
SOLID
  5
6A5
  8
0
  6
CONTINUOUS
 10
591.93165032496984
 20
109.63804616212821
 30
0.0
 11
590.7699757635437
 21
109.63804616212821
 31
0.0
 12
590.96435546240264
 22
109.3800218648167
 32
0.0
 13
590.96435546240264
 23
109.3800218648167
 33
0.0
210
0.0
220
0.0
230
-1.0
  0
SOLID
  5
6A6
  8
0
  6
CONTINUOUS
 10
-592.01109886966333
 20
109.3800218648167
 30
0.0
 11
-592.01417483293415
 21
109.3634063493522
 31
0.0
 12
-590.97687257387634
 22
109.3634063493522
 32
0.0
 13
-590.97687257387634
 23
109.3634063493522
 33
0.0
210
0.0
220
0.0
230
1.0
  0
SOLID
  5
6A7
  8
0
  6
CONTINUOUS
 10
592.01109886966333
 20
109.3800218648167
 30
0.0
 11
590.96435546240264
 21
109.3800218648167
 31
0.0
 12
590.97687257387634
 22
109.3634063493522
 32
0.0
 13
590.97687257387634
 23
109.3634063493522
 33
0.0
210
0.0
220
0.0
230
-1.0
  0
SOLID
  5
6A8
  8
0
  6
CONTINUOUS
 10
-576.88629165288523
 20
109.5143975203584
 30
0.0
 11
-576.73686240752386
 21
109.255578475256
 31
0.0
 12
-575.73686240752386
 22
109.255578475256
 32
0.0
 13
-575.73686240752386
 23
109.255578475256
 33
0.0
210
0.0
220
0.0
230
1.0
  0
SOLID
  5
6A9
  8
0
  6
CONTINUOUS
 10
576.88629165288523
 20
109.5143975203584
 30
0.0
 11
575.77093658123476
 21
109.5143975203584
 31
0.0
 12
575.73686240752386
 22
109.255578475256
 32
0.0
 13
575.73686240752386
 23
109.255578475256
 33
0.0
210
0.0
220
0.0
230
-1.0
  0
SOLID
  5
6AA
  8
0
  6
CONTINUOUS
 10
-576.73686240752386
 20
109.255578475256
 30
0.0
 11
-576.71130677724057
 21
109.061464191429
 31
0.0
 12
-575.71130677724057
 22
109.061464191429
 32
0.0
 13
-575.71130677724057
 23
109.061464191429
 33
0.0
210
0.0
220
0.0
230
1.0
  0
SOLID
  5
6AB
  8
0
  6
CONTINUOUS
 10
576.73686240752386
 20
109.255578475256
 30
0.0
 11
575.73686240752386
 21
109.255578475256
 31
0.0
 12
575.71130677724057
 22
109.061464191429
 32
0.0
 13
575.71130677724057
 23
109.061464191429
 33
0.0
210
0.0
220
0.0
230
-1.0
  0
SOLID
  5
6AC
  8
0
  6
CONTINUOUS
 10
-576.71130677724057
 20
109.061464191429
 30
0.0
 11
-576.71130677724057
 21
106.40074009030479
 31
0.0
 12
-575.71130677724057
 22
106.40074009030479
 32
0.0
 13
-575.71130677724057
 23
106.40074009030479
 33
0.0
210
0.0
220
0.0
230
1.0
  0
SOLID
  5
6AD
  8
0
  6
CONTINUOUS
 10
576.71130677724057
 20
109.061464191429
 30
0.0
 11
575.71130677724057
 21
109.061464191429
 31
0.0
 12
575.71130677724057
 22
106.40074009030479
 32
0.0
 13
575.71130677724057
 23
106.40074009030479
 33
0.0
210
0.0
220
0.0
230
-1.0
  0
SOLID
  5
6AE
  8
0
  6
CONTINUOUS
 10
-592.01417483293415
 20
109.3634063493522
 30
0.0
 11
-594.04612532181716
 21
98.387363465362824
 31
0.0
 12
-593.02880251521685
 22
98.387363465362824
 32
0.0
 13
-593.02880251521685
 23
98.387363465362824
 33
0.0
210
0.0
220
0.0
230
1.0
  0
SOLID
  5
6AF
  8
0
  6
CONTINUOUS
 10
592.01417483293415
 20
109.3634063493522
 30
0.0
 11
590.97687257387634
 21
109.3634063493522
 31
0.0
 12
593.02880251521685
 22
98.387363465362824
 32
0.0
 13
593.02880251521685
 23
98.387363465362824
 33
0.0
210
0.0
220
0.0
230
-1.0
  0
SOLID
  5
6B0
  8
0
  6
CONTINUOUS
 10
-594.04612532181716
 20
98.387363465362824
 30
0.0
 11
-594.0577783754735
 21
98.205330509139557
 31
0.0
 12
-593.06283289184103
 22
98.205330509139557
 32
0.0
 13
-593.06283289184103
 23
98.205330509139557
 33
0.0
  0
SOLID
  5
6B1
  8
0
  6
CONTINUOUS
 10
594.04612532181716
 20
98.387363465362824
 30
0.0
 11
593.02880251521685
 21
98.387363465362824
 31
0.0
 12
593.06283289184103
 22
98.205330509139557
 32
0.0
 13
593.06283289184103
 23
98.205330509139557
 33
0.0
210
0.0
220
0.0
230
-1.0
  0
SOLID
  5
6B2
  8
0
  6
CONTINUOUS
 10
-594.0577783754735
 20
98.205330509139557
 30
0.0
 11
-594.08435155780205
 21
97.790229448232694
 31
0.0
 12
-593.08940607416946
 22
97.790229448232694
 32
0.0
 13
-593.08940607416946
 23
97.790229448232694
 33
0.0
210
0.0
220
0.0
230
1.0
  0
SOLID
  5
6B3
  8
0
  6
CONTINUOUS
 10
594.0577783754735
 20
98.205330509139557
 30
0.0
 11
593.06283289184103
 21
98.205330509139557
 31
0.0
 12
593.08940607416946
 22
97.790229448232694
 32
0.0
 13
593.08940607416946
 23
97.790229448232694
 33
0.0
210
0.0
220
0.0
230
-1.0
  0
SOLID
  5
6B4
  8
0
  6
CONTINUOUS
 10
-594.08435155780205
 20
97.790229448232694
 30
0.0
 11
-594.08788317976212
 21
97.735061798223569
 31
0.0
 12
-593.07969062408552
 22
97.735061798223569
 32
0.0
 13
-593.07969062408552
 23
97.735061798223569
 33
0.0
210
0.0
220
0.0
230
1.0
  0
SOLID
  5
6B5
  8
0
  6
CONTINUOUS
 10
594.08435155780205
 20
97.790229448232694
 30
0.0
 11
593.08940607416946
 21
97.790229448232694
 31
0.0
 12
593.07969062408552
 22
97.735061798223569
 32
0.0
 13
593.07969062408552
 23
97.735061798223569
 33
0.0
210
0.0
220
0.0
230
-1.0
  0
SOLID
  5
6B6
  8
0
  6
CONTINUOUS
 10
-594.08788317976212
 20
97.735061798223569
 30
0.0
 11
-594.025456645791
 21
97.380582577230641
 31
0.0
 12
-593.0172640901144
 22
97.380582577230641
 32
0.0
 13
-593.0172640901144
 23
97.380582577230641
 33
0.0
210
0.0
220
0.0
230
1.0
  0
SOLID
  5
6B7
  8
0
  6
CONTINUOUS
 10
594.08788317976212
 20
97.735061798223569
 30
0.0
 11
593.07969062408552
 21
97.735061798223569
 31
0.0
 12
593.0172640901144
 22
97.380582577230641
 32
0.0
 13
593.0172640901144
 23
97.380582577230641
 33
0.0
210
0.0
220
0.0
230
-1.0
  0
SOLID
  5
6B8
  8
0
  6
CONTINUOUS
 10
-594.025456645791
 20
97.380582577230641
 30
0.0
 11
-593.97451720481831
 21
97.091331000934886
 31
0.0
 12
-592.89066170266369
 22
97.091331000934886
 32
0.0
 13
-592.89066170266369
 23
97.091331000934886
 33
0.0
210
0.0
220
0.0
230
1.0
  0
SOLID
  5
6B9
  8
0
  6
CONTINUOUS
 10
594.025456645791
 20
97.380582577230641
 30
0.0
 11
593.0172640901144
 21
97.380582577230641
 31
0.0
 12
592.89066170266369
 22
97.091331000934886
 32
0.0
 13
592.89066170266369
 23
97.091331000934886
 33
0.0
210
0.0
220
0.0
230
-1.0
  0
SOLID
  5
6BA
  8
0
  6
CONTINUOUS
 10
-593.97451720481831
 20
97.091331000934886
 30
0.0
 11
-593.93433808171903
 21
96.999532774024047
 31
0.0
 12
-592.85048257956441
 22
96.999532774024047
 32
0.0
 13
-592.85048257956441
 23
96.999532774024047
 33
0.0
210
0.0
220
0.0
230
1.0
  0
SOLID
  5
6BB
  8
0
  6
CONTINUOUS
 10
593.97451720481831
 20
97.091331000934886
 30
0.0
 11
592.89066170266369
 21
97.091331000934886
 31
0.0
 12
592.85048257956441
 22
96.999532774024047
 32
0.0
 13
592.85048257956441
 23
96.999532774024047
 33
0.0
210
0.0
220
0.0
230
-1.0
  0
SOLID
  5
6BC
  8
0
  6
CONTINUOUS
 10
-593.93433808171903
 20
96.999532774024047
 30
0.0
 11
-593.78949548016044
 21
96.668607333680967
 31
0.0
 12
-592.59848381425229
 22
96.668607333680967
 32
0.0
 13
-592.59848381425229
 23
96.668607333680967
 33
0.0
210
0.0
220
0.0
230
1.0
  0
SOLID
  5
6BD
  8
0
  6
CONTINUOUS
 10
593.93433808171903
 20
96.999532774024047
 30
0.0
 11
592.85048257956441
 21
96.999532774024047
 31
0.0
 12
592.59848381425229
 22
96.668607333680967
 32
0.0
 13
592.59848381425229
 23
96.668607333680967
 33
0.0
210
0.0
220
0.0
230
-1.0
  0
SOLID
  5
6BE
  8
0
  6
CONTINUOUS
 10
-593.78949548016044
 20
96.668607333680967
 30
0.0
 11
-593.71243197395415
 21
96.492538453038875
 31
0.0
 12
-592.3236878588483
 22
96.492538453038875
 32
0.0
 13
-592.3236878588483
 23
96.492538453038875
 33
0.0
210
0.0
220
0.0
230
1.0
  0
SOLID
  5
6BF
  8
0
  6
CONTINUOUS
 10
593.78949548016044
 20
96.668607333680967
 30
0.0
 11
592.59848381425229
 21
96.668607333680967
 31
0.0
 12
592.3236878588483
 22
96.492538453038875
 32
0.0
 13
592.3236878588483
 23
96.492538453038875
 33
0.0
210
0.0
220
0.0
230
-1.0
  0
SOLID
  5
6C0
  8
0
  6
CONTINUOUS
 10
-593.71243197395415
 20
96.492538453038875
 30
0.0
 11
-593.31643391417799
 21
95.972512761071357
 31
0.0
 12
-591.51206824533244
 22
95.972512761071357
 32
0.0
 13
-591.51206824533244
 23
95.972512761071357
 33
0.0
210
0.0
220
0.0
230
1.0
  0
SOLID
  5
6C1
  8
0
  6
CONTINUOUS
 10
593.71243197395415
 20
96.492538453038875
 30
0.0
 11
592.3236878588483
 21
96.492538453038875
 31
0.0
 12
591.51206824533244
 22
95.972512761071357
 32
0.0
 13
591.51206824533244
 23
95.972512761071357
 33
0.0
210
0.0
220
0.0
230
-1.0
  0
SOLID
  5
6C2
  8
0
  6
CONTINUOUS
 10
-593.31643391417799
 20
95.972512761071357
 30
0.0
 11
-592.80889481785789
 21
95.560632621516689
 31
0.0
 12
-590.86923462221796
 22
95.560632621516689
 32
0.0
 13
-590.86923462221796
 23
95.560632621516689
 33
0.0
210
0.0
220
0.0
230
1.0
  0
SOLID
  5
6C3
  8
0
  6
CONTINUOUS
 10
593.31643391417799
 20
95.972512761071357
 30
0.0
 11
591.51206824533244
 21
95.972512761071357
 31
0.0
 12
590.86923462221796
 22
95.560632621516689
 32
0.0
 13
590.86923462221796
 23
95.560632621516689
 33
0.0
210
0.0
220
0.0
230
-1.0
  0
SOLID
  5
6C4
  8
0
  6
CONTINUOUS
 10
-462.30000000000189
 20
94.396774167516114
 30
0.0
 11
-462.88234285148292
 21
94.320107276666434
 31
0.0
 12
-461.71765714852103
 22
94.320107276666434
 32
0.0
 13
-461.71765714852103
 23
94.320107276666434
 33
0.0
210
0.0
220
0.0
230
1.0
  0
SOLID
  5
6C5
  8
0
  6
CONTINUOUS
 10
-462.88234285148292
 20
94.320107276666434
 30
0.0
 11
-463.42500000000229
 21
94.095331326030973
 31
0.0
 12
-461.17500000000149
 22
94.095331326030973
 32
0.0
 13
-461.17500000000149
 23
94.095331326030973
 33
0.0
210
0.0
220
0.0
230
1.0
  0
SOLID
  5
6C6
  8
0
  6
CONTINUOUS
 10
462.88234285148292
 20
94.320107276666434
 30
0.0
 11
461.71765714852103
 21
94.320107276666434
 31
0.0
 12
461.17500000000149
 22
94.095331326030973
 32
0.0
 13
461.17500000000149
 23
94.095331326030973
 33
0.0
210
0.0
220
0.0
230
-1.0
  0
SOLID
  5
6C7
  8
0
  6
CONTINUOUS
 10
-463.42500000000229
 20
94.095331326030973
 30
0.0
 11
-463.89099025767217
 21
93.737764425185588
 31
0.0
 12
-460.70900974233149
 22
93.737764425185588
 32
0.0
 13
-460.70900974233149
 23
93.737764425185588
 33
0.0
210
0.0
220
0.0
230
1.0
  0
SOLID
  5
6C8
  8
0
  6
CONTINUOUS
 10
463.42500000000229
 20
94.095331326030973
 30
0.0
 11
461.17500000000149
 21
94.095331326030973
 31
0.0
 12
460.70900974233149
 22
93.737764425185588
 32
0.0
 13
460.70900974233149
 23
93.737764425185588
 33
0.0
210
0.0
220
0.0
230
-1.0
  0
SOLID
  5
6C9
  8
0
  6
CONTINUOUS
 10
-463.89099025767217
 20
93.737764425185588
 30
0.0
 11
-464.15264128501991
 21
93.396774167516085
 31
0.0
 12
-460.44735871498392
 22
93.396774167516085
 32
0.0
 13
-460.44735871498392
 23
93.396774167516085
 33
0.0
210
0.0
220
0.0
230
1.0
  0
SOLID
  5
6CA
  8
0
  6
CONTINUOUS
 10
463.89099025767217
 20
93.737764425185588
 30
0.0
 11
460.70900974233149
 21
93.737764425185588
 31
0.0
 12
460.44735871498392
 22
93.396774167516085
 32
0.0
 13
460.44735871498392
 23
93.396774167516085
 33
0.0
210
0.0
220
0.0
230
-1.0
  0
SOLID
  5
6CB
  8
0
  6
CONTINUOUS
 10
-462.30000000000189
 20
93.396774167516085
 30
0.0
 11
-461.97647619362351
 21
93.354181450377425
 31
0.0
 12
-460.41467617363207
 22
93.354181450377425
 32
0.0
 13
-460.41467617363207
 23
93.354181450377425
 33
0.0
210
0.0
220
0.0
230
1.0
  0
SOLID
  5
6CC
  8
0
  6
CONTINUOUS
 10
462.30000000000189
 20
93.396774167516085
 30
0.0
 11
460.44735871498392
 21
93.396774167516085
 31
0.0
 12
460.41467617363207
 22
93.354181450377425
 32
0.0
 13
460.41467617363207
 23
93.354181450377425
 33
0.0
210
0.0
220
0.0
230
-1.0
  0
SOLID
  5
6CD
  8
0
  6
CONTINUOUS
 10
-464.15264128501991
 20
93.396774167516085
 30
0.0
 11
-464.1853238263717
 21
93.354181450377425
 31
0.0
 12
-462.62352380638032
 22
93.354181450377425
 32
0.0
 13
-462.62352380638032
 23
93.354181450377425
 33
0.0
210
0.0
220
0.0
230
1.0
  0
SOLID
  5
6CE
  8
0
  6
CONTINUOUS
 10
464.15264128501991
 20
93.396774167516085
 30
0.0
 11
462.30000000000189
 21
93.396774167516085
 31
0.0
 12
462.62352380638032
 22
93.354181450377425
 32
0.0
 13
462.62352380638032
 23
93.354181450377425
 33
0.0
210
0.0
220
0.0
230
-1.0
  0
SOLID
  5
6CF
  8
0
  6
CONTINUOUS
 10
-461.97647619362351
 20
93.354181450377425
 30
0.0
 11
-461.77752741370023
 21
93.271774167515574
 31
0.0
 12
-460.35144284148612
 22
93.271774167515574
 32
0.0
 13
-460.35144284148612
 23
93.271774167515574
 33
0.0
210
0.0
220
0.0
230
1.0
  0
SOLID
  5
6D0
  8
0
  6
CONTINUOUS
 10
461.97647619362351
 20
93.354181450377425
 30
0.0
 11
460.41467617363207
 21
93.354181450377425
 31
0.0
 12
460.35144284148612
 22
93.271774167515574
 32
0.0
 13
460.35144284148612
 23
93.271774167515574
 33
0.0
210
0.0
220
0.0
230
-1.0
  0
SOLID
  5
6D1
  8
0
  6
CONTINUOUS
 10
-464.1853238263717
 20
93.354181450377425
 30
0.0
 11
-464.2485571585176
 21
93.271774167515574
 31
0.0
 12
-462.8224725863036
 22
93.271774167515574
 32
0.0
 13
-462.8224725863036
 23
93.271774167515574
 33
0.0
210
0.0
220
0.0
230
1.0
  0
SOLID
  5
6D2
  8
0
  6
CONTINUOUS
 10
464.1853238263717
 20
93.354181450377425
 30
0.0
 11
462.62352380638032
 21
93.354181450377425
 31
0.0
 12
462.8224725863036
 22
93.271774167515574
 32
0.0
 13
462.8224725863036
 23
93.271774167515574
 33
0.0
210
0.0
220
0.0
230
-1.0
  0
SOLID
  5
6D3
  8
0
  6
CONTINUOUS
 10
-461.77752741370023
 20
93.271774167515574
 30
0.0
 11
-461.67500000000149
 21
93.229305922246496
 31
0.0
 12
-460.33385191832548
 22
93.229305922246496
 32
0.0
 13
-460.33385191832548
 23
93.229305922246496
 33
0.0
210
0.0
220
0.0
230
1.0
  0
SOLID
  5
6D4
  8
0
  6
CONTINUOUS
 10
461.77752741370023
 20
93.271774167515574
 30
0.0
 11
460.35144284148612
 21
93.271774167515574
 31
0.0
 12
460.33385191832548
 22
93.229305922246496
 32
0.0
 13
460.33385191832548
 23
93.229305922246496
 33
0.0
210
0.0
220
0.0
230
-1.0
  0
SOLID
  5
6D5
  8
0
  6
CONTINUOUS
 10
-464.2485571585176
 20
93.271774167515574
 30
0.0
 11
-464.2661480816783
 21
93.229305922246496
 31
0.0
 12
-462.9250000000024
 22
93.229305922246496
 32
0.0
 13
-462.9250000000024
 23
93.229305922246496
 33
0.0
210
0.0
220
0.0
230
1.0
  0
SOLID
  5
6D6
  8
0
  6
CONTINUOUS
 10
464.2485571585176
 20
93.271774167515574
 30
0.0
 11
462.8224725863036
 21
93.271774167515574
 31
0.0
 12
462.9250000000024
 22
93.229305922246496
 32
0.0
 13
462.9250000000024
 23
93.229305922246496
 33
0.0
210
0.0
220
0.0
230
-1.0
  0
SOLID
  5
6D7
  8
0
  6
CONTINUOUS
 10
-461.67500000000149
 20
93.229305922246496
 30
0.0
 11
-461.4161165235181
 21
93.030657643999078
 31
0.0
 12
-460.25156910733341
 22
93.030657643999078
 32
0.0
 13
-460.25156910733341
 23
93.030657643999078
 33
0.0
210
0.0
220
0.0
230
1.0
  0
SOLID
  5
6D8
  8
0
  6
CONTINUOUS
 10
461.67500000000149
 20
93.229305922246496
 30
0.0
 11
460.33385191832548
 21
93.229305922246496
 31
0.0
 12
460.25156910733341
 22
93.030657643999078
 32
0.0
 13
460.25156910733341
 23
93.030657643999078
 33
0.0
210
0.0
220
0.0
230
-1.0
  0
SOLID
  5
6D9
  8
0
  6
CONTINUOUS
 10
-464.2661480816783
 20
93.229305922246496
 30
0.0
 11
-464.34843089267042
 21
93.030657643999078
 31
0.0
 12
-463.18388347648579
 22
93.030657643999078
 32
0.0
 13
-463.18388347648579
 23
93.030657643999078
 33
0.0
210
0.0
220
0.0
230
1.0
  0
SOLID
  5
6DA
  8
0
  6
CONTINUOUS
 10
464.2661480816783
 20
93.229305922246496
 30
0.0
 11
462.9250000000024
 21
93.229305922246496
 31
0.0
 12
463.18388347648579
 22
93.030657643999078
 32
0.0
 13
463.18388347648579
 23
93.030657643999078
 33
0.0
210
0.0
220
0.0
230
-1.0
  0
SOLID
  5
6DB
  8
0
  6
CONTINUOUS
 10
-592.80889481785789
 20
95.560632621516689
 30
0.0
 11
-588.71176953181873
 21
92.977056469710377
 31
0.0
 12
-586.83697023565696
 22
92.977056469710377
 32
0.0
 13
-586.83697023565696
 23
92.977056469710377
 33
0.0
210
0.0
220
0.0
230
1.0
  0
SOLID
  5
6DC
  8
0
  6
CONTINUOUS
 10
592.80889481785789
 20
95.560632621516689
 30
0.0
 11
590.86923462221796
 21
95.560632621516689
 31
0.0
 12
586.83697023565696
 22
92.977056469710377
 32
0.0
 13
586.83697023565696
 23
92.977056469710377
 33
0.0
210
0.0
220
0.0
230
-1.0
  0
SOLID
  5
6DD
  8
0
  6
CONTINUOUS
 10
-461.4161165235181
 20
93.030657643999078
 30
0.0
 11
-461.2174682452706
 21
92.771774167515673
 31
0.0
 12
-460.14433606029962
 22
92.771774167515673
 32
0.0
 13
-460.14433606029962
 23
92.771774167515673
 33
0.0
210
0.0
220
0.0
230
1.0
  0
SOLID
  5
6DE
  8
0
  6
CONTINUOUS
 10
461.4161165235181
 20
93.030657643999078
 30
0.0
 11
460.25156910733341
 21
93.030657643999078
 31
0.0
 12
460.14433606029962
 22
92.771774167515673
 32
0.0
 13
460.14433606029962
 23
92.771774167515673
 33
0.0
210
0.0
220
0.0
230
-1.0
  0
SOLID
  5
6DF
  8
0
  6
CONTINUOUS
 10
-464.34843089267042
 20
93.030657643999078
 30
0.0
 11
-464.45566393970421
 21
92.771774167515673
 31
0.0
 12
-463.38253175473329
 22
92.771774167515673
 32
0.0
 13
-463.38253175473329
 23
92.771774167515673
 33
0.0
210
0.0
220
0.0
230
1.0
  0
SOLID
  5
6E0
  8
0
  6
CONTINUOUS
 10
464.34843089267042
 20
93.030657643999078
 30
0.0
 11
463.18388347648579
 21
93.030657643999078
 31
0.0
 12
463.38253175473329
 22
92.771774167515673
 32
0.0
 13
463.38253175473329
 23
92.771774167515673
 33
0.0
210
0.0
220
0.0
230
-1.0
  0
SOLID
  5
6E1
  8
0
  6
CONTINUOUS
 10
-461.2174682452706
 20
92.771774167515673
 30
0.0
 11
-461.1997990758216
 21
92.729117018996064
 31
0.0
 12
-460.12666689085069
 22
92.729117018996064
 32
0.0
 13
-460.12666689085069
 23
92.729117018996064
 33
0.0
  0
SOLID
  5
6E2
  8
0
  6
CONTINUOUS
 10
461.2174682452706
 20
92.771774167515673
 30
0.0
 11
460.14433606029962
 21
92.771774167515673
 31
0.0
 12
460.12666689085069
 22
92.729117018996064
 32
0.0
 13
460.12666689085069
 23
92.729117018996064
 33
0.0
210
0.0
220
0.0
230
-1.0
  0
SOLID
  5
6E3
  8
0
  6
CONTINUOUS
 10
-464.45566393970421
 20
92.771774167515673
 30
0.0
 11
-464.4733331091532
 21
92.729117018996064
 31
0.0
 12
-463.40020092418229
 22
92.729117018996064
 32
0.0
 13
-463.40020092418229
 23
92.729117018996064
 33
0.0
210
0.0
220
0.0
230
1.0
  0
SOLID
  5
6E4
  8
0
  6
CONTINUOUS
 10
464.45566393970421
 20
92.771774167515673
 30
0.0
 11
463.38253175473329
 21
92.771774167515673
 31
0.0
 12
463.40020092418229
 22
92.729117018996064
 32
0.0
 13
463.40020092418229
 23
92.729117018996064
 33
0.0
210
0.0
220
0.0
230
-1.0
  0
SOLID
  5
6E5
  8
0
  6
CONTINUOUS
 10
-461.1997990758216
 20
92.729117018996064
 30
0.0
 11
-461.09259271713972
 21
92.470297973893565
 31
0.0
 12
-460.09259271713972
 22
92.470297973893565
 32
0.0
 13
-460.09259271713972
 23
92.470297973893565
 33
0.0
210
0.0
220
0.0
230
1.0
  0
SOLID
  5
6E6
  8
0
  6
CONTINUOUS
 10
461.1997990758216
 20
92.729117018996064
 30
0.0
 11
460.12666689085069
 21
92.729117018996064
 31
0.0
 12
460.09259271713972
 22
92.470297973893565
 32
0.0
 13
460.09259271713972
 23
92.470297973893565
 33
0.0
210
0.0
220
0.0
230
-1.0
  0
SOLID
  5
6E7
  8
0
  6
CONTINUOUS
 10
-464.4733331091532
 20
92.729117018996064
 30
0.0
 11
-464.50740728286411
 21
92.470297973893565
 31
0.0
 12
-463.50740728286422
 22
92.470297973893565
 32
0.0
 13
-463.50740728286422
 23
92.470297973893565
 33
0.0
210
0.0
220
0.0
230
1.0
  0
SOLID
  5
6E8
  8
0
  6
CONTINUOUS
 10
464.4733331091532
 20
92.729117018996064
 30
0.0
 11
463.40020092418229
 21
92.729117018996064
 31
0.0
 12
463.50740728286422
 22
92.470297973893565
 32
0.0
 13
463.50740728286422
 23
92.470297973893565
 33
0.0
210
0.0
220
0.0
230
-1.0
  0
SOLID
  5
6E9
  8
0
  6
CONTINUOUS
 10
-461.09259271713972
 20
92.470297973893565
 30
0.0
 11
-461.05000000000098
 21
92.146774167515218
 31
0.0
 12
-460.05000000000098
 22
92.146774167515218
 32
0.0
 13
-460.05000000000098
 23
92.146774167515218
 33
0.0
210
0.0
220
0.0
230
1.0
  0
SOLID
  5
6EA
  8
0
  6
CONTINUOUS
 10
461.09259271713972
 20
92.470297973893565
 30
0.0
 11
460.09259271713972
 21
92.470297973893565
 31
0.0
 12
460.05000000000098
 22
92.146774167515218
 32
0.0
 13
460.05000000000098
 23
92.146774167515218
 33
0.0
210
0.0
220
0.0
230
-1.0
  0
SOLID
  5
6EB
  8
0
  6
CONTINUOUS
 10
-464.50740728286411
 20
92.470297973893565
 30
0.0
 11
-464.55000000000291
 21
92.146774167515218
 31
0.0
 12
-463.50999574841342
 22
92.146774167515218
 32
0.0
 13
-463.50999574841342
 23
92.146774167515218
 33
0.0
  0
SOLID
  5
6EC
  8
0
  6
CONTINUOUS
 10
464.50740728286411
 20
92.470297973893565
 30
0.0
 11
463.50740728286422
 21
92.470297973893565
 31
0.0
 12
463.50999574841342
 22
92.146774167515218
 32
0.0
 13
463.50999574841342
 23
92.146774167515218
 33
0.0
210
0.0
220
0.0
230
-1.0
  0
SOLID
  5
6ED
  8
0
  6
CONTINUOUS
 10
-588.71176953181873
 20
92.977056469710377
 30
0.0
 11
-587.37036066419375
 21
92.131187300899114
 31
0.0
 12
-585.6695161862516
 22
92.131187300899114
 32
0.0
 13
-585.6695161862516
 23
92.131187300899114
 33
0.0
210
0.0
220
0.0
230
1.0
  0
SOLID
  5
6EE
  8
0
  6
CONTINUOUS
 10
588.71176953181873
 20
92.977056469710377
 30
0.0
 11
586.83697023565696
 21
92.977056469710377
 31
0.0
 12
585.6695161862516
 22
92.131187300899114
 32
0.0
 13
585.6695161862516
 23
92.131187300899114
 33
0.0
210
0.0
220
0.0
230
-1.0
  0
SOLID
  5
6EF
  8
0
  6
CONTINUOUS
 10
-587.37036066419375
 20
92.131187300899114
 30
0.0
 11
-585.42109144315214
 21
90.718860420340974
 31
0.0
 12
-583.72024696520987
 22
90.718860420340974
 32
0.0
 13
-583.72024696520987
 23
90.718860420340974
 33
0.0
210
0.0
220
0.0
230
1.0
  0
SOLID
  5
6F0
  8
0
  6
CONTINUOUS
 10
587.37036066419375
 20
92.131187300899114
 30
0.0
 11
585.6695161862516
 21
92.131187300899114
 31
0.0
 12
583.72024696520987
 22
90.718860420340974
 32
0.0
 13
583.72024696520987
 23
90.718860420340974
 33
0.0
210
0.0
220
0.0
230
-1.0
  0
SOLID
  5
6F1
  8
0
  6
CONTINUOUS
 10
-585.42109144315214
 20
90.718860420340974
 30
0.0
 11
-584.3566695679765
 21
89.947642360599914
 31
0.0
 12
-582.89544810790164
 22
89.947642360599914
 32
0.0
 13
-582.89544810790164
 23
89.947642360599914
 33
0.0
210
0.0
220
0.0
230
1.0
  0
SOLID
  5
6F2
  8
0
  6
CONTINUOUS
 10
585.42109144315214
 20
90.718860420340974
 30
0.0
 11
583.72024696520987
 21
90.718860420340974
 31
0.0
 12
582.89544810790164
 22
89.947642360599914
 32
0.0
 13
582.89544810790164
 23
89.947642360599914
 33
0.0
210
0.0
220
0.0
230
-1.0
  0
SOLID
  5
6F3
  8
0
  6
CONTINUOUS
 10
-584.3566695679765
 20
89.947642360599914
 30
0.0
 11
-582.41426267394286
 21
88.131418607656457
 31
0.0
 12
-580.95304121386823
 22
88.131418607656457
 32
0.0
 13
-580.95304121386823
 23
88.131418607656457
 33
0.0
  0
SOLID
  5
6F4
  8
0
  6
CONTINUOUS
 10
584.3566695679765
 20
89.947642360599914
 30
0.0
 11
582.89544810790164
 21
89.947642360599914
 31
0.0
 12
580.95304121386823
 22
88.131418607656457
 32
0.0
 13
580.95304121386823
 23
88.131418607656457
 33
0.0
210
0.0
220
0.0
230
-1.0
  0
SOLID
  5
6F5
  8
0
  6
CONTINUOUS
 10
-582.41426267394286
 20
88.131418607656457
 30
0.0
 11
-581.68094169271194
 21
87.445735814450373
 31
0.0
 12
-580.38524380978367
 22
87.445735814450373
 32
0.0
 13
-580.38524380978367
 23
87.445735814450373
 33
0.0
  0
SOLID
  5
6F6
  8
0
  6
CONTINUOUS
 10
582.41426267394286
 20
88.131418607656457
 30
0.0
 11
580.95304121386823
 21
88.131418607656457
 31
0.0
 12
580.38524380978367
 22
87.445735814450373
 32
0.0
 13
580.38524380978367
 23
87.445735814450373
 33
0.0
210
0.0
220
0.0
230
-1.0
  0
SOLID
  5
6F7
  8
0
  6
CONTINUOUS
 10
-464.55000000000291
 20
92.146774167515218
 30
0.0
 11
-464.55000000000291
 21
87.146774167515147
 31
0.0
 12
-463.5500000000028
 22
87.146774167515147
 32
0.0
 13
-463.5500000000028
 23
87.146774167515147
 33
0.0
210
0.0
220
0.0
230
1.0
  0
SOLID
  5
6F8
  8
0
  6
CONTINUOUS
 10
464.55000000000291
 20
92.146774167515218
 30
0.0
 11
463.50999574841342
 21
92.146774167515218
 31
0.0
 12
463.5500000000028
 22
87.146774167515147
 32
0.0
 13
463.5500000000028
 23
87.146774167515147
 33
0.0
210
0.0
220
0.0
230
-1.0
  0
SOLID
  5
6F9
  8
0
  6
CONTINUOUS
 10
-581.68094169271194
 20
87.445735814450373
 30
0.0
 11
-579.81324934043994
 21
85.190275504588087
 31
0.0
 12
-578.51755145751144
 22
85.190275504588087
 32
0.0
 13
-578.51755145751144
 23
85.190275504588087
 33
0.0
210
0.0
220
0.0
230
1.0
  0
SOLID
  5
6FA
  8
0
  6
CONTINUOUS
 10
581.68094169271194
 20
87.445735814450373
 30
0.0
 11
580.38524380978367
 21
87.445735814450373
 31
0.0
 12
578.51755145751144
 22
85.190275504588087
 32
0.0
 13
578.51755145751144
 23
85.190275504588087
 33
0.0
210
0.0
220
0.0
230
-1.0
  0
SOLID
  5
6FB
  8
0
  6
CONTINUOUS
 10
-579.81324934043994
 20
85.190275504588087
 30
0.0
 11
-579.32596399441684
 21
84.601820582557821
 31
0.0
 12
-578.14301842901546
 22
84.601820582557821
 32
0.0
 13
-578.14301842901546
 23
84.601820582557821
 33
0.0
210
0.0
220
0.0
230
1.0
  0
SOLID
  5
6FC
  8
0
  6
CONTINUOUS
 10
579.81324934043994
 20
85.190275504588087
 30
0.0
 11
578.51755145751144
 21
85.190275504588087
 31
0.0
 12
578.14301842901546
 22
84.601820582557821
 32
0.0
 13
578.14301842901546
 23
84.601820582557821
 33
0.0
210
0.0
220
0.0
230
-1.0
  0
SOLID
  5
6FD
  8
0
  6
CONTINUOUS
 10
-461.05000000000098
 20
92.146774167515218
 30
0.0
 11
-461.05000000000098
 21
83.163337687424075
 31
0.0
 12
-460.05000000000098
 22
83.163337687424075
 32
0.0
 13
-460.05000000000098
 23
83.163337687424075
 33
0.0
210
0.0
220
0.0
230
1.0
  0
SOLID
  5
6FE
  8
0
  6
CONTINUOUS
 10
461.05000000000098
 20
92.146774167515218
 30
0.0
 11
460.05000000000098
 21
92.146774167515218
 31
0.0
 12
460.05000000000098
 22
83.163337687424075
 32
0.0
 13
460.05000000000098
 23
83.163337687424075
 33
0.0
210
0.0
220
0.0
230
-1.0
  0
SOLID
  5
6FF
  8
0
  6
CONTINUOUS
 10
-579.32596399441684
 20
84.601820582557821
 30
0.0
 11
-577.6501278339008
 21
81.968797692341909
 31
0.0
 12
-576.46718226849953
 22
81.968797692341909
 32
0.0
 13
-576.46718226849953
 23
81.968797692341909
 33
0.0
210
0.0
220
0.0
230
1.0
  0
SOLID
  5
700
  8
0
  6
CONTINUOUS
 10
579.32596399441684
 20
84.601820582557821
 30
0.0
 11
578.14301842901546
 21
84.601820582557821
 31
0.0
 12
576.46718226849953
 22
81.968797692341909
 32
0.0
 13
576.46718226849953
 23
81.968797692341909
 33
0.0
210
0.0
220
0.0
230
-1.0
  0
SOLID
  5
701
  8
0
  6
CONTINUOUS
 10
-577.6501278339008
 20
81.968797692341909
 30
0.0
 11
-577.34337560504139
 21
81.486837904600719
 31
0.0
 12
-576.24059447058096
 22
81.486837904600719
 32
0.0
 13
-576.24059447058096
 23
81.486837904600719
 33
0.0
210
0.0
220
0.0
230
1.0
  0
SOLID
  5
702
  8
0
  6
CONTINUOUS
 10
577.6501278339008
 20
81.968797692341909
 30
0.0
 11
576.46718226849953
 21
81.968797692341909
 31
0.0
 12
576.24059447058096
 22
81.486837904600719
 32
0.0
 13
576.24059447058096
 23
81.486837904600719
 33
0.0
210
0.0
220
0.0
230
-1.0
  0
SOLID
  5
703
  8
0
  6
CONTINUOUS
 10
-577.34337560504139
 20
81.486837904600719
 30
0.0
 11
-576.10666276910229
 21
78.856308540788959
 31
0.0
 12
-575.00388163464186
 22
78.856308540788959
 32
0.0
 13
-575.00388163464186
 23
78.856308540788959
 33
0.0
  0
SOLID
  5
704
  8
0
  6
CONTINUOUS
 10
577.34337560504139
 20
81.486837904600719
 30
0.0
 11
576.24059447058096
 21
81.486837904600719
 31
0.0
 12
575.00388163464186
 22
78.856308540788959
 32
0.0
 13
575.00388163464186
 23
78.856308540788959
 33
0.0
210
0.0
220
0.0
230
-1.0
  0
SOLID
  5
705
  8
0
  6
CONTINUOUS
 10
-576.10666276910229
 20
78.856308540788959
 30
0.0
 11
-575.78481565653658
 21
78.1717290202578
 31
0.0
 12
-574.77321098985476
 22
78.1717290202578
 32
0.0
 13
-574.77321098985476
 23
78.1717290202578
 33
0.0
210
0.0
220
0.0
230
1.0
  0
SOLID
  5
706
  8
0
  6
CONTINUOUS
 10
576.10666276910229
 20
78.856308540788959
 30
0.0
 11
575.00388163464186
 21
78.856308540788959
 31
0.0
 12
574.77321098985476
 22
78.1717290202578
 32
0.0
 13
574.77321098985476
 23
78.1717290202578
 33
0.0
210
0.0
220
0.0
230
-1.0
  0
SOLID
  5
707
  8
0
  6
CONTINUOUS
 10
-575.78481565653658
 20
78.1717290202578
 30
0.0
 11
-574.71366508972505
 21
74.880482156865511
 31
0.0
 12
-573.6642177854668
 22
74.880482156865511
 32
0.0
 13
-573.6642177854668
 23
74.880482156865511
 33
0.0
210
0.0
220
0.0
230
1.0
  0
SOLID
  5
708
  8
0
  6
CONTINUOUS
 10
575.78481565653658
 20
78.1717290202578
 30
0.0
 11
574.77321098985476
 21
78.1717290202578
 31
0.0
 12
573.6642177854668
 22
74.880482156865511
 32
0.0
 13
573.6642177854668
 23
74.880482156865511
 33
0.0
210
0.0
220
0.0
230
-1.0
  0
SOLID
  5
709
  8
0
  6
CONTINUOUS
 10
-574.71366508972505
 20
74.880482156865511
 30
0.0
 11
-574.63307110491894
 21
74.632846849636095
 31
0.0
 12
-573.60092312139795
 22
74.632846849636095
 32
0.0
 13
-573.60092312139795
 23
74.632846849636095
 33
0.0
210
0.0
220
0.0
230
1.0
  0
SOLID
  5
70A
  8
0
  6
CONTINUOUS
 10
574.71366508972505
 20
74.880482156865511
 30
0.0
 11
573.6642177854668
 21
74.880482156865511
 31
0.0
 12
573.60092312139795
 22
74.632846849636095
 32
0.0
 13
573.60092312139795
 23
74.632846849636095
 33
0.0
210
0.0
220
0.0
230
-1.0
  0
SOLID
  5
70B
  8
0
  6
CONTINUOUS
 10
-574.63307110491894
 20
74.632846849636095
 30
0.0
 11
-569.34373791779706
 21
53.938754099449312
 31
0.0
 12
-568.31158993427607
 22
53.938754099449312
 32
0.0
 13
-568.31158993427607
 23
53.938754099449312
 33
0.0
210
0.0
220
0.0
230
1.0
  0
SOLID
  5
70C
  8
0
  6
CONTINUOUS
 10
574.63307110491894
 20
74.632846849636095
 30
0.0
 11
573.60092312139795
 21
74.632846849636095
 31
0.0
 12
568.31158993427607
 22
53.938754099449312
 32
0.0
 13
568.31158993427607
 23
53.938754099449312
 33
0.0
210
0.0
220
0.0
230
-1.0
  0
SOLID
  5
70D
  8
0
  6
CONTINUOUS
 10
-569.34373791779706
 20
53.938754099449312
 30
0.0
 11
-569.18550125762488
 21
53.319665831375069
 31
0.0
 12
-568.0883585590708
 22
53.319665831375069
 32
0.0
 13
-568.0883585590708
 23
53.319665831375069
 33
0.0
210
0.0
220
0.0
230
1.0
  0
SOLID
  5
70E
  8
0
  6
CONTINUOUS
 10
569.34373791779706
 20
53.938754099449312
 30
0.0
 11
568.31158993427607
 21
53.938754099449312
 31
0.0
 12
568.0883585590708
 22
53.319665831375069
 32
0.0
 13
568.0883585590708
 23
53.319665831375069
 33
0.0
210
0.0
220
0.0
230
-1.0
  0
SOLID
  5
70F
  8
0
  6
CONTINUOUS
 10
-569.18550125762488
 20
53.319665831375069
 30
0.0
 11
-567.18912495653512
 21
47.886544773823132
 31
0.0
 12
-566.12927913876945
 22
47.886544773823132
 32
0.0
 13
-566.12927913876945
 23
47.886544773823132
 33
0.0
210
0.0
220
0.0
230
1.0
  0
SOLID
  5
710
  8
0
  6
CONTINUOUS
 10
569.18550125762488
 20
53.319665831375069
 30
0.0
 11
568.0883585590708
 21
53.319665831375069
 31
0.0
 12
566.12927913876945
 22
47.886544773823132
 32
0.0
 13
566.12927913876945
 23
47.886544773823132
 33
0.0
210
0.0
220
0.0
230
-1.0
  0
SOLID
  5
711
  8
0
  6
CONTINUOUS
 10
-567.18912495653512
 20
47.886544773823132
 30
0.0
 11
-567.02796880109884
 21
47.447959672819451
 31
0.0
 12
-565.85679722226882
 22
47.447959672819451
 32
0.0
 13
-565.85679722226882
 23
47.447959672819451
 33
0.0
  0
SOLID
  5
712
  8
0
  6
CONTINUOUS
 10
567.18912495653512
 20
47.886544773823132
 30
0.0
 11
566.12927913876945
 21
47.886544773823132
 31
0.0
 12
565.85679722226882
 22
47.447959672819451
 32
0.0
 13
565.85679722226882
 23
47.447959672819451
 33
0.0
210
0.0
220
0.0
230
-1.0
  0
SOLID
  5
713
  8
0
  6
CONTINUOUS
 10
-567.02796880109884
 20
47.447959672819451
 30
0.0
 11
-564.10661818503297
 21
42.74577293151718
 31
0.0
 12
-562.93544660620285
 22
42.74577293151718
 32
0.0
 13
-562.93544660620285
 23
42.74577293151718
 33
0.0
  0
SOLID
  5
714
  8
0
  6
CONTINUOUS
 10
567.02796880109884
 20
47.447959672819451
 30
0.0
 11
565.85679722226882
 21
47.447959672819451
 31
0.0
 12
562.93544660620285
 22
42.74577293151718
 32
0.0
 13
562.93544660620285
 23
42.74577293151718
 33
0.0
210
0.0
220
0.0
230
-1.0
  0
SOLID
  5
715
  8
0
  6
CONTINUOUS
 10
-564.10661818503297
 20
42.74577293151718
 30
0.0
 11
-563.72678055315191
 21
42.134388776990512
 31
0.0
 12
-562.35470349060256
 22
42.134388776990512
 32
0.0
 13
-562.35470349060256
 23
42.134388776990512
 33
0.0
210
0.0
220
0.0
230
1.0
  0
SOLID
  5
716
  8
0
  6
CONTINUOUS
 10
564.10661818503297
 20
42.74577293151718
 30
0.0
 11
562.93544660620285
 21
42.74577293151718
 31
0.0
 12
562.35470349060256
 22
42.134388776990512
 32
0.0
 13
562.35470349060256
 23
42.134388776990512
 33
0.0
210
0.0
220
0.0
230
-1.0
  0
SOLID
  5
717
  8
0
  6
CONTINUOUS
 10
-563.72678055315191
 20
42.134388776990512
 30
0.0
 11
-560.13940340392105
 21
38.35773523356643
 31
0.0
 12
-558.76732634137215
 22
38.35773523356643
 32
0.0
 13
-558.76732634137215
 23
38.35773523356643
 33
0.0
210
0.0
220
0.0
230
1.0
  0
SOLID
  5
718
  8
0
  6
CONTINUOUS
 10
563.72678055315191
 20
42.134388776990512
 30
0.0
 11
562.35470349060256
 21
42.134388776990512
 31
0.0
 12
558.76732634137215
 22
38.35773523356643
 32
0.0
 13
558.76732634137215
 23
38.35773523356643
 33
0.0
210
0.0
220
0.0
230
-1.0
  0
SOLID
  5
719
  8
0
  6
CONTINUOUS
 10
-560.13940340392105
 20
38.35773523356643
 30
0.0
 11
-559.41855540546965
 21
37.598854013562629
 31
0.0
 12
-557.88299740425259
 22
37.598854013562629
 32
0.0
 13
-557.88299740425259
 23
37.598854013562629
 33
0.0
210
0.0
220
0.0
230
1.0
  0
SOLID
  5
71A
  8
0
  6
CONTINUOUS
 10
560.13940340392105
 20
38.35773523356643
 30
0.0
 11
558.76732634137215
 21
38.35773523356643
 31
0.0
 12
557.88299740425259
 22
37.598854013562629
 32
0.0
 13
557.88299740425259
 23
37.598854013562629
 33
0.0
210
0.0
220
0.0
230
-1.0
  0
SOLID
  5
71B
  8
0
  6
CONTINUOUS
 10
-559.41855540546965
 20
37.598854013562629
 30
0.0
 11
-556.40982853723301
 21
35.016934299544523
 31
0.0
 12
-554.87427053601596
 22
35.016934299544523
 32
0.0
 13
-554.87427053601596
 23
35.016934299544523
 33
0.0
210
0.0
220
0.0
230
1.0
  0
SOLID
  5
71C
  8
0
  6
CONTINUOUS
 10
559.41855540546965
 20
37.598854013562629
 30
0.0
 11
557.88299740425259
 21
37.598854013562629
 31
0.0
 12
554.87427053601596
 22
35.016934299544523
 32
0.0
 13
554.87427053601596
 23
35.016934299544523
 33
0.0
210
0.0
220
0.0
230
-1.0
  0
SOLID
  5
71D
  8
0
  6
CONTINUOUS
 10
-556.40982853723301
 20
35.016934299544523
 30
0.0
 11
-555.52549960011333
 21
34.258053079540574
 31
0.0
 12
-554.08631069543935
 22
34.258053079540574
 32
0.0
 13
-554.08631069543935
 23
34.258053079540574
 33
0.0
210
0.0
220
0.0
230
1.0
  0
SOLID
  5
71E
  8
0
  6
CONTINUOUS
 10
556.40982853723301
 20
35.016934299544523
 30
0.0
 11
554.87427053601596
 21
35.016934299544523
 31
0.0
 12
554.08631069543935
 22
34.258053079540574
 32
0.0
 13
554.08631069543935
 23
34.258053079540574
 33
0.0
210
0.0
220
0.0
230
-1.0
  0
SOLID
  5
71F
  8
0
  6
CONTINUOUS
 10
-555.52549960011333
 20
34.258053079540574
 30
0.0
 11
-554.89356305433239
 21
33.646127752762553
 31
0.0
 12
-553.45093776720898
 22
33.646127752762553
 32
0.0
 13
-553.45093776720898
 23
33.646127752762553
 33
0.0
210
0.0
220
0.0
230
1.0
  0
SOLID
  5
720
  8
0
  6
CONTINUOUS
 10
555.52549960011333
 20
34.258053079540574
 30
0.0
 11
554.08631069543935
 21
34.258053079540574
 31
0.0
 12
553.45093776720898
 22
33.646127752762553
 32
0.0
 13
553.45093776720898
 23
33.646127752762553
 33
0.0
210
0.0
220
0.0
230
-1.0
  0
SOLID
  5
721
  8
0
  6
CONTINUOUS
 10
-554.89356305433239
 20
33.646127752762553
 30
0.0
 11
-553.90064184144592
 21
32.684648880054567
 31
0.0
 12
-552.63399644702065
 22
32.684648880054567
 32
0.0
 13
-552.63399644702065
 23
32.684648880054567
 33
0.0
210
0.0
220
0.0
230
1.0
  0
SOLID
  5
722
  8
0
  6
CONTINUOUS
 10
554.89356305433239
 20
33.646127752762553
 30
0.0
 11
553.45093776720898
 21
33.646127752762553
 31
0.0
 12
552.63399644702065
 22
32.684648880054567
 32
0.0
 13
552.63399644702065
 23
32.684648880054567
 33
0.0
210
0.0
220
0.0
230
-1.0
  0
SOLID
  5
723
  8
0
  6
CONTINUOUS
 10
-553.90064184144592
 20
32.684648880054567
 30
0.0
 11
-553.01679938560005
 21
31.612444883402311
 31
0.0
 12
-551.72297513038041
 22
31.612444883402311
 32
0.0
 13
-551.72297513038041
 23
31.612444883402311
 33
0.0
210
0.0
220
0.0
230
1.0
  0
SOLID
  5
724
  8
0
  6
CONTINUOUS
 10
553.90064184144592
 20
32.684648880054567
 30
0.0
 11
552.63399644702065
 21
32.684648880054567
 31
0.0
 12
551.72297513038041
 22
31.612444883402311
 32
0.0
 13
551.72297513038041
 23
31.612444883402311
 33
0.0
210
0.0
220
0.0
230
-1.0
  0
SOLID
  5
725
  8
0
  6
CONTINUOUS
 10
-553.01679938560005
 20
31.612444883402311
 30
0.0
 11
-552.52982372068197
 21
31.021686597528959
 31
0.0
 12
-551.29043381281099
 22
31.021686597528959
 32
0.0
 13
-551.29043381281099
 23
31.021686597528959
 33
0.0
210
0.0
220
0.0
230
1.0
  0
SOLID
  5
726
  8
0
  6
CONTINUOUS
 10
553.01679938560005
 20
31.612444883402311
 30
0.0
 11
551.72297513038041
 21
31.612444883402311
 31
0.0
 12
551.29043381281099
 22
31.021686597528959
 32
0.0
 13
551.29043381281099
 23
31.021686597528959
 33
0.0
210
0.0
220
0.0
230
-1.0
  0
SOLID
  5
727
  8
0
  6
CONTINUOUS
 10
-552.52982372068197
 20
31.021686597528959
 30
0.0
 11
-552.25099161407979
 21
30.618155930787871
 31
0.0
 12
-550.99497678673845
 22
30.618155930787871
 32
0.0
 13
-550.99497678673845
 23
30.618155930787871
 33
0.0
210
0.0
220
0.0
230
1.0
  0
SOLID
  5
728
  8
0
  6
CONTINUOUS
 10
552.52982372068197
 20
31.021686597528959
 30
0.0
 11
551.29043381281099
 21
31.021686597528959
 31
0.0
 12
550.99497678673845
 22
30.618155930787871
 32
0.0
 13
550.99497678673845
 23
30.618155930787871
 33
0.0
210
0.0
220
0.0
230
-1.0
  0
SOLID
  5
729
  8
0
  6
CONTINUOUS
 10
-552.25099161407979
 20
30.618155930787871
 30
0.0
 11
-551.89517232271919
 21
30.103208073341651
 31
0.0
 12
-550.71289155138277
 22
30.103208073341651
 32
0.0
 13
-550.71289155138277
 23
30.103208073341651
 33
0.0
210
0.0
220
0.0
230
1.0
  0
SOLID
  5
72A
  8
0
  6
CONTINUOUS
 10
552.25099161407979
 20
30.618155930787871
 30
0.0
 11
550.99497678673845
 21
30.618155930787871
 31
0.0
 12
550.71289155138277
 22
30.103208073341651
 32
0.0
 13
550.71289155138277
 23
30.103208073341651
 33
0.0
210
0.0
220
0.0
230
-1.0
  0
SOLID
  5
72B
  8
0
  6
CONTINUOUS
 10
-551.89517232271919
 20
30.103208073341651
 30
0.0
 11
-551.64511135739815
 21
29.74131550188881
 31
0.0
 12
-550.62454257538479
 22
29.74131550188881
 32
0.0
 13
-550.62454257538479
 23
29.74131550188881
 33
0.0
210
0.0
220
0.0
230
1.0
  0
SOLID
  5
72C
  8
0
  6
CONTINUOUS
 10
551.89517232271919
 20
30.103208073341651
 30
0.0
 11
550.71289155138277
 21
30.103208073341651
 31
0.0
 12
550.62454257538479
 22
29.74131550188881
 32
0.0
 13
550.62454257538479
 23
29.74131550188881
 33
0.0
210
0.0
220
0.0
230
-1.0
  0
SOLID
  5
72D
  8
0
  6
CONTINUOUS
 10
-551.64511135739815
 20
29.74131550188881
 30
0.0
 11
-551.62432025513408
 21
29.656151578066378
 31
0.0
 12
-550.60375147312084
 22
29.656151578066378
 32
0.0
 13
-550.60375147312084
 23
29.656151578066378
 33
0.0
  0
SOLID
  5
72E
  8
0
  6
CONTINUOUS
 10
551.64511135739815
 20
29.74131550188881
 30
0.0
 11
550.62454257538479
 21
29.74131550188881
 31
0.0
 12
550.60375147312084
 22
29.656151578066378
 32
0.0
 13
550.60375147312084
 23
29.656151578066378
 33
0.0
210
0.0
220
0.0
230
-1.0
  0
SOLID
  5
72F
  8
0
  6
CONTINUOUS
 10
-551.62432025513408
 20
29.656151578066378
 30
0.0
 11
-551.56774958541087
 21
29.424428404099391
 31
0.0
 12
-550.59819097766024
 22
29.424428404099391
 32
0.0
 13
-550.59819097766024
 23
29.424428404099391
 33
0.0
  0
SOLID
  5
730
  8
0
  6
CONTINUOUS
 10
551.62432025513408
 20
29.656151578066378
 30
0.0
 11
550.60375147312084
 21
29.656151578066378
 31
0.0
 12
550.59819097766024
 22
29.424428404099391
 32
0.0
 13
550.59819097766024
 23
29.424428404099391
 33
0.0
210
0.0
220
0.0
230
-1.0
  0
SOLID
  5
731
  8
0
  6
CONTINUOUS
 10
-551.56774958541087
 20
29.424428404099391
 30
0.0
 11
-551.57500820101677
 21
29.098315557051119
 31
0.0
 12
-550.59036548064762
 22
29.098315557051119
 32
0.0
 13
-550.59036548064762
 23
29.098315557051119
 33
0.0
  0
SOLID
  5
732
  8
0
  6
CONTINUOUS
 10
551.56774958541087
 20
29.424428404099391
 30
0.0
 11
550.59819097766024
 21
29.424428404099391
 31
0.0
 12
550.59036548064762
 22
29.098315557051119
 32
0.0
 13
550.59036548064762
 23
29.098315557051119
 33
0.0
210
0.0
220
0.0
230
-1.0
  0
SOLID
  5
733
  8
0
  6
CONTINUOUS
 10
-551.57500820101677
 20
29.098315557051119
 30
0.0
 11
-551.59854199383449
 21
28.945808172633509
 31
0.0
 12
-550.58670586989638
 22
28.945808172633509
 32
0.0
 13
-550.58670586989638
 23
28.945808172633509
 33
0.0
210
0.0
220
0.0
230
1.0
  0
SOLID
  5
734
  8
0
  6
CONTINUOUS
 10
551.57500820101677
 20
29.098315557051119
 30
0.0
 11
550.59036548064762
 21
29.098315557051119
 31
0.0
 12
550.58670586989638
 22
28.945808172633509
 32
0.0
 13
550.58670586989638
 23
28.945808172633509
 33
0.0
210
0.0
220
0.0
230
-1.0
  0
SOLID
  5
735
  8
0
  6
CONTINUOUS
 10
-551.59854199383449
 20
28.945808172633509
 30
0.0
 11
-552.04990586115457
 21
26.02080907203587
 31
0.0
 12
-551.03806973721646
 22
26.02080907203587
 32
0.0
 13
-551.03806973721646
 23
26.02080907203587
 33
0.0
210
0.0
220
0.0
230
1.0
  0
SOLID
  5
736
  8
0
  6
CONTINUOUS
 10
551.59854199383449
 20
28.945808172633509
 30
0.0
 11
550.58670586989638
 21
28.945808172633509
 31
0.0
 12
551.03806973721646
 22
26.02080907203587
 32
0.0
 13
551.03806973721646
 23
26.02080907203587
 33
0.0
210
0.0
220
0.0
230
-1.0
  0
SOLID
  5
737
  8
0
  6
CONTINUOUS
 10
-552.04990586115457
 20
26.02080907203587
 30
0.0
 11
-552.05695908776886
 21
25.868301687618271
 31
0.0
 12
-551.06160353003418
 22
25.868301687618271
 32
0.0
 13
-551.06160353003418
 23
25.868301687618271
 33
0.0
  0
SOLID
  5
738
  8
0
  6
CONTINUOUS
 10
552.04990586115457
 20
26.02080907203587
 30
0.0
 11
551.03806973721646
 21
26.02080907203587
 31
0.0
 12
551.06160353003418
 22
25.868301687618271
 32
0.0
 13
551.06160353003418
 23
25.868301687618271
 33
0.0
210
0.0
220
0.0
230
-1.0
  0
SOLID
  5
739
  8
0
  6
CONTINUOUS
 10
-552.05695908776886
 20
25.868301687618271
 30
0.0
 11
-552.10378257093748
 21
24.855867614842811
 31
0.0
 12
-551.1084270132028
 22
24.855867614842811
 32
0.0
 13
-551.1084270132028
 23
24.855867614842811
 33
0.0
210
0.0
220
0.0
230
1.0
  0
SOLID
  5
73A
  8
0
  6
CONTINUOUS
 10
552.05695908776886
 20
25.868301687618271
 30
0.0
 11
551.06160353003418
 21
25.868301687618271
 31
0.0
 12
551.1084270132028
 22
24.855867614842811
 32
0.0
 13
551.1084270132028
 23
24.855867614842811
 33
0.0
210
0.0
220
0.0
230
-1.0
  0
SOLID
  5
73B
  8
0
  6
CONTINUOUS
 10
-552.10378257093748
 20
24.855867614842811
 30
0.0
 11
-552.10658691972696
 21
24.795230983939081
 31
0.0
 12
-551.09817037197604
 22
24.795230983939081
 32
0.0
 13
-551.09817037197604
 23
24.795230983939081
 33
0.0
210
0.0
220
0.0
230
1.0
  0
SOLID
  5
73C
  8
0
  6
CONTINUOUS
 10
552.10378257093748
 20
24.855867614842811
 30
0.0
 11
551.1084270132028
 21
24.855867614842811
 31
0.0
 12
551.09817037197604
 22
24.795230983939081
 32
0.0
 13
551.09817037197604
 23
24.795230983939081
 33
0.0
210
0.0
220
0.0
230
-1.0
  0
SOLID
  5
73D
  8
0
  6
CONTINUOUS
 10
-552.10658691972696
 20
24.795230983939081
 30
0.0
 11
-551.9478091455278
 21
23.85654656698355
 31
0.0
 12
-550.93939259777676
 22
23.85654656698355
 32
0.0
 13
-550.93939259777676
 23
23.85654656698355
 33
0.0
210
0.0
220
0.0
230
1.0
  0
SOLID
  5
73E
  8
0
  6
CONTINUOUS
 10
552.10658691972696
 20
24.795230983939081
 30
0.0
 11
551.09817037197604
 21
24.795230983939081
 31
0.0
 12
550.93939259777676
 22
23.85654656698355
 32
0.0
 13
550.93939259777676
 23
23.85654656698355
 33
0.0
210
0.0
220
0.0
230
-1.0
  0
SOLID
  5
73F
  8
0
  6
CONTINUOUS
 10
-551.9478091455278
 20
23.85654656698355
 30
0.0
 11
-551.90196631157971
 21
23.58552655758324
 31
0.0
 12
-550.83072183541071
 22
23.58552655758324
 32
0.0
 13
-550.83072183541071
 23
23.58552655758324
 33
0.0
210
0.0
220
0.0
230
1.0
  0
SOLID
  5
740
  8
0
  6
CONTINUOUS
 10
551.9478091455278
 20
23.85654656698355
 30
0.0
 11
550.93939259777676
 21
23.85654656698355
 31
0.0
 12
550.83072183541071
 22
23.58552655758324
 32
0.0
 13
550.83072183541071
 23
23.58552655758324
 33
0.0
210
0.0
220
0.0
230
-1.0
  0
SOLID
  5
741
  8
0
  6
CONTINUOUS
 10
-551.90196631157971
 20
23.58552655758324
 30
0.0
 11
-551.63344048155261
 21
22.91583517607782
 31
0.0
 12
-550.56219600538338
 22
22.91583517607782
 32
0.0
 13
-550.56219600538338
 23
22.91583517607782
 33
0.0
210
0.0
220
0.0
230
1.0
  0
SOLID
  5
742
  8
0
  6
CONTINUOUS
 10
551.90196631157971
 20
23.58552655758324
 30
0.0
 11
550.83072183541071
 21
23.58552655758324
 31
0.0
 12
550.56219600538338
 22
22.91583517607782
 32
0.0
 13
550.56219600538338
 23
22.91583517607782
 33
0.0
210
0.0
220
0.0
230
-1.0
  0
SOLID
  5
743
  8
0
  6
CONTINUOUS
 10
-551.63344048155261
 20
22.91583517607782
 30
0.0
 11
-551.44535991026146
 21
22.446770663328781
 31
0.0
 12
-550.3130672582671
 22
22.446770663328781
 32
0.0
 13
-550.3130672582671
 23
22.446770663328781
 33
0.0
  0
SOLID
  5
744
  8
0
  6
CONTINUOUS
 10
551.63344048155261
 20
22.91583517607782
 30
0.0
 11
550.56219600538338
 21
22.91583517607782
 31
0.0
 12
550.3130672582671
 22
22.446770663328781
 32
0.0
 13
550.3130672582671
 23
22.446770663328781
 33
0.0
210
0.0
220
0.0
230
-1.0
  0
SOLID
  5
745
  8
0
  6
CONTINUOUS
 10
-461.05000000000098
 20
82.163337687424175
 30
0.0
 11
-461.05000000000098
 21
20.646774167514959
 31
0.0
 12
-460.05000000000098
 22
20.646774167514959
 32
0.0
 13
-460.05000000000098
 23
20.646774167514959
 33
0.0
210
0.0
220
0.0
230
1.0
  0
SOLID
  5
746
  8
0
  6
CONTINUOUS
 10
461.05000000000098
 20
82.163337687424175
 30
0.0
 11
460.05000000000098
 21
82.163337687424175
 31
0.0
 12
460.05000000000098
 22
20.646774167514959
 32
0.0
 13
460.05000000000098
 23
20.646774167514959
 33
0.0
210
0.0
220
0.0
230
-1.0
  0
SOLID
  5
747
  8
0
  6
CONTINUOUS
 10
-461.05000000000098
 20
20.646774167514959
 30
0.0
 11
-461.10962980399512
 21
20.193840838585569
 31
0.0
 12
-460.10962980399518
 22
20.193840838585569
 32
0.0
 13
-460.10962980399518
 23
20.193840838585569
 33
0.0
210
0.0
220
0.0
230
1.0
  0
SOLID
  5
748
  8
0
  6
CONTINUOUS
 10
461.05000000000098
 20
20.646774167514959
 30
0.0
 11
460.05000000000098
 21
20.646774167514959
 31
0.0
 12
460.10962980399518
 22
20.193840838585569
 32
0.0
 13
460.10962980399518
 23
20.193840838585569
 33
0.0
210
0.0
220
0.0
230
-1.0
  0
SOLID
  5
749
  8
0
  6
CONTINUOUS
 10
-551.44535991026146
 20
22.446770663328781
 30
0.0
 11
-550.21395194822708
 21
20.128251494452051
 31
0.0
 12
-549.08165929623283
 22
20.128251494452051
 32
0.0
 13
-549.08165929623283
 23
20.128251494452051
 33
0.0
210
0.0
220
0.0
230
1.0
  0
SOLID
  5
74A
  8
0
  6
CONTINUOUS
 10
551.44535991026146
 20
22.446770663328781
 30
0.0
 11
550.3130672582671
 21
22.446770663328781
 31
0.0
 12
549.08165929623283
 22
20.128251494452051
 32
0.0
 13
549.08165929623283
 23
20.128251494452051
 33
0.0
210
0.0
220
0.0
230
-1.0
  0
SOLID
  5
74B
  8
0
  6
CONTINUOUS
 10
-461.10962980399512
 20
20.193840838585569
 30
0.0
 11
-461.216836162677
 21
19.935021793483092
 31
0.0
 12
-460.14370397770608
 22
19.935021793483092
 32
0.0
 13
-460.14370397770608
 23
19.935021793483092
 33
0.0
210
0.0
220
0.0
230
1.0
  0
SOLID
  5
74C
  8
0
  6
CONTINUOUS
 10
461.10962980399512
 20
20.193840838585569
 30
0.0
 11
460.10962980399518
 21
20.193840838585569
 31
0.0
 12
460.14370397770608
 22
19.935021793483092
 32
0.0
 13
460.14370397770608
 23
19.935021793483092
 33
0.0
210
0.0
220
0.0
230
-1.0
  0
SOLID
  5
74D
  8
0
  6
CONTINUOUS
 10
-461.216836162677
 20
19.935021793483092
 30
0.0
 11
-461.28445554337821
 21
19.771774167515161
 31
0.0
 12
-460.21132335840718
 22
19.771774167515161
 32
0.0
 13
-460.21132335840718
 23
19.771774167515161
 33
0.0
210
0.0
220
0.0
230
1.0
  0
SOLID
  5
74E
  8
0
  6
CONTINUOUS
 10
461.216836162677
 20
19.935021793483092
 30
0.0
 11
460.14370397770608
 21
19.935021793483092
 31
0.0
 12
460.21132335840718
 22
19.771774167515161
 32
0.0
 13
460.21132335840718
 23
19.771774167515161
 33
0.0
210
0.0
220
0.0
230
-1.0
  0
SOLID
  5
74F
  8
0
  6
CONTINUOUS
 10
-550.21395194822708
 20
20.128251494452051
 30
0.0
 11
-549.88721029220915
 21
19.513055867897599
 31
0.0
 12
-548.70865424085434
 22
19.513055867897599
 32
0.0
 13
-548.70865424085434
 23
19.513055867897599
 33
0.0
210
0.0
220
0.0
230
1.0
  0
SOLID
  5
750
  8
0
  6
CONTINUOUS
 10
550.21395194822708
 20
20.128251494452051
 30
0.0
 11
549.08165929623283
 21
20.128251494452051
 31
0.0
 12
548.70865424085434
 22
19.513055867897599
 32
0.0
 13
548.70865424085434
 23
19.513055867897599
 33
0.0
210
0.0
220
0.0
230
-1.0
  0
SOLID
  5
751
  8
0
  6
CONTINUOUS
 10
-461.28445554337821
 20
19.771774167515161
 30
0.0
 11
-461.56256313292431
 21
19.409337300438828
 31
0.0
 12
-460.36144962425419
 22
19.409337300438828
 32
0.0
 13
-460.36144962425419
 23
19.409337300438828
 33
0.0
  0
SOLID
  5
752
  8
0
  6
CONTINUOUS
 10
461.28445554337821
 20
19.771774167515161
 30
0.0
 11
460.21132335840718
 21
19.771774167515161
 31
0.0
 12
460.36144962425419
 22
19.409337300438828
 32
0.0
 13
460.36144962425419
 23
19.409337300438828
 33
0.0
210
0.0
220
0.0
230
-1.0
  0
SOLID
  5
753
  8
0
  6
CONTINUOUS
 10
-549.88721029220915
 20
19.513055867897599
 30
0.0
 11
-549.80424477485496
 21
19.356846757455038
 31
0.0
 12
-548.54357446936444
 22
19.356846757455038
 32
0.0
 13
-548.54357446936444
 23
19.356846757455038
 33
0.0
210
0.0
220
0.0
230
1.0
  0
SOLID
  5
754
  8
0
  6
CONTINUOUS
 10
549.88721029220915
 20
19.513055867897599
 30
0.0
 11
548.70865424085434
 21
19.513055867897599
 31
0.0
 12
548.54357446936444
 22
19.356846757455038
 32
0.0
 13
548.54357446936444
 23
19.356846757455038
 33
0.0
210
0.0
220
0.0
230
-1.0
  0
SOLID
  5
755
  8
0
  6
CONTINUOUS
 10
-461.56256313292431
 20
19.409337300438828
 30
0.0
 11
-461.74183889811792
 21
19.27177416751514
 31
0.0
 12
-460.4184301395938
 22
19.27177416751514
 32
0.0
 13
-460.4184301395938
 23
19.27177416751514
 33
0.0
210
0.0
220
0.0
230
1.0
  0
SOLID
  5
756
  8
0
  6
CONTINUOUS
 10
461.56256313292431
 20
19.409337300438828
 30
0.0
 11
460.36144962425419
 21
19.409337300438828
 31
0.0
 12
460.4184301395938
 22
19.27177416751514
 32
0.0
 13
460.4184301395938
 23
19.27177416751514
 33
0.0
210
0.0
220
0.0
230
-1.0
  0
SOLID
  5
757
  8
0
  6
CONTINUOUS
 10
-549.80424477485496
 20
19.356846757455038
 30
0.0
 11
-549.73382826771285
 21
19.25313949268331
 31
0.0
 12
-548.43397797065938
 22
19.25313949268331
 32
0.0
 13
-548.43397797065938
 23
19.25313949268331
 33
0.0
210
0.0
220
0.0
230
1.0
  0
SOLID
  5
758
  8
0
  6
CONTINUOUS
 10
549.80424477485496
 20
19.356846757455038
 30
0.0
 11
548.54357446936444
 21
19.356846757455038
 31
0.0
 12
548.43397797065938
 22
19.25313949268331
 32
0.0
 13
548.43397797065938
 23
19.25313949268331
 33
0.0
210
0.0
220
0.0
230
-1.0
  0
SOLID
  5
759
  8
0
  6
CONTINUOUS
 10
-461.74183889811792
 20
19.27177416751514
 30
0.0
 11
-461.92500000000081
 21
19.131229710892459
 31
0.0
 12
-460.5262736941711
 22
19.131229710892459
 32
0.0
 13
-460.5262736941711
 23
19.131229710892459
 33
0.0
210
0.0
220
0.0
230
1.0
  0
SOLID
  5
75A
  8
0
  6
CONTINUOUS
 10
461.74183889811792
 20
19.27177416751514
 30
0.0
 11
460.4184301395938
 21
19.27177416751514
 31
0.0
 12
460.5262736941711
 22
19.131229710892459
 32
0.0
 13
460.5262736941711
 23
19.131229710892459
 33
0.0
210
0.0
220
0.0
230
-1.0
  0
SOLID
  5
75B
  8
0
  6
CONTINUOUS
 10
-549.73382826771285
 20
19.25313949268331
 30
0.0
 11
-549.60153290348728
 21
19.05829895141494
 31
0.0
 12
-548.10987808020752
 22
19.05829895141494
 32
0.0
 13
-548.10987808020752
 23
19.05829895141494
 33
0.0
210
0.0
220
0.0
230
1.0
  0
SOLID
  5
75C
  8
0
  6
CONTINUOUS
 10
549.73382826771285
 20
19.25313949268331
 30
0.0
 11
548.43397797065938
 21
19.25313949268331
 31
0.0
 12
548.10987808020752
 22
19.05829895141494
 32
0.0
 13
548.10987808020752
 23
19.05829895141494
 33
0.0
210
0.0
220
0.0
230
-1.0
  0
SOLID
  5
75D
  8
0
  6
CONTINUOUS
 10
-461.92500000000081
 20
19.131229710892459
 30
0.0
 11
-462.34706667107122
 21
18.956403971509442
 31
0.0
 12
-460.6604222021931
 22
18.956403971509442
 32
0.0
 13
-460.6604222021931
 23
18.956403971509442
 33
0.0
210
0.0
220
0.0
230
1.0
  0
SOLID
  5
75E
  8
0
  6
CONTINUOUS
 10
461.92500000000081
 20
19.131229710892459
 30
0.0
 11
460.5262736941711
 21
19.131229710892459
 31
0.0
 12
460.6604222021931
 22
18.956403971509442
 32
0.0
 13
460.6604222021931
 23
18.956403971509442
 33
0.0
210
0.0
220
0.0
230
-1.0
  0
SOLID
  5
75F
  8
0
  6
CONTINUOUS
 10
-462.34706667107122
 20
18.956403971509442
 30
0.0
 11
-462.48965142947532
 21
18.937632331947668
 31
0.0
 12
-460.67482618783748
 22
18.937632331947668
 32
0.0
 13
-460.67482618783748
 23
18.937632331947668
 33
0.0
210
0.0
220
0.0
230
1.0
  0
SOLID
  5
760
  8
0
  6
CONTINUOUS
 10
462.34706667107122
 20
18.956403971509442
 30
0.0
 11
460.6604222021931
 21
18.956403971509442
 31
0.0
 12
460.67482618783748
 22
18.937632331947668
 32
0.0
 13
460.67482618783748
 23
18.937632331947668
 33
0.0
210
0.0
220
0.0
230
-1.0
  0
SOLID
  5
761
  8
0
  6
CONTINUOUS
 10
-549.60153290348728
 20
19.05829895141494
 30
0.0
 11
-549.51960111317123
 21
18.937632331947668
 31
0.0
 12
-547.75148842848876
 22
18.937632331947668
 32
0.0
 13
-547.75148842848876
 23
18.937632331947668
 33
0.0
210
0.0
220
0.0
230
1.0
  0
SOLID
  5
762
  8
0
  6
CONTINUOUS
 10
549.60153290348728
 20
19.05829895141494
 30
0.0
 11
548.10987808020752
 21
19.05829895141494
 31
0.0
 12
547.75148842848876
 22
18.937632331947668
 32
0.0
 13
547.75148842848876
 23
18.937632331947668
 33
0.0
210
0.0
220
0.0
230
-1.0
  0
SOLID
  5
763
  8
0
  6
CONTINUOUS
 10
-462.48965142947532
 20
18.937632331947668
 30
0.0
 11
-462.80000000000069
 21
18.89677416751536
 31
0.0
 12
-460.70617776008572
 22
18.89677416751536
 32
0.0
 13
-460.70617776008572
 23
18.89677416751536
 33
0.0
210
0.0
220
0.0
230
1.0
  0
SOLID
  5
764
  8
0
  6
CONTINUOUS
 10
462.48965142947532
 20
18.937632331947668
 30
0.0
 11
460.67482618783748
 21
18.937632331947668
 31
0.0
 12
460.70617776008572
 22
18.89677416751536
 32
0.0
 13
460.70617776008572
 23
18.89677416751536
 33
0.0
210
0.0
220
0.0
230
-1.0
  0
SOLID
  5
765
  8
0
  6
CONTINUOUS
 10
-549.51960111317123
 20
18.937632331947668
 30
0.0
 11
-549.49185870540555
 21
18.89677416751536
 31
0.0
 12
-462.80000000000069
 22
18.89677416751536
 32
0.0
 13
-462.80000000000069
 23
18.89677416751536
 33
0.0
210
0.0
220
0.0
230
1.0
  0
SOLID
  5
766
  8
0
  6
CONTINUOUS
 10
549.51960111317123
 20
18.937632331947668
 30
0.0
 11
547.75148842848876
 21
18.937632331947668
 31
0.0
 12
462.80000000000069
 22
18.89677416751536
 32
0.0
 13
462.80000000000069
 23
18.89677416751536
 33
0.0
210
0.0
220
0.0
230
-1.0
  0
SOLID
  5
767
  8
0
  6
CONTINUOUS
 10
-549.49185870540555
 20
18.89677416751536
 30
0.0
 11
-549.47043150051945
 21
18.86521683954469
 31
0.0
 12
-460.73039254950601
 22
18.86521683954469
 32
0.0
 13
-460.73039254950601
 23
18.86521683954469
 33
0.0
  0
SOLID
  5
768
  8
0
  6
CONTINUOUS
 10
549.49185870540555
 20
18.89677416751536
 30
0.0
 11
460.70617776008572
 21
18.89677416751536
 31
0.0
 12
460.73039254950601
 22
18.86521683954469
 32
0.0
 13
460.73039254950601
 23
18.86521683954469
 33
0.0
210
0.0
220
0.0
230
-1.0
  0
SOLID
  5
769
  8
0
  6
CONTINUOUS
 10
-549.47043150051945
 20
18.86521683954469
 30
0.0
 11
-549.29818966114385
 21
18.70223051925224
 31
0.0
 12
-460.85545635173793
 22
18.70223051925224
 32
0.0
 13
-460.85545635173793
 23
18.70223051925224
 33
0.0
210
0.0
220
0.0
230
1.0
  0
SOLID
  5
76A
  8
0
  6
CONTINUOUS
 10
549.47043150051945
 20
18.86521683954469
 30
0.0
 11
460.73039254950601
 21
18.86521683954469
 31
0.0
 12
460.85545635173793
 22
18.70223051925224
 32
0.0
 13
460.85545635173793
 23
18.70223051925224
 33
0.0
210
0.0
220
0.0
230
-1.0
  0
SOLID
  5
76B
  8
0
  6
CONTINUOUS
 10
-549.29818966114385
 20
18.70223051925224
 30
0.0
 11
-549.03879736164174
 21
18.456776821350701
 31
0.0
 12
-461.1753378387009
 22
18.456776821350701
 32
0.0
 13
-461.1753378387009
 23
18.456776821350701
 33
0.0
210
0.0
220
0.0
230
1.0
  0
SOLID
  5
76C
  8
0
  6
CONTINUOUS
 10
549.29818966114385
 20
18.70223051925224
 30
0.0
 11
460.85545635173793
 21
18.70223051925224
 31
0.0
 12
461.1753378387009
 22
18.456776821350701
 32
0.0
 13
461.1753378387009
 23
18.456776821350701
 33
0.0
210
0.0
220
0.0
230
-1.0
  0
SOLID
  5
76D
  8
0
  6
CONTINUOUS
 10
-549.03879736164174
 20
18.456776821350701
 30
0.0
 11
-548.72013354313935
 21
18.265204307108121
 31
0.0
 12
-461.42500000000092
 22
18.265204307108121
 32
0.0
 13
-461.42500000000092
 23
18.265204307108121
 33
0.0
210
0.0
220
0.0
230
1.0
  0
SOLID
  5
76E
  8
0
  6
CONTINUOUS
 10
549.03879736164174
 20
18.456776821350701
 30
0.0
 11
461.1753378387009
 21
18.456776821350701
 31
0.0
 12
461.42500000000092
 22
18.265204307108121
 32
0.0
 13
461.42500000000092
 23
18.265204307108121
 33
0.0
210
0.0
220
0.0
230
-1.0
  0
SOLID
  5
76F
  8
0
  6
CONTINUOUS
 10
-548.72013354313935
 20
18.265204307108121
 30
0.0
 11
-548.52949753378834
 21
18.150598827928938
 31
0.0
 12
-461.70168210215752
 22
18.150598827928938
 32
0.0
 13
-461.70168210215752
 23
18.150598827928938
 33
0.0
210
0.0
220
0.0
230
1.0
  0
SOLID
  5
770
  8
0
  6
CONTINUOUS
 10
548.72013354313935
 20
18.265204307108121
 30
0.0
 11
461.42500000000092
 21
18.265204307108121
 31
0.0
 12
461.70168210215752
 22
18.150598827928938
 32
0.0
 13
461.70168210215752
 23
18.150598827928938
 33
0.0
210
0.0
220
0.0
230
-1.0
  0
SOLID
  5
771
  8
0
  6
CONTINUOUS
 10
-548.52949753378834
 20
18.150598827928938
 30
0.0
 11
-548.05392611261016
 21
17.990478145220489
 31
0.0
 12
-462.08824762596868
 22
17.990478145220489
 32
0.0
 13
-462.08824762596868
 23
17.990478145220489
 33
0.0
210
0.0
220
0.0
230
1.0
  0
SOLID
  5
772
  8
0
  6
CONTINUOUS
 10
548.52949753378834
 20
18.150598827928938
 30
0.0
 11
461.70168210215752
 21
18.150598827928938
 31
0.0
 12
462.08824762596868
 22
17.990478145220489
 32
0.0
 13
462.08824762596868
 23
17.990478145220489
 33
0.0
210
0.0
220
0.0
230
-1.0
  0
SOLID
  5
773
  8
0
  6
CONTINUOUS
 10
-548.05392611261016
 20
17.990478145220489
 30
0.0
 11
-547.96631379537325
 21
17.9609798544803
 31
0.0
 12
-462.31230938917662
 22
17.9609798544803
 32
0.0
 13
-462.31230938917662
 23
17.9609798544803
 33
0.0
210
0.0
220
0.0
230
1.0
  0
SOLID
  5
774
  8
0
  6
CONTINUOUS
 10
548.05392611261016
 20
17.990478145220489
 30
0.0
 11
462.08824762596868
 21
17.990478145220489
 31
0.0
 12
462.31230938917662
 22
17.9609798544803
 32
0.0
 13
462.31230938917662
 23
17.9609798544803
 33
0.0
210
0.0
220
0.0
230
-1.0
  0
SOLID
  5
775
  8
0
  6
CONTINUOUS
 10
-547.96631379537325
 20
17.9609798544803
 30
0.0
 11
-547.37554403644117
 21
17.896774167515321
 31
0.0
 12
-462.80000000000058
 22
17.896774167515321
 32
0.0
 13
-462.80000000000058
 23
17.896774167515321
 33
0.0
210
0.0
220
0.0
230
1.0
  0
SOLID
  5
776
  8
0
  6
CONTINUOUS
 10
547.96631379537325
 20
17.9609798544803
 30
0.0
 11
462.31230938917662
 21
17.9609798544803
 31
0.0
 12
462.80000000000058
 22
17.896774167515321
 32
0.0
 13
462.80000000000058
 23
17.896774167515321
 33
0.0
210
0.0
220
0.0
230
-1.0
  0
LINE
  5
777
  8
0
  6
CONTINUOUS
 10
-577.46130677724068
 20
110.8114641914291
 30
0.0
 11
-590.69149628925186
 21
110.7648641205929
 31
0.0
  0
LINE
  5
778
  8
0
  6
CONTINUOUS
 10
-577.107344097534
 20
110.7648641205929
 30
0.0
 11
-577.46130677724068
 21
110.8114641914291
 31
0.0
  0
LINE
  5
779
  8
0
  6
CONTINUOUS
 10
-590.69149628925186
 20
110.7648641205929
 30
0.0
 11
-590.72753385466171
 21
110.7518343874348
 31
0.0
  0
LINE
  5
77A
  8
0
  6
CONTINUOUS
 10
-577.107344097534
 20
110.7648641205929
 30
0.0
 11
-577.00837344831132
 21
110.7518343874348
 31
0.0
  0
LINE
  5
77B
  8
0
  6
CONTINUOUS
 10
-590.72753385466171
 20
110.7518343874348
 30
0.0
 11
-591.07129083749078
 21
110.6275456984918
 31
0.0
  0
LINE
  5
77C
  8
0
  6
CONTINUOUS
 10
-577.00837344831132
 20
110.7518343874348
 30
0.0
 11
-576.70831400981524
 21
110.6275456984918
 31
0.0
  0
LINE
  5
77D
  8
0
  6
CONTINUOUS
 10
-591.07129083749078
 20
110.6275456984918
 30
0.0
 11
-591.14872610085342
 21
110.5770086480518
 31
0.0
  0
LINE
  5
77E
  8
0
  6
CONTINUOUS
 10
-576.70831400981524
 20
110.6275456984918
 30
0.0
 11
-576.58630677724057
 21
110.5770086480518
 31
0.0
  0
LINE
  5
77F
  8
0
  6
CONTINUOUS
 10
-591.14872610085342
 20
110.5770086480518
 30
0.0
 11
-591.40949395866267
 21
110.40682212306329
 31
0.0
  0
LINE
  5
780
  8
0
  6
CONTINUOUS
 10
-576.58630677724057
 20
110.5770086480518
 30
0.0
 11
-576.36451537975995
 21
110.40682212306329
 31
0.0
  0
LINE
  5
781
  8
0
  6
CONTINUOUS
 10
-591.40949395866267
 20
110.40682212306329
 30
0.0
 11
-591.51233088082995
 21
110.29890105850551
 31
0.0
  0
LINE
  5
782
  8
0
  6
CONTINUOUS
 10
-576.36451537975995
 20
110.40682212306329
 30
0.0
 11
-576.22386991016424
 21
110.29890105850551
 31
0.0
  0
LINE
  5
783
  8
0
  6
CONTINUOUS
 10
-591.51233088082995
 20
110.29890105850551
 30
0.0
 11
-591.68809389344983
 21
110.114448519164
 31
0.0
  0
LINE
  5
784
  8
0
  6
CONTINUOUS
 10
-576.22386991016424
 20
110.29890105850551
 30
0.0
 11
-576.08233449872625
 21
110.114448519164
 31
0.0
  0
LINE
  5
785
  8
0
  6
CONTINUOUS
 10
-591.68809389344983
 20
110.114448519164
 30
0.0
 11
-591.79237536863104
 21
109.9364641914291
 31
0.0
  0
LINE
  5
786
  8
0
  6
CONTINUOUS
 10
-576.08233449872625
 20
110.114448519164
 30
0.0
 11
-575.94576232061797
 21
109.9364641914291
 31
0.0
  0
LINE
  5
787
  8
0
  6
CONTINUOUS
 10
-591.79237536863104
 20
109.9364641914291
 30
0.0
 11
-591.86561318998054
 21
109.8114641914291
 31
0.0
  0
LINE
  5
788
  8
0
  6
CONTINUOUS
 10
-575.94576232061797
 20
109.9364641914291
 30
0.0
 11
-575.89398562532131
 21
109.8114641914291
 31
0.0
  0
LINE
  5
789
  8
0
  6
CONTINUOUS
 10
-575.89398562532131
 20
109.8114641914291
 30
0.0
 11
-575.88571317617175
 21
109.7914927324983
 31
0.0
  0
LINE
  5
78A
  8
0
  6
CONTINUOUS
 10
-591.86561318998054
 20
109.8114641914291
 30
0.0
 11
-591.87731451911066
 21
109.7914927324983
 31
0.0
  0
LINE
  5
78B
  8
0
  6
CONTINUOUS
 10
-580.11288521632537
 20
109.7914927324983
 30
0.0
 11
-577.26719249341375
 21
109.7859085611458
 31
0.0
  0
LINE
  5
78C
  8
0
  6
CONTINUOUS
 10
-575.88571317617175
 20
109.7914927324983
 30
0.0
 11
-575.88340013666289
 21
109.7859085611458
 31
0.0
  0
LINE
  5
78D
  8
0
  6
CONTINUOUS
 10
-591.87731451911066
 20
109.7914927324983
 30
0.0
 11
-591.89225318277136
 21
109.7659958932532
 31
0.0
  0
LINE
  5
78E
  8
0
  6
CONTINUOUS
 10
-590.46226247665288
 20
109.7914927324983
 30
0.0
 11
-590.5133924314672
 21
109.7659958932532
 31
0.0
  0
LINE
  5
78F
  8
0
  6
CONTINUOUS
 10
-591.89225318277136
 20
109.7659958932532
 30
0.0
 11
-591.93165032496984
 21
109.63804616212821
 31
0.0
  0
LINE
  5
790
  8
0
  6
CONTINUOUS
 10
-590.5133924314672
 20
109.7659958932532
 30
0.0
 11
-590.7699757635437
 21
109.63804616212821
 31
0.0
  0
LINE
  5
791
  8
0
  6
CONTINUOUS
 10
-577.26719249341375
 20
109.7859085611458
 30
0.0
 11
-576.93097669135068
 21
109.591794277319
 31
0.0
  0
LINE
  5
792
  8
0
  6
CONTINUOUS
 10
-575.88340013666289
 20
109.7859085611458
 30
0.0
 11
-575.80299536765165
 21
109.591794277319
 31
0.0
  0
LINE
  5
793
  8
0
  6
CONTINUOUS
 10
-576.93097669135068
 20
109.591794277319
 30
0.0
 11
-576.88629165288523
 21
109.5143975203584
 31
0.0
  0
LINE
  5
794
  8
0
  6
CONTINUOUS
 10
-575.80299536765165
 20
109.591794277319
 30
0.0
 11
-575.77093658123476
 21
109.5143975203584
 31
0.0
  0
LINE
  5
795
  8
0
  6
CONTINUOUS
 10
-591.93165032496984
 20
109.63804616212821
 30
0.0
 11
-592.01109886966333
 21
109.3800218648167
 31
0.0
  0
LINE
  5
796
  8
0
  6
CONTINUOUS
 10
-590.7699757635437
 20
109.63804616212821
 30
0.0
 11
-590.96435546240264
 21
109.3800218648167
 31
0.0
  0
LINE
  5
797
  8
0
  6
CONTINUOUS
 10
-592.01109886966333
 20
109.3800218648167
 30
0.0
 11
-592.01417483293415
 21
109.3634063493522
 31
0.0
  0
LINE
  5
798
  8
0
  6
CONTINUOUS
 10
-590.96435546240264
 20
109.3800218648167
 30
0.0
 11
-590.97687257387634
 21
109.3634063493522
 31
0.0
  0
LINE
  5
799
  8
0
  6
CONTINUOUS
 10
-576.88629165288523
 20
109.5143975203584
 30
0.0
 11
-576.73686240752386
 21
109.255578475256
 31
0.0
  0
LINE
  5
79A
  8
0
  6
CONTINUOUS
 10
-575.77093658123476
 20
109.5143975203584
 30
0.0
 11
-575.73686240752386
 21
109.255578475256
 31
0.0
  0
LINE
  5
79B
  8
0
  6
CONTINUOUS
 10
-576.73686240752386
 20
109.255578475256
 30
0.0
 11
-576.71130677724057
 21
109.061464191429
 31
0.0
  0
LINE
  5
79C
  8
0
  6
CONTINUOUS
 10
-575.73686240752386
 20
109.255578475256
 30
0.0
 11
-575.71130677724057
 21
109.061464191429
 31
0.0
  0
LINE
  5
79D
  8
0
  6
CONTINUOUS
 10
-576.71130677724057
 20
109.061464191429
 30
0.0
 11
-576.71130677724057
 21
106.40074009030479
 31
0.0
  0
LINE
  5
79E
  8
0
  6
CONTINUOUS
 10
-575.71130677724057
 20
109.061464191429
 30
0.0
 11
-575.71130677724057
 21
106.40074009030479
 31
0.0
  0
LINE
  5
79F
  8
0
  6
CONTINUOUS
 10
-592.01417483293415
 20
109.3634063493522
 30
0.0
 11
-594.04612532181716
 21
98.387363465362824
 31
0.0
  0
LINE
  5
7A0
  8
0
  6
CONTINUOUS
 10
-590.97687257387634
 20
109.3634063493522
 30
0.0
 11
-593.02880251521685
 21
98.387363465362824
 31
0.0
  0
LINE
  5
7A1
  8
0
  6
CONTINUOUS
 10
-594.04612532181716
 20
98.387363465362824
 30
0.0
 11
-594.0577783754735
 21
98.205330509139557
 31
0.0
  0
LINE
  5
7A2
  8
0
  6
CONTINUOUS
 10
-593.02880251521685
 20
98.387363465362824
 30
0.0
 11
-593.06283289184103
 21
98.205330509139557
 31
0.0
  0
LINE
  5
7A3
  8
0
  6
CONTINUOUS
 10
-594.0577783754735
 20
98.205330509139557
 30
0.0
 11
-594.08435155780205
 21
97.790229448232694
 31
0.0
  0
LINE
  5
7A4
  8
0
  6
CONTINUOUS
 10
-593.06283289184103
 20
98.205330509139557
 30
0.0
 11
-593.08940607416946
 21
97.790229448232694
 31
0.0
  0
LINE
  5
7A5
  8
0
  6
CONTINUOUS
 10
-594.08435155780205
 20
97.790229448232694
 30
0.0
 11
-594.08788317976212
 21
97.735061798223569
 31
0.0
  0
LINE
  5
7A6
  8
0
  6
CONTINUOUS
 10
-593.08940607416946
 20
97.790229448232694
 30
0.0
 11
-593.07969062408552
 21
97.735061798223569
 31
0.0
  0
LINE
  5
7A7
  8
0
  6
CONTINUOUS
 10
-594.08788317976212
 20
97.735061798223569
 30
0.0
 11
-594.025456645791
 21
97.380582577230641
 31
0.0
  0
LINE
  5
7A8
  8
0
  6
CONTINUOUS
 10
-593.07969062408552
 20
97.735061798223569
 30
0.0
 11
-593.0172640901144
 21
97.380582577230641
 31
0.0
  0
LINE
  5
7A9
  8
0
  6
CONTINUOUS
 10
-594.025456645791
 20
97.380582577230641
 30
0.0
 11
-593.97451720481831
 21
97.091331000934886
 31
0.0
  0
LINE
  5
7AA
  8
0
  6
CONTINUOUS
 10
-593.0172640901144
 20
97.380582577230641
 30
0.0
 11
-592.89066170266369
 21
97.091331000934886
 31
0.0
  0
LINE
  5
7AB
  8
0
  6
CONTINUOUS
 10
-593.97451720481831
 20
97.091331000934886
 30
0.0
 11
-593.93433808171903
 21
96.999532774024047
 31
0.0
  0
LINE
  5
7AC
  8
0
  6
CONTINUOUS
 10
-592.89066170266369
 20
97.091331000934886
 30
0.0
 11
-592.85048257956441
 21
96.999532774024047
 31
0.0
  0
LINE
  5
7AD
  8
0
  6
CONTINUOUS
 10
-593.93433808171903
 20
96.999532774024047
 30
0.0
 11
-593.78949548016044
 21
96.668607333680967
 31
0.0
  0
LINE
  5
7AE
  8
0
  6
CONTINUOUS
 10
-592.85048257956441
 20
96.999532774024047
 30
0.0
 11
-592.59848381425229
 21
96.668607333680967
 31
0.0
  0
LINE
  5
7AF
  8
0
  6
CONTINUOUS
 10
-593.78949548016044
 20
96.668607333680967
 30
0.0
 11
-593.71243197395415
 21
96.492538453038875
 31
0.0
  0
LINE
  5
7B0
  8
0
  6
CONTINUOUS
 10
-592.59848381425229
 20
96.668607333680967
 30
0.0
 11
-592.3236878588483
 21
96.492538453038875
 31
0.0
  0
LINE
  5
7B1
  8
0
  6
CONTINUOUS
 10
-593.71243197395415
 20
96.492538453038875
 30
0.0
 11
-593.31643391417799
 21
95.972512761071357
 31
0.0
  0
LINE
  5
7B2
  8
0
  6
CONTINUOUS
 10
-592.3236878588483
 20
96.492538453038875
 30
0.0
 11
-591.51206824533244
 21
95.972512761071357
 31
0.0
  0
LINE
  5
7B3
  8
0
  6
CONTINUOUS
 10
-593.31643391417799
 20
95.972512761071357
 30
0.0
 11
-592.80889481785789
 21
95.560632621516689
 31
0.0
  0
LINE
  5
7B4
  8
0
  6
CONTINUOUS
 10
-591.51206824533244
 20
95.972512761071357
 30
0.0
 11
-590.86923462221796
 21
95.560632621516689
 31
0.0
  0
LINE
  5
7B5
  8
0
  6
CONTINUOUS
 10
-462.30000000000189
 20
94.396774167516114
 30
0.0
 11
-462.88234285148292
 21
94.320107276666434
 31
0.0
  0
LINE
  5
7B6
  8
0
  6
CONTINUOUS
 10
-461.71765714852103
 20
94.320107276666434
 30
0.0
 11
-462.30000000000189
 21
94.396774167516114
 31
0.0
  0
LINE
  5
7B7
  8
0
  6
CONTINUOUS
 10
-462.88234285148292
 20
94.320107276666434
 30
0.0
 11
-463.42500000000229
 21
94.095331326030973
 31
0.0
  0
LINE
  5
7B8
  8
0
  6
CONTINUOUS
 10
-461.71765714852103
 20
94.320107276666434
 30
0.0
 11
-461.17500000000149
 21
94.095331326030973
 31
0.0
  0
LINE
  5
7B9
  8
0
  6
CONTINUOUS
 10
-463.42500000000229
 20
94.095331326030973
 30
0.0
 11
-463.89099025767217
 21
93.737764425185588
 31
0.0
  0
LINE
  5
7BA
  8
0
  6
CONTINUOUS
 10
-461.17500000000149
 20
94.095331326030973
 30
0.0
 11
-460.70900974233149
 21
93.737764425185588
 31
0.0
  0
LINE
  5
7BB
  8
0
  6
CONTINUOUS
 10
-463.89099025767217
 20
93.737764425185588
 30
0.0
 11
-464.15264128501991
 21
93.396774167516085
 31
0.0
  0
LINE
  5
7BC
  8
0
  6
CONTINUOUS
 10
-460.70900974233149
 20
93.737764425185588
 30
0.0
 11
-460.44735871498392
 21
93.396774167516085
 31
0.0
  0
LINE
  5
7BD
  8
0
  6
CONTINUOUS
 10
-462.30000000000189
 20
93.396774167516085
 30
0.0
 11
-461.97647619362351
 21
93.354181450377425
 31
0.0
  0
LINE
  5
7BE
  8
0
  6
CONTINUOUS
 10
-460.44735871498392
 20
93.396774167516085
 30
0.0
 11
-460.41467617363207
 21
93.354181450377425
 31
0.0
  0
LINE
  5
7BF
  8
0
  6
CONTINUOUS
 10
-464.15264128501991
 20
93.396774167516085
 30
0.0
 11
-464.1853238263717
 21
93.354181450377425
 31
0.0
  0
LINE
  5
7C0
  8
0
  6
CONTINUOUS
 10
-462.30000000000189
 20
93.396774167516085
 30
0.0
 11
-462.62352380638032
 21
93.354181450377425
 31
0.0
  0
LINE
  5
7C1
  8
0
  6
CONTINUOUS
 10
-461.97647619362351
 20
93.354181450377425
 30
0.0
 11
-461.77752741370023
 21
93.271774167515574
 31
0.0
  0
LINE
  5
7C2
  8
0
  6
CONTINUOUS
 10
-460.41467617363207
 20
93.354181450377425
 30
0.0
 11
-460.35144284148612
 21
93.271774167515574
 31
0.0
  0
LINE
  5
7C3
  8
0
  6
CONTINUOUS
 10
-464.1853238263717
 20
93.354181450377425
 30
0.0
 11
-464.2485571585176
 21
93.271774167515574
 31
0.0
  0
LINE
  5
7C4
  8
0
  6
CONTINUOUS
 10
-462.62352380638032
 20
93.354181450377425
 30
0.0
 11
-462.8224725863036
 21
93.271774167515574
 31
0.0
  0
LINE
  5
7C5
  8
0
  6
CONTINUOUS
 10
-461.77752741370023
 20
93.271774167515574
 30
0.0
 11
-461.67500000000149
 21
93.229305922246496
 31
0.0
  0
LINE
  5
7C6
  8
0
  6
CONTINUOUS
 10
-460.35144284148612
 20
93.271774167515574
 30
0.0
 11
-460.33385191832548
 21
93.229305922246496
 31
0.0
  0
LINE
  5
7C7
  8
0
  6
CONTINUOUS
 10
-464.2485571585176
 20
93.271774167515574
 30
0.0
 11
-464.2661480816783
 21
93.229305922246496
 31
0.0
  0
LINE
  5
7C8
  8
0
  6
CONTINUOUS
 10
-462.8224725863036
 20
93.271774167515574
 30
0.0
 11
-462.9250000000024
 21
93.229305922246496
 31
0.0
  0
LINE
  5
7C9
  8
0
  6
CONTINUOUS
 10
-461.67500000000149
 20
93.229305922246496
 30
0.0
 11
-461.4161165235181
 21
93.030657643999078
 31
0.0
  0
LINE
  5
7CA
  8
0
  6
CONTINUOUS
 10
-460.33385191832548
 20
93.229305922246496
 30
0.0
 11
-460.25156910733341
 21
93.030657643999078
 31
0.0
  0
LINE
  5
7CB
  8
0
  6
CONTINUOUS
 10
-464.2661480816783
 20
93.229305922246496
 30
0.0
 11
-464.34843089267042
 21
93.030657643999078
 31
0.0
  0
LINE
  5
7CC
  8
0
  6
CONTINUOUS
 10
-462.9250000000024
 20
93.229305922246496
 30
0.0
 11
-463.18388347648579
 21
93.030657643999078
 31
0.0
  0
LINE
  5
7CD
  8
0
  6
CONTINUOUS
 10
-592.80889481785789
 20
95.560632621516689
 30
0.0
 11
-588.71176953181873
 21
92.977056469710377
 31
0.0
  0
LINE
  5
7CE
  8
0
  6
CONTINUOUS
 10
-590.86923462221796
 20
95.560632621516689
 30
0.0
 11
-586.83697023565696
 21
92.977056469710377
 31
0.0
  0
LINE
  5
7CF
  8
0
  6
CONTINUOUS
 10
-461.4161165235181
 20
93.030657643999078
 30
0.0
 11
-461.2174682452706
 21
92.771774167515673
 31
0.0
  0
LINE
  5
7D0
  8
0
  6
CONTINUOUS
 10
-460.25156910733341
 20
93.030657643999078
 30
0.0
 11
-460.14433606029962
 21
92.771774167515673
 31
0.0
  0
LINE
  5
7D1
  8
0
  6
CONTINUOUS
 10
-464.34843089267042
 20
93.030657643999078
 30
0.0
 11
-464.45566393970421
 21
92.771774167515673
 31
0.0
  0
LINE
  5
7D2
  8
0
  6
CONTINUOUS
 10
-463.18388347648579
 20
93.030657643999078
 30
0.0
 11
-463.38253175473329
 21
92.771774167515673
 31
0.0
  0
LINE
  5
7D3
  8
0
  6
CONTINUOUS
 10
-461.2174682452706
 20
92.771774167515673
 30
0.0
 11
-461.1997990758216
 21
92.729117018996064
 31
0.0
  0
LINE
  5
7D4
  8
0
  6
CONTINUOUS
 10
-460.14433606029962
 20
92.771774167515673
 30
0.0
 11
-460.12666689085069
 21
92.729117018996064
 31
0.0
  0
LINE
  5
7D5
  8
0
  6
CONTINUOUS
 10
-464.45566393970421
 20
92.771774167515673
 30
0.0
 11
-464.4733331091532
 21
92.729117018996064
 31
0.0
  0
LINE
  5
7D6
  8
0
  6
CONTINUOUS
 10
-463.38253175473329
 20
92.771774167515673
 30
0.0
 11
-463.40020092418229
 21
92.729117018996064
 31
0.0
  0
LINE
  5
7D7
  8
0
  6
CONTINUOUS
 10
-461.1997990758216
 20
92.729117018996064
 30
0.0
 11
-461.09259271713972
 21
92.470297973893565
 31
0.0
  0
LINE
  5
7D8
  8
0
  6
CONTINUOUS
 10
-460.12666689085069
 20
92.729117018996064
 30
0.0
 11
-460.09259271713972
 21
92.470297973893565
 31
0.0
  0
LINE
  5
7D9
  8
0
  6
CONTINUOUS
 10
-464.4733331091532
 20
92.729117018996064
 30
0.0
 11
-464.50740728286411
 21
92.470297973893565
 31
0.0
  0
LINE
  5
7DA
  8
0
  6
CONTINUOUS
 10
-463.40020092418229
 20
92.729117018996064
 30
0.0
 11
-463.50740728286422
 21
92.470297973893565
 31
0.0
  0
LINE
  5
7DB
  8
0
  6
CONTINUOUS
 10
-461.09259271713972
 20
92.470297973893565
 30
0.0
 11
-461.05000000000098
 21
92.146774167515218
 31
0.0
  0
LINE
  5
7DC
  8
0
  6
CONTINUOUS
 10
-460.09259271713972
 20
92.470297973893565
 30
0.0
 11
-460.05000000000098
 21
92.146774167515218
 31
0.0
  0
LINE
  5
7DD
  8
0
  6
CONTINUOUS
 10
-464.50740728286411
 20
92.470297973893565
 30
0.0
 11
-464.55000000000291
 21
92.146774167515218
 31
0.0
  0
LINE
  5
7DE
  8
0
  6
CONTINUOUS
 10
-463.50740728286422
 20
92.470297973893565
 30
0.0
 11
-463.50999574841342
 21
92.146774167515218
 31
0.0
  0
LINE
  5
7DF
  8
0
  6
CONTINUOUS
 10
-588.71176953181873
 20
92.977056469710377
 30
0.0
 11
-587.37036066419375
 21
92.131187300899114
 31
0.0
  0
LINE
  5
7E0
  8
0
  6
CONTINUOUS
 10
-586.83697023565696
 20
92.977056469710377
 30
0.0
 11
-585.6695161862516
 21
92.131187300899114
 31
0.0
  0
LINE
  5
7E1
  8
0
  6
CONTINUOUS
 10
-587.37036066419375
 20
92.131187300899114
 30
0.0
 11
-585.42109144315214
 21
90.718860420340974
 31
0.0
  0
LINE
  5
7E2
  8
0
  6
CONTINUOUS
 10
-585.6695161862516
 20
92.131187300899114
 30
0.0
 11
-583.72024696520987
 21
90.718860420340974
 31
0.0
  0
LINE
  5
7E3
  8
0
  6
CONTINUOUS
 10
-585.42109144315214
 20
90.718860420340974
 30
0.0
 11
-584.3566695679765
 21
89.947642360599914
 31
0.0
  0
LINE
  5
7E4
  8
0
  6
CONTINUOUS
 10
-583.72024696520987
 20
90.718860420340974
 30
0.0
 11
-582.89544810790164
 21
89.947642360599914
 31
0.0
  0
LINE
  5
7E5
  8
0
  6
CONTINUOUS
 10
-584.3566695679765
 20
89.947642360599914
 30
0.0
 11
-582.41426267394286
 21
88.131418607656457
 31
0.0
  0
LINE
  5
7E6
  8
0
  6
CONTINUOUS
 10
-582.89544810790164
 20
89.947642360599914
 30
0.0
 11
-580.95304121386823
 21
88.131418607656457
 31
0.0
  0
LINE
  5
7E7
  8
0
  6
CONTINUOUS
 10
-582.41426267394286
 20
88.131418607656457
 30
0.0
 11
-581.68094169271194
 21
87.445735814450373
 31
0.0
  0
LINE
  5
7E8
  8
0
  6
CONTINUOUS
 10
-580.95304121386823
 20
88.131418607656457
 30
0.0
 11
-580.38524380978367
 21
87.445735814450373
 31
0.0
  0
LINE
  5
7E9
  8
0
  6
CONTINUOUS
 10
-464.55000000000291
 20
92.146774167515218
 30
0.0
 11
-464.55000000000291
 21
87.146774167515147
 31
0.0
  0
LINE
  5
7EA
  8
0
  6
CONTINUOUS
 10
-463.50999574841342
 20
92.146774167515218
 30
0.0
 11
-463.5500000000028
 21
87.146774167515147
 31
0.0
  0
LINE
  5
7EB
  8
0
  6
CONTINUOUS
 10
-581.68094169271194
 20
87.445735814450373
 30
0.0
 11
-579.81324934043994
 21
85.190275504588087
 31
0.0
  0
LINE
  5
7EC
  8
0
  6
CONTINUOUS
 10
-580.38524380978367
 20
87.445735814450373
 30
0.0
 11
-578.51755145751144
 21
85.190275504588087
 31
0.0
  0
LINE
  5
7ED
  8
0
  6
CONTINUOUS
 10
-579.81324934043994
 20
85.190275504588087
 30
0.0
 11
-579.32596399441684
 21
84.601820582557821
 31
0.0
  0
LINE
  5
7EE
  8
0
  6
CONTINUOUS
 10
-578.51755145751144
 20
85.190275504588087
 30
0.0
 11
-578.14301842901546
 21
84.601820582557821
 31
0.0
  0
LINE
  5
7EF
  8
0
  6
CONTINUOUS
 10
-461.05000000000098
 20
92.146774167515218
 30
0.0
 11
-461.05000000000098
 21
83.163337687424075
 31
0.0
  0
LINE
  5
7F0
  8
0
  6
CONTINUOUS
 10
-460.05000000000098
 20
92.146774167515218
 30
0.0
 11
-460.05000000000098
 21
83.163337687424075
 31
0.0
  0
LINE
  5
7F1
  8
0
  6
CONTINUOUS
 10
-579.32596399441684
 20
84.601820582557821
 30
0.0
 11
-577.6501278339008
 21
81.968797692341909
 31
0.0
  0
LINE
  5
7F2
  8
0
  6
CONTINUOUS
 10
-578.14301842901546
 20
84.601820582557821
 30
0.0
 11
-576.46718226849953
 21
81.968797692341909
 31
0.0
  0
LINE
  5
7F3
  8
0
  6
CONTINUOUS
 10
-577.6501278339008
 20
81.968797692341909
 30
0.0
 11
-577.34337560504139
 21
81.486837904600719
 31
0.0
  0
LINE
  5
7F4
  8
0
  6
CONTINUOUS
 10
-576.46718226849953
 20
81.968797692341909
 30
0.0
 11
-576.24059447058096
 21
81.486837904600719
 31
0.0
  0
LINE
  5
7F5
  8
0
  6
CONTINUOUS
 10
-577.34337560504139
 20
81.486837904600719
 30
0.0
 11
-576.10666276910229
 21
78.856308540788959
 31
0.0
  0
LINE
  5
7F6
  8
0
  6
CONTINUOUS
 10
-576.24059447058096
 20
81.486837904600719
 30
0.0
 11
-575.00388163464186
 21
78.856308540788959
 31
0.0
  0
LINE
  5
7F7
  8
0
  6
CONTINUOUS
 10
-576.10666276910229
 20
78.856308540788959
 30
0.0
 11
-575.78481565653658
 21
78.1717290202578
 31
0.0
  0
LINE
  5
7F8
  8
0
  6
CONTINUOUS
 10
-575.00388163464186
 20
78.856308540788959
 30
0.0
 11
-574.77321098985476
 21
78.1717290202578
 31
0.0
  0
LINE
  5
7F9
  8
0
  6
CONTINUOUS
 10
-575.78481565653658
 20
78.1717290202578
 30
0.0
 11
-574.71366508972505
 21
74.880482156865511
 31
0.0
  0
LINE
  5
7FA
  8
0
  6
CONTINUOUS
 10
-574.77321098985476
 20
78.1717290202578
 30
0.0
 11
-573.6642177854668
 21
74.880482156865511
 31
0.0
  0
LINE
  5
7FB
  8
0
  6
CONTINUOUS
 10
-574.71366508972505
 20
74.880482156865511
 30
0.0
 11
-574.63307110491894
 21
74.632846849636095
 31
0.0
  0
LINE
  5
7FC
  8
0
  6
CONTINUOUS
 10
-573.6642177854668
 20
74.880482156865511
 30
0.0
 11
-573.60092312139795
 21
74.632846849636095
 31
0.0
  0
LINE
  5
7FD
  8
0
  6
CONTINUOUS
 10
-574.63307110491894
 20
74.632846849636095
 30
0.0
 11
-569.34373791779706
 21
53.938754099449312
 31
0.0
  0
LINE
  5
7FE
  8
0
  6
CONTINUOUS
 10
-573.60092312139795
 20
74.632846849636095
 30
0.0
 11
-568.31158993427607
 21
53.938754099449312
 31
0.0
  0
LINE
  5
7FF
  8
0
  6
CONTINUOUS
 10
-569.34373791779706
 20
53.938754099449312
 30
0.0
 11
-569.18550125762488
 21
53.319665831375069
 31
0.0
  0
LINE
  5
800
  8
0
  6
CONTINUOUS
 10
-568.31158993427607
 20
53.938754099449312
 30
0.0
 11
-568.0883585590708
 21
53.319665831375069
 31
0.0
  0
LINE
  5
801
  8
0
  6
CONTINUOUS
 10
-569.18550125762488
 20
53.319665831375069
 30
0.0
 11
-567.18912495653512
 21
47.886544773823132
 31
0.0
  0
LINE
  5
802
  8
0
  6
CONTINUOUS
 10
-568.0883585590708
 20
53.319665831375069
 30
0.0
 11
-566.12927913876945
 21
47.886544773823132
 31
0.0
  0
LINE
  5
803
  8
0
  6
CONTINUOUS
 10
-567.18912495653512
 20
47.886544773823132
 30
0.0
 11
-567.02796880109884
 21
47.447959672819451
 31
0.0
  0
LINE
  5
804
  8
0
  6
CONTINUOUS
 10
-566.12927913876945
 20
47.886544773823132
 30
0.0
 11
-565.85679722226882
 21
47.447959672819451
 31
0.0
  0
LINE
  5
805
  8
0
  6
CONTINUOUS
 10
-567.02796880109884
 20
47.447959672819451
 30
0.0
 11
-564.10661818503297
 21
42.74577293151718
 31
0.0
  0
LINE
  5
806
  8
0
  6
CONTINUOUS
 10
-565.85679722226882
 20
47.447959672819451
 30
0.0
 11
-562.93544660620285
 21
42.74577293151718
 31
0.0
  0
LINE
  5
807
  8
0
  6
CONTINUOUS
 10
-564.10661818503297
 20
42.74577293151718
 30
0.0
 11
-563.72678055315191
 21
42.134388776990512
 31
0.0
  0
LINE
  5
808
  8
0
  6
CONTINUOUS
 10
-562.93544660620285
 20
42.74577293151718
 30
0.0
 11
-562.35470349060256
 21
42.134388776990512
 31
0.0
  0
LINE
  5
809
  8
0
  6
CONTINUOUS
 10
-563.72678055315191
 20
42.134388776990512
 30
0.0
 11
-560.13940340392105
 21
38.35773523356643
 31
0.0
  0
LINE
  5
80A
  8
0
  6
CONTINUOUS
 10
-562.35470349060256
 20
42.134388776990512
 30
0.0
 11
-558.76732634137215
 21
38.35773523356643
 31
0.0
  0
LINE
  5
80B
  8
0
  6
CONTINUOUS
 10
-560.13940340392105
 20
38.35773523356643
 30
0.0
 11
-559.41855540546965
 21
37.598854013562629
 31
0.0
  0
LINE
  5
80C
  8
0
  6
CONTINUOUS
 10
-558.76732634137215
 20
38.35773523356643
 30
0.0
 11
-557.88299740425259
 21
37.598854013562629
 31
0.0
  0
LINE
  5
80D
  8
0
  6
CONTINUOUS
 10
-559.41855540546965
 20
37.598854013562629
 30
0.0
 11
-556.40982853723301
 21
35.016934299544523
 31
0.0
  0
LINE
  5
80E
  8
0
  6
CONTINUOUS
 10
-557.88299740425259
 20
37.598854013562629
 30
0.0
 11
-554.87427053601596
 21
35.016934299544523
 31
0.0
  0
LINE
  5
80F
  8
0
  6
CONTINUOUS
 10
-556.40982853723301
 20
35.016934299544523
 30
0.0
 11
-555.52549960011333
 21
34.258053079540574
 31
0.0
  0
LINE
  5
810
  8
0
  6
CONTINUOUS
 10
-554.87427053601596
 20
35.016934299544523
 30
0.0
 11
-554.08631069543935
 21
34.258053079540574
 31
0.0
  0
LINE
  5
811
  8
0
  6
CONTINUOUS
 10
-555.52549960011333
 20
34.258053079540574
 30
0.0
 11
-554.89356305433239
 21
33.646127752762553
 31
0.0
  0
LINE
  5
812
  8
0
  6
CONTINUOUS
 10
-554.08631069543935
 20
34.258053079540574
 30
0.0
 11
-553.45093776720898
 21
33.646127752762553
 31
0.0
  0
LINE
  5
813
  8
0
  6
CONTINUOUS
 10
-554.89356305433239
 20
33.646127752762553
 30
0.0
 11
-553.90064184144592
 21
32.684648880054567
 31
0.0
  0
LINE
  5
814
  8
0
  6
CONTINUOUS
 10
-553.45093776720898
 20
33.646127752762553
 30
0.0
 11
-552.63399644702065
 21
32.684648880054567
 31
0.0
  0
LINE
  5
815
  8
0
  6
CONTINUOUS
 10
-553.90064184144592
 20
32.684648880054567
 30
0.0
 11
-553.01679938560005
 21
31.612444883402311
 31
0.0
  0
LINE
  5
816
  8
0
  6
CONTINUOUS
 10
-552.63399644702065
 20
32.684648880054567
 30
0.0
 11
-551.72297513038041
 21
31.612444883402311
 31
0.0
  0
LINE
  5
817
  8
0
  6
CONTINUOUS
 10
-553.01679938560005
 20
31.612444883402311
 30
0.0
 11
-552.52982372068197
 21
31.021686597528959
 31
0.0
  0
LINE
  5
818
  8
0
  6
CONTINUOUS
 10
-551.72297513038041
 20
31.612444883402311
 30
0.0
 11
-551.29043381281099
 21
31.021686597528959
 31
0.0
  0
LINE
  5
819
  8
0
  6
CONTINUOUS
 10
-552.52982372068197
 20
31.021686597528959
 30
0.0
 11
-552.25099161407979
 21
30.618155930787871
 31
0.0
  0
LINE
  5
81A
  8
0
  6
CONTINUOUS
 10
-551.29043381281099
 20
31.021686597528959
 30
0.0
 11
-550.99497678673845
 21
30.618155930787871
 31
0.0
  0
LINE
  5
81B
  8
0
  6
CONTINUOUS
 10
-552.25099161407979
 20
30.618155930787871
 30
0.0
 11
-551.89517232271919
 21
30.103208073341651
 31
0.0
  0
LINE
  5
81C
  8
0
  6
CONTINUOUS
 10
-550.99497678673845
 20
30.618155930787871
 30
0.0
 11
-550.71289155138277
 21
30.103208073341651
 31
0.0
  0
LINE
  5
81D
  8
0
  6
CONTINUOUS
 10
-551.89517232271919
 20
30.103208073341651
 30
0.0
 11
-551.64511135739815
 21
29.74131550188881
 31
0.0
  0
LINE
  5
81E
  8
0
  6
CONTINUOUS
 10
-550.71289155138277
 20
30.103208073341651
 30
0.0
 11
-550.62454257538479
 21
29.74131550188881
 31
0.0
  0
LINE
  5
81F
  8
0
  6
CONTINUOUS
 10
-551.64511135739815
 20
29.74131550188881
 30
0.0
 11
-551.62432025513408
 21
29.656151578066378
 31
0.0
  0
LINE
  5
820
  8
0
  6
CONTINUOUS
 10
-550.62454257538479
 20
29.74131550188881
 30
0.0
 11
-550.60375147312084
 21
29.656151578066378
 31
0.0
  0
LINE
  5
821
  8
0
  6
CONTINUOUS
 10
-551.62432025513408
 20
29.656151578066378
 30
0.0
 11
-551.56774958541087
 21
29.424428404099391
 31
0.0
  0
LINE
  5
822
  8
0
  6
CONTINUOUS
 10
-550.60375147312084
 20
29.656151578066378
 30
0.0
 11
-550.59819097766024
 21
29.424428404099391
 31
0.0
  0
LINE
  5
823
  8
0
  6
CONTINUOUS
 10
-551.56774958541087
 20
29.424428404099391
 30
0.0
 11
-551.57500820101677
 21
29.098315557051119
 31
0.0
  0
LINE
  5
824
  8
0
  6
CONTINUOUS
 10
-550.59819097766024
 20
29.424428404099391
 30
0.0
 11
-550.59036548064762
 21
29.098315557051119
 31
0.0
  0
LINE
  5
825
  8
0
  6
CONTINUOUS
 10
-551.57500820101677
 20
29.098315557051119
 30
0.0
 11
-551.59854199383449
 21
28.945808172633509
 31
0.0
  0
LINE
  5
826
  8
0
  6
CONTINUOUS
 10
-550.59036548064762
 20
29.098315557051119
 30
0.0
 11
-550.58670586989638
 21
28.945808172633509
 31
0.0
  0
LINE
  5
827
  8
0
  6
CONTINUOUS
 10
-551.59854199383449
 20
28.945808172633509
 30
0.0
 11
-552.04990586115457
 21
26.02080907203587
 31
0.0
  0
LINE
  5
828
  8
0
  6
CONTINUOUS
 10
-550.58670586989638
 20
28.945808172633509
 30
0.0
 11
-551.03806973721646
 21
26.02080907203587
 31
0.0
  0
LINE
  5
829
  8
0
  6
CONTINUOUS
 10
-552.04990586115457
 20
26.02080907203587
 30
0.0
 11
-552.05695908776886
 21
25.868301687618271
 31
0.0
  0
LINE
  5
82A
  8
0
  6
CONTINUOUS
 10
-551.03806973721646
 20
26.02080907203587
 30
0.0
 11
-551.06160353003418
 21
25.868301687618271
 31
0.0
  0
LINE
  5
82B
  8
0
  6
CONTINUOUS
 10
-552.05695908776886
 20
25.868301687618271
 30
0.0
 11
-552.10378257093748
 21
24.855867614842811
 31
0.0
  0
LINE
  5
82C
  8
0
  6
CONTINUOUS
 10
-551.06160353003418
 20
25.868301687618271
 30
0.0
 11
-551.1084270132028
 21
24.855867614842811
 31
0.0
  0
LINE
  5
82D
  8
0
  6
CONTINUOUS
 10
-552.10378257093748
 20
24.855867614842811
 30
0.0
 11
-552.10658691972696
 21
24.795230983939081
 31
0.0
  0
LINE
  5
82E
  8
0
  6
CONTINUOUS
 10
-551.1084270132028
 20
24.855867614842811
 30
0.0
 11
-551.09817037197604
 21
24.795230983939081
 31
0.0
  0
LINE
  5
82F
  8
0
  6
CONTINUOUS
 10
-552.10658691972696
 20
24.795230983939081
 30
0.0
 11
-551.9478091455278
 21
23.85654656698355
 31
0.0
  0
LINE
  5
830
  8
0
  6
CONTINUOUS
 10
-551.09817037197604
 20
24.795230983939081
 30
0.0
 11
-550.93939259777676
 21
23.85654656698355
 31
0.0
  0
LINE
  5
831
  8
0
  6
CONTINUOUS
 10
-551.9478091455278
 20
23.85654656698355
 30
0.0
 11
-551.90196631157971
 21
23.58552655758324
 31
0.0
  0
LINE
  5
832
  8
0
  6
CONTINUOUS
 10
-550.93939259777676
 20
23.85654656698355
 30
0.0
 11
-550.83072183541071
 21
23.58552655758324
 31
0.0
  0
LINE
  5
833
  8
0
  6
CONTINUOUS
 10
-551.90196631157971
 20
23.58552655758324
 30
0.0
 11
-551.63344048155261
 21
22.91583517607782
 31
0.0
  0
LINE
  5
834
  8
0
  6
CONTINUOUS
 10
-550.83072183541071
 20
23.58552655758324
 30
0.0
 11
-550.56219600538338
 21
22.91583517607782
 31
0.0
  0
LINE
  5
835
  8
0
  6
CONTINUOUS
 10
-551.63344048155261
 20
22.91583517607782
 30
0.0
 11
-551.44535991026146
 21
22.446770663328781
 31
0.0
  0
LINE
  5
836
  8
0
  6
CONTINUOUS
 10
-550.56219600538338
 20
22.91583517607782
 30
0.0
 11
-550.3130672582671
 21
22.446770663328781
 31
0.0
  0
LINE
  5
837
  8
0
  6
CONTINUOUS
 10
-461.05000000000098
 20
82.163337687424175
 30
0.0
 11
-461.05000000000098
 21
20.646774167514959
 31
0.0
  0
LINE
  5
838
  8
0
  6
CONTINUOUS
 10
-460.05000000000098
 20
82.163337687424175
 30
0.0
 11
-460.05000000000098
 21
20.646774167514959
 31
0.0
  0
LINE
  5
839
  8
0
  6
CONTINUOUS
 10
-461.05000000000098
 20
20.646774167514959
 30
0.0
 11
-461.10962980399512
 21
20.193840838585569
 31
0.0
  0
LINE
  5
83A
  8
0
  6
CONTINUOUS
 10
-460.05000000000098
 20
20.646774167514959
 30
0.0
 11
-460.10962980399518
 21
20.193840838585569
 31
0.0
  0
LINE
  5
83B
  8
0
  6
CONTINUOUS
 10
-551.44535991026146
 20
22.446770663328781
 30
0.0
 11
-550.21395194822708
 21
20.128251494452051
 31
0.0
  0
LINE
  5
83C
  8
0
  6
CONTINUOUS
 10
-550.3130672582671
 20
22.446770663328781
 30
0.0
 11
-549.08165929623283
 21
20.128251494452051
 31
0.0
  0
LINE
  5
83D
  8
0
  6
CONTINUOUS
 10
-461.10962980399512
 20
20.193840838585569
 30
0.0
 11
-461.216836162677
 21
19.935021793483092
 31
0.0
  0
LINE
  5
83E
  8
0
  6
CONTINUOUS
 10
-460.10962980399518
 20
20.193840838585569
 30
0.0
 11
-460.14370397770608
 21
19.935021793483092
 31
0.0
  0
LINE
  5
83F
  8
0
  6
CONTINUOUS
 10
-461.216836162677
 20
19.935021793483092
 30
0.0
 11
-461.28445554337821
 21
19.771774167515161
 31
0.0
  0
LINE
  5
840
  8
0
  6
CONTINUOUS
 10
-460.14370397770608
 20
19.935021793483092
 30
0.0
 11
-460.21132335840718
 21
19.771774167515161
 31
0.0
  0
LINE
  5
841
  8
0
  6
CONTINUOUS
 10
-550.21395194822708
 20
20.128251494452051
 30
0.0
 11
-549.88721029220915
 21
19.513055867897599
 31
0.0
  0
LINE
  5
842
  8
0
  6
CONTINUOUS
 10
-549.08165929623283
 20
20.128251494452051
 30
0.0
 11
-548.70865424085434
 21
19.513055867897599
 31
0.0
  0
LINE
  5
843
  8
0
  6
CONTINUOUS
 10
-461.28445554337821
 20
19.771774167515161
 30
0.0
 11
-461.56256313292431
 21
19.409337300438828
 31
0.0
  0
LINE
  5
844
  8
0
  6
CONTINUOUS
 10
-460.21132335840718
 20
19.771774167515161
 30
0.0
 11
-460.36144962425419
 21
19.409337300438828
 31
0.0
  0
LINE
  5
845
  8
0
  6
CONTINUOUS
 10
-549.88721029220915
 20
19.513055867897599
 30
0.0
 11
-549.80424477485496
 21
19.356846757455038
 31
0.0
  0
LINE
  5
846
  8
0
  6
CONTINUOUS
 10
-548.70865424085434
 20
19.513055867897599
 30
0.0
 11
-548.54357446936444
 21
19.356846757455038
 31
0.0
  0
LINE
  5
847
  8
0
  6
CONTINUOUS
 10
-461.56256313292431
 20
19.409337300438828
 30
0.0
 11
-461.74183889811792
 21
19.27177416751514
 31
0.0
  0
LINE
  5
848
  8
0
  6
CONTINUOUS
 10
-460.36144962425419
 20
19.409337300438828
 30
0.0
 11
-460.4184301395938
 21
19.27177416751514
 31
0.0
  0
LINE
  5
849
  8
0
  6
CONTINUOUS
 10
-549.80424477485496
 20
19.356846757455038
 30
0.0
 11
-549.73382826771285
 21
19.25313949268331
 31
0.0
  0
LINE
  5
84A
  8
0
  6
CONTINUOUS
 10
-548.54357446936444
 20
19.356846757455038
 30
0.0
 11
-548.43397797065938
 21
19.25313949268331
 31
0.0
  0
LINE
  5
84B
  8
0
  6
CONTINUOUS
 10
-461.74183889811792
 20
19.27177416751514
 30
0.0
 11
-461.92500000000081
 21
19.131229710892459
 31
0.0
  0
LINE
  5
84C
  8
0
  6
CONTINUOUS
 10
-460.4184301395938
 20
19.27177416751514
 30
0.0
 11
-460.5262736941711
 21
19.131229710892459
 31
0.0
  0
LINE
  5
84D
  8
0
  6
CONTINUOUS
 10
-549.73382826771285
 20
19.25313949268331
 30
0.0
 11
-549.60153290348728
 21
19.05829895141494
 31
0.0
  0
LINE
  5
84E
  8
0
  6
CONTINUOUS
 10
-548.43397797065938
 20
19.25313949268331
 30
0.0
 11
-548.10987808020752
 21
19.05829895141494
 31
0.0
  0
LINE
  5
84F
  8
0
  6
CONTINUOUS
 10
-461.92500000000081
 20
19.131229710892459
 30
0.0
 11
-462.34706667107122
 21
18.956403971509442
 31
0.0
  0
LINE
  5
850
  8
0
  6
CONTINUOUS
 10
-460.5262736941711
 20
19.131229710892459
 30
0.0
 11
-460.6604222021931
 21
18.956403971509442
 31
0.0
  0
LINE
  5
851
  8
0
  6
CONTINUOUS
 10
-462.34706667107122
 20
18.956403971509442
 30
0.0
 11
-462.48965142947532
 21
18.937632331947668
 31
0.0
  0
LINE
  5
852
  8
0
  6
CONTINUOUS
 10
-460.6604222021931
 20
18.956403971509442
 30
0.0
 11
-460.67482618783748
 21
18.937632331947668
 31
0.0
  0
LINE
  5
853
  8
0
  6
CONTINUOUS
 10
-549.60153290348728
 20
19.05829895141494
 30
0.0
 11
-549.51960111317123
 21
18.937632331947668
 31
0.0
  0
LINE
  5
854
  8
0
  6
CONTINUOUS
 10
-548.10987808020752
 20
19.05829895141494
 30
0.0
 11
-547.75148842848876
 21
18.937632331947668
 31
0.0
  0
LINE
  5
855
  8
0
  6
CONTINUOUS
 10
-460.67482618783748
 20
18.937632331947668
 30
0.0
 11
-460.70617776008572
 21
18.89677416751536
 31
0.0
  0
LINE
  5
856
  8
0
  6
CONTINUOUS
 10
-549.51960111317123
 20
18.937632331947668
 30
0.0
 11
-549.49185870540555
 21
18.89677416751536
 31
0.0
  0
LINE
  5
857
  8
0
  6
CONTINUOUS
 10
-549.49185870540555
 20
18.89677416751536
 30
0.0
 11
-549.47043150051945
 21
18.86521683954469
 31
0.0
  0
LINE
  5
858
  8
0
  6
CONTINUOUS
 10
-460.70617776008572
 20
18.89677416751536
 30
0.0
 11
-460.73039254950601
 21
18.86521683954469
 31
0.0
  0
LINE
  5
859
  8
0
  6
CONTINUOUS
 10
-549.47043150051945
 20
18.86521683954469
 30
0.0
 11
-549.29818966114385
 21
18.70223051925224
 31
0.0
  0
LINE
  5
85A
  8
0
  6
CONTINUOUS
 10
-460.73039254950601
 20
18.86521683954469
 30
0.0
 11
-460.85545635173793
 21
18.70223051925224
 31
0.0
  0
LINE
  5
85B
  8
0
  6
CONTINUOUS
 10
-549.29818966114385
 20
18.70223051925224
 30
0.0
 11
-549.03879736164174
 21
18.456776821350701
 31
0.0
  0
LINE
  5
85C
  8
0
  6
CONTINUOUS
 10
-460.85545635173793
 20
18.70223051925224
 30
0.0
 11
-461.1753378387009
 21
18.456776821350701
 31
0.0
  0
LINE
  5
85D
  8
0
  6
CONTINUOUS
 10
-549.03879736164174
 20
18.456776821350701
 30
0.0
 11
-548.72013354313935
 21
18.265204307108121
 31
0.0
  0
LINE
  5
85E
  8
0
  6
CONTINUOUS
 10
-461.1753378387009
 20
18.456776821350701
 30
0.0
 11
-461.42500000000092
 21
18.265204307108121
 31
0.0
  0
LINE
  5
85F
  8
0
  6
CONTINUOUS
 10
-548.72013354313935
 20
18.265204307108121
 30
0.0
 11
-548.52949753378834
 21
18.150598827928938
 31
0.0
  0
LINE
  5
860
  8
0
  6
CONTINUOUS
 10
-461.42500000000092
 20
18.265204307108121
 30
0.0
 11
-461.70168210215752
 21
18.150598827928938
 31
0.0
  0
LINE
  5
861
  8
0
  6
CONTINUOUS
 10
-548.52949753378834
 20
18.150598827928938
 30
0.0
 11
-548.05392611261016
 21
17.990478145220489
 31
0.0
  0
LINE
  5
862
  8
0
  6
CONTINUOUS
 10
-461.70168210215752
 20
18.150598827928938
 30
0.0
 11
-462.08824762596868
 21
17.990478145220489
 31
0.0
  0
LINE
  5
863
  8
0
  6
CONTINUOUS
 10
-548.05392611261016
 20
17.990478145220489
 30
0.0
 11
-547.96631379537325
 21
17.9609798544803
 31
0.0
  0
LINE
  5
864
  8
0
  6
CONTINUOUS
 10
-462.08824762596868
 20
17.990478145220489
 30
0.0
 11
-462.31230938917662
 21
17.9609798544803
 31
0.0
  0
LINE
  5
865
  8
0
  6
CONTINUOUS
 10
-547.96631379537325
 20
17.9609798544803
 30
0.0
 11
-547.37554403644117
 21
17.896774167515321
 31
0.0
  0
LINE
  5
866
  8
0
  6
CONTINUOUS
 10
-462.31230938917662
 20
17.9609798544803
 30
0.0
 11
-462.80000000000058
 21
17.896774167515321
 31
0.0
  0
ENDBLK
  5
868
  8
0
  0
BLOCK
  8
0
  2
*X46
 70
     1
 10
0.0
 20
0.0
 30
0.0
  3
*X46
  1

  0
LINE
  5
86A
  8
0
 62
     0
 10
-65.000000000000483
 20
-224.99954087428651
 30
0.0
 11
-25.000000000000629
 21
-224.99954087428651
 31
0.0
  0
LINE
  5
86B
  8
0
 62
     0
 10
-65.00000000000054
 20
-209.99954087428651
 30
0.0
 11
-25.000000000000679
 21
-209.99954087428651
 31
0.0
  0
LINE
  5
86C
  8
0
 62
     0
 10
-65.000000000000597
 20
-194.99954087428651
 30
0.0
 11
-25.000000000000728
 21
-194.99954087428651
 31
0.0
  0
LINE
  5
86D
  8
0
 62
     0
 10
-65.000000000000625
 20
-179.99954087428651
 30
0.0
 11
-25.000000000000771
 21
-179.99954087428651
 31
0.0
  0
LINE
  5
86E
  8
0
 62
     0
 10
-65.000000000000696
 20
-164.99954087428651
 30
0.0
 11
-25.000000000000821
 21
-164.99954087428651
 31
0.0
  0
LINE
  5
86F
  8
0
 62
     0
 10
-65.000000000000753
 20
-149.99954087428651
 30
0.0
 11
-25.00000000000087
 21
-149.99954087428651
 31
0.0
  0
LINE
  5
870
  8
0
 62
     0
 10
-65.00000000000081
 20
-134.99954087428651
 30
0.0
 11
-25.000000000000909
 21
-134.99954087428651
 31
0.0
  0
LINE
  5
871
  8
0
 62
     0
 10
-65.000000000000867
 20
-119.9995408742865
 30
0.0
 11
-25.000000000000959
 21
-119.9995408742865
 31
0.0
  0
LINE
  5
872
  8
0
 62
     0
 10
-65.000000000000924
 20
-104.9995408742865
 30
0.0
 11
-25.000000000000998
 21
-104.9995408742865
 31
0.0
  0
LINE
  5
873
  8
0
 62
     0
 10
-65.000000000000981
 20
-89.99954087428651
 30
0.0
 11
-25.000000000001052
 21
-89.99954087428651
 31
0.0
  0
LINE
  5
874
  8
0
 62
     0
 10
-65.000000000001023
 20
-74.99954087428651
 30
0.0
 11
-25.000000000001101
 21
-74.99954087428651
 31
0.0
  0
LINE
  5
875
  8
0
 62
     0
 10
-65.000000000001094
 20
-59.99954087428651
 30
0.0
 11
-25.00000000000114
 21
-59.99954087428651
 31
0.0
  0
LINE
  5
876
  8
0
 62
     0
 10
-65.000000000001151
 20
-44.999540874286502
 30
0.0
 11
-25.00000000000119
 21
-44.999540874286502
 31
0.0
  0
LINE
  5
877
  8
0
 62
     0
 10
-65.000000000001194
 20
-29.99954087428651
 30
0.0
 11
-25.000000000001229
 21
-29.99954087428651
 31
0.0
  0
LINE
  5
878
  8
0
 62
     0
 10
-65.000000000001251
 20
-14.99954087428651
 30
0.0
 11
-25.000000000001279
 21
-14.99954087428651
 31
0.0
  0
ENDBLK
  5
87A
  8
0
  0
BLOCK
  8
0
  2
*U47
 70
     1
 10
0.0
 20
0.0
 30
0.0
  3
*U47
  1

  0
SOLID
  5
87C
  8
0
  6
CONTINUOUS
 10
183.6423656488175
 20
376.1754039981181
 30
0.0
 11
180.05440722521311
 21
375.10694855443143
 31
0.0
 12
183.55821923020329
 22
375.10694855443143
 32
0.0
 13
183.55821923020329
 23
375.10694855443143
 33
0.0
210
0.0
220
0.0
230
1.0
  0
SOLID
  5
87D
  8
0
  6
CONTINUOUS
 10
180.05440722521311
 20
375.10694855443143
 30
0.0
 11
40.039725303755397
 21
333.41208160423008
 31
0.0
 12
43.54353730874854
 22
333.41208160423008
 32
0.0
 13
43.54353730874854
 23
333.41208160423008
 33
0.0
210
0.0
220
0.0
230
1.0
  0
SOLID
  5
87E
  8
0
  6
CONTINUOUS
 10
-180.05440722521311
 20
375.10694855443143
 30
0.0
 11
-183.55821923020329
 21
375.10694855443143
 31
0.0
 12
-43.54353730874854
 22
333.41208160423008
 32
0.0
 13
-43.54353730874854
 23
333.41208160423008
 33
0.0
210
0.0
220
0.0
230
-1.0
  0
SOLID
  5
87F
  8
0
  6
CONTINUOUS
 10
40.039725303755397
 20
333.41208160423008
 30
0.0
 11
36.125258028443611
 21
332.4468696451205
 31
0.0
 12
40.30227872401823
 22
332.4468696451205
 32
0.0
 13
40.30227872401823
 23
332.4468696451205
 33
0.0
210
0.0
220
0.0
230
1.0
  0
SOLID
  5
880
  8
0
  6
CONTINUOUS
 10
-40.039725303755397
 20
333.41208160423008
 30
0.0
 11
-43.54353730874854
 21
333.41208160423008
 31
0.0
 12
-40.30227872401823
 22
332.4468696451205
 32
0.0
 13
-40.30227872401823
 23
332.4468696451205
 33
0.0
210
0.0
220
0.0
230
-1.0
  0
SOLID
  5
881
  8
0
  6
CONTINUOUS
 10
36.125258028443611
 20
332.4468696451205
 30
0.0
 11
-132.31896167821361
 21
290.91264190251752
 31
0.0
 12
-128.14194098263891
 22
290.91264190251752
 32
0.0
 13
-128.14194098263891
 23
290.91264190251752
 33
0.0
210
0.0
220
0.0
230
1.0
  0
SOLID
  5
882
  8
0
  6
CONTINUOUS
 10
-36.125258028443611
 20
332.4468696451205
 30
0.0
 11
-40.302278724018237
 21
332.4468696451205
 31
0.0
 12
128.14194098263891
 22
290.91264190251752
 32
0.0
 13
128.14194098263891
 23
290.91264190251752
 33
0.0
210
0.0
220
0.0
230
-1.0
  0
SOLID
  5
883
  8
0
  6
CONTINUOUS
 10
-132.31896167821361
 20
290.91264190251752
 30
0.0
 11
-133.3184860672693
 21
290.00245685442837
 31
0.0
 12
-131.8332437598128
 22
290.00245685442837
 32
0.0
 13
-131.8332437598128
 23
290.00245685442837
 33
0.0
210
0.0
220
0.0
230
1.0
  0
SOLID
  5
884
  8
0
  6
CONTINUOUS
 10
132.31896167821361
 20
290.91264190251752
 30
0.0
 11
128.14194098263891
 21
290.91264190251752
 31
0.0
 12
131.8332437598128
 22
290.00245685442837
 32
0.0
 13
131.8332437598128
 23
290.00245685442837
 33
0.0
210
0.0
220
0.0
230
-1.0
  0
SOLID
  5
885
  8
0
  6
CONTINUOUS
 10
-133.3184860672693
 20
290.00245685442837
 30
0.0
 11
-139.6354375314117
 21
284.2501262108521
 31
0.0
 12
-138.15019522395511
 22
284.2501262108521
 32
0.0
 13
-138.15019522395511
 23
284.2501262108521
 33
0.0
210
0.0
220
0.0
230
1.0
  0
SOLID
  5
886
  8
0
  6
CONTINUOUS
 10
133.3184860672693
 20
290.00245685442837
 30
0.0
 11
131.8332437598128
 21
290.00245685442837
 31
0.0
 12
138.15019522395511
 22
284.2501262108521
 32
0.0
 13
138.15019522395511
 23
284.2501262108521
 33
0.0
210
0.0
220
0.0
230
-1.0
  0
SOLID
  5
887
  8
0
  6
CONTINUOUS
 10
-139.6354375314117
 20
284.2501262108521
 30
0.0
 11
-139.84361172713261
 21
283.67687340778872
 31
0.0
 12
-138.77971573625021
 22
283.67687340778872
 32
0.0
 13
-138.77971573625021
 23
283.67687340778872
 33
0.0
210
0.0
220
0.0
230
1.0
  0
SOLID
  5
888
  8
0
  6
CONTINUOUS
 10
139.6354375314117
 20
284.2501262108521
 30
0.0
 11
138.15019522395511
 21
284.2501262108521
 31
0.0
 12
138.77971573625021
 22
283.67687340778872
 32
0.0
 13
138.77971573625021
 23
283.67687340778872
 33
0.0
210
0.0
220
0.0
230
-1.0
  0
SOLID
  5
889
  8
0
  6
CONTINUOUS
 10
-139.84361172713261
 20
283.67687340778872
 30
0.0
 11
-142.4267315654609
 21
276.56369262741919
 31
0.0
 12
-141.3628355745785
 22
276.56369262741919
 32
0.0
 13
-141.3628355745785
 23
276.56369262741919
 33
0.0
210
0.0
220
0.0
230
1.0
  0
SOLID
  5
88A
  8
0
  6
CONTINUOUS
 10
139.84361172713261
 20
283.67687340778872
 30
0.0
 11
138.77971573625021
 21
283.67687340778872
 31
0.0
 12
141.3628355745785
 22
276.56369262741919
 32
0.0
 13
141.3628355745785
 23
276.56369262741919
 33
0.0
210
0.0
220
0.0
230
-1.0
  0
SOLID
  5
88B
  8
0
  6
CONTINUOUS
 10
-142.4267315654609
 20
276.56369262741919
 30
0.0
 11
-142.41096260830639
 21
276.46943027222778
 31
0.0
 12
-141.39706652796221
 22
276.46943027222778
 32
0.0
 13
-141.39706652796221
 23
276.46943027222778
 33
0.0
  0
SOLID
  5
88C
  8
0
  6
CONTINUOUS
 10
142.4267315654609
 20
276.56369262741919
 30
0.0
 11
141.3628355745785
 21
276.56369262741919
 31
0.0
 12
141.39706652796221
 22
276.46943027222778
 32
0.0
 13
141.39706652796221
 23
276.46943027222778
 33
0.0
210
0.0
220
0.0
230
-1.0
  0
SOLID
  5
88D
  8
0
  6
CONTINUOUS
 10
-142.41096260830639
 20
276.46943027222778
 30
0.0
 11
-141.29580971254609
 21
269.80336241987209
 31
0.0
 12
-140.28191363220191
 22
269.80336241987209
 32
0.0
 13
-140.28191363220191
 23
269.80336241987209
 33
0.0
210
0.0
220
0.0
230
1.0
  0
SOLID
  5
88E
  8
0
  6
CONTINUOUS
 10
142.41096260830639
 20
276.46943027222778
 30
0.0
 11
141.39706652796221
 21
276.46943027222778
 31
0.0
 12
140.28191363220191
 22
269.80336241987209
 32
0.0
 13
140.28191363220191
 23
269.80336241987209
 33
0.0
210
0.0
220
0.0
230
-1.0
  0
SOLID
  5
88F
  8
0
  6
CONTINUOUS
 10
141.1097762094881
 20
268.69130688119998
 30
0.0
 11
140.09588012914389
 21
268.69130688119998
 31
0.0
 12
141.0832989371516
 22
268.53303325377982
 32
0.0
 13
141.0832989371516
 23
268.53303325377982
 33
0.0
210
0.0
220
0.0
230
-1.0
  0
SOLID
  5
890
  8
0
  6
CONTINUOUS
 10
-141.29580971254609
 20
269.80336241987209
 30
0.0
 11
-141.1097762094881
 21
268.69130688119998
 31
0.0
 12
-140.09588012914389
 22
268.69130688119998
 32
0.0
 13
-140.09588012914389
 23
268.69130688119998
 33
0.0
210
0.0
220
0.0
230
1.0
  0
SOLID
  5
891
  8
0
  6
CONTINUOUS
 10
141.29580971254609
 20
269.80336241987209
 30
0.0
 11
140.28191363220191
 21
269.80336241987209
 31
0.0
 12
140.09588012914389
 22
268.69130688119998
 32
0.0
 13
140.09588012914389
 23
268.69130688119998
 33
0.0
210
0.0
220
0.0
230
-1.0
  0
SOLID
  5
892
  8
0
  6
CONTINUOUS
 10
-139.93088112337901
 20
267.70498960382872
 30
0.0
 11
-140.918299931387
 21
267.54671597640851
 31
0.0
 12
-139.90440385104259
 22
267.54671597640851
 32
0.0
 13
-139.90440385104259
 23
267.54671597640851
 33
0.0
  0
SOLID
  5
893
  8
0
  6
CONTINUOUS
 10
-140.918299931387
 20
267.54671597640851
 30
0.0
 11
-140.9027185985185
 21
267.45357518600599
 31
0.0
 12
-139.88882251817421
 22
267.45357518600599
 32
0.0
 13
-139.88882251817421
 23
267.45357518600599
 33
0.0
210
0.0
220
0.0
230
1.0
  0
SOLID
  5
894
  8
0
  6
CONTINUOUS
 10
140.918299931387
 20
267.54671597640851
 30
0.0
 11
139.90440385104259
 21
267.54671597640851
 31
0.0
 12
139.88882251817421
 22
267.45357518600599
 32
0.0
 13
139.88882251817421
 23
267.45357518600599
 33
0.0
210
0.0
220
0.0
230
-1.0
  0
SOLID
  5
895
  8
0
  6
CONTINUOUS
 10
139.43362839174111
 20
258.67177043363318
 30
0.0
 11
138.41973231139681
 21
258.67177043363318
 31
0.0
 12
139.40602668553069
 22
258.50677525930439
 32
0.0
 13
139.40602668553069
 23
258.50677525930439
 33
0.0
210
0.0
220
0.0
230
-1.0
  0
SOLID
  5
896
  8
0
  6
CONTINUOUS
 10
-140.9027185985185
 20
267.45357518600599
 30
0.0
 11
-139.43362839174111
 21
258.67177043363318
 31
0.0
 12
-138.41973231139681
 22
258.67177043363318
 32
0.0
 13
-138.41973231139681
 23
258.67177043363318
 33
0.0
210
0.0
220
0.0
230
1.0
  0
SOLID
  5
897
  8
0
  6
CONTINUOUS
 10
140.9027185985185
 20
267.45357518600599
 30
0.0
 11
139.88882251817421
 21
267.45357518600599
 31
0.0
 12
138.41973231139681
 22
258.67177043363318
 32
0.0
 13
138.41973231139681
 23
258.67177043363318
 33
0.0
210
0.0
220
0.0
230
-1.0
  0
LINE
  5
898
  8
0
  6
CONTINUOUS
 10
183.6423656488175
 20
376.1754039981181
 30
0.0
 11
180.05440722521311
 21
375.10694855443143
 31
0.0
  0
LINE
  5
899
  8
0
  6
CONTINUOUS
 10
183.55821923020329
 20
375.10694855443143
 30
0.0
 11
183.6423656488175
 21
376.1754039981181
 31
0.0
  0
LINE
  5
89A
  8
0
  6
CONTINUOUS
 10
180.05440722521311
 20
375.10694855443143
 30
0.0
 11
40.039725303755397
 21
333.41208160423008
 31
0.0
  0
LINE
  5
89B
  8
0
  6
CONTINUOUS
 10
183.55821923020329
 20
375.10694855443143
 30
0.0
 11
43.54353730874854
 21
333.41208160423008
 31
0.0
  0
LINE
  5
89C
  8
0
  6
CONTINUOUS
 10
40.039725303755397
 20
333.41208160423008
 30
0.0
 11
36.125258028443611
 21
332.4468696451205
 31
0.0
  0
LINE
  5
89D
  8
0
  6
CONTINUOUS
 10
43.54353730874854
 20
333.41208160423008
 30
0.0
 11
40.30227872401823
 21
332.4468696451205
 31
0.0
  0
LINE
  5
89E
  8
0
  6
CONTINUOUS
 10
36.125258028443611
 20
332.4468696451205
 30
0.0
 11
-132.31896167821361
 21
290.91264190251752
 31
0.0
  0
LINE
  5
89F
  8
0
  6
CONTINUOUS
 10
40.302278724018237
 20
332.4468696451205
 30
0.0
 11
-128.14194098263891
 21
290.91264190251752
 31
0.0
  0
LINE
  5
8A0
  8
0
  6
CONTINUOUS
 10
-132.31896167821361
 20
290.91264190251752
 30
0.0
 11
-133.3184860672693
 21
290.00245685442837
 31
0.0
  0
LINE
  5
8A1
  8
0
  6
CONTINUOUS
 10
-128.14194098263891
 20
290.91264190251752
 30
0.0
 11
-131.8332437598128
 21
290.00245685442837
 31
0.0
  0
LINE
  5
8A2
  8
0
  6
CONTINUOUS
 10
-133.3184860672693
 20
290.00245685442837
 30
0.0
 11
-139.6354375314117
 21
284.2501262108521
 31
0.0
  0
LINE
  5
8A3
  8
0
  6
CONTINUOUS
 10
-131.8332437598128
 20
290.00245685442837
 30
0.0
 11
-138.15019522395511
 21
284.2501262108521
 31
0.0
  0
LINE
  5
8A4
  8
0
  6
CONTINUOUS
 10
-139.6354375314117
 20
284.2501262108521
 30
0.0
 11
-139.84361172713261
 21
283.67687340778872
 31
0.0
  0
LINE
  5
8A5
  8
0
  6
CONTINUOUS
 10
-138.15019522395511
 20
284.2501262108521
 30
0.0
 11
-138.77971573625021
 21
283.67687340778872
 31
0.0
  0
LINE
  5
8A6
  8
0
  6
CONTINUOUS
 10
-139.84361172713261
 20
283.67687340778872
 30
0.0
 11
-142.4267315654609
 21
276.56369262741919
 31
0.0
  0
LINE
  5
8A7
  8
0
  6
CONTINUOUS
 10
-138.77971573625021
 20
283.67687340778872
 30
0.0
 11
-141.3628355745785
 21
276.56369262741919
 31
0.0
  0
LINE
  5
8A8
  8
0
  6
CONTINUOUS
 10
-142.4267315654609
 20
276.56369262741919
 30
0.0
 11
-142.41096260830639
 21
276.46943027222778
 31
0.0
  0
LINE
  5
8A9
  8
0
  6
CONTINUOUS
 10
-141.3628355745785
 20
276.56369262741919
 30
0.0
 11
-141.39706652796221
 21
276.46943027222778
 31
0.0
  0
LINE
  5
8AA
  8
0
  6
CONTINUOUS
 10
-142.41096260830639
 20
276.46943027222778
 30
0.0
 11
-141.29580971254609
 21
269.80336241987209
 31
0.0
  0
LINE
  5
8AB
  8
0
  6
CONTINUOUS
 10
-141.39706652796221
 20
276.46943027222778
 30
0.0
 11
-140.28191363220191
 21
269.80336241987209
 31
0.0
  0
LINE
  5
8AC
  8
0
  6
CONTINUOUS
 10
-140.09588012914389
 20
268.69130688119998
 30
0.0
 11
-141.0832989371516
 21
268.53303325377982
 31
0.0
  0
LINE
  5
8AD
  8
0
  6
CONTINUOUS
 10
-141.0832989371516
 20
268.53303325377982
 30
0.0
 11
-141.1097762094881
 21
268.69130688119998
 31
0.0
  0
LINE
  5
8AE
  8
0
  6
CONTINUOUS
 10
-141.29580971254609
 20
269.80336241987209
 30
0.0
 11
-141.1097762094881
 21
268.69130688119998
 31
0.0
  0
LINE
  5
8AF
  8
0
  6
CONTINUOUS
 10
-140.28191363220191
 20
269.80336241987209
 30
0.0
 11
-140.09588012914389
 21
268.69130688119998
 31
0.0
  0
LINE
  5
8B0
  8
0
  6
CONTINUOUS
 10
-139.93088112337901
 20
267.70498960382872
 30
0.0
 11
-140.918299931387
 21
267.54671597640851
 31
0.0
  0
LINE
  5
8B1
  8
0
  6
CONTINUOUS
 10
-139.90440385104259
 20
267.54671597640851
 30
0.0
 11
-139.93088112337901
 21
267.70498960382872
 31
0.0
  0
LINE
  5
8B2
  8
0
  6
CONTINUOUS
 10
-140.918299931387
 20
267.54671597640851
 30
0.0
 11
-140.9027185985185
 21
267.45357518600599
 31
0.0
  0
LINE
  5
8B3
  8
0
  6
CONTINUOUS
 10
-139.90440385104259
 20
267.54671597640851
 30
0.0
 11
-139.88882251817421
 21
267.45357518600599
 31
0.0
  0
LINE
  5
8B4
  8
0
  6
CONTINUOUS
 10
-138.41973231139681
 20
258.67177043363318
 30
0.0
 11
-139.40602668553069
 21
258.50677525930439
 31
0.0
  0
LINE
  5
8B5
  8
0
  6
CONTINUOUS
 10
-139.40602668553069
 20
258.50677525930439
 30
0.0
 11
-139.43362839174111
 21
258.67177043363318
 31
0.0
  0
LINE
  5
8B6
  8
0
  6
CONTINUOUS
 10
-140.9027185985185
 20
267.45357518600599
 30
0.0
 11
-139.43362839174111
 21
258.67177043363318
 31
0.0
  0
LINE
  5
8B7
  8
0
  6
CONTINUOUS
 10
-139.88882251817421
 20
267.45357518600599
 30
0.0
 11
-138.41973231139681
 21
258.67177043363318
 31
0.0
  0
ENDBLK
  5
8B9
  8
0
  0
BLOCK
  8
0
  2
*U48
 70
     1
 10
0.0
 20
0.0
 30
0.0
  3
*U48
  1

  0
SOLID
  5
8BB
  8
0
  6
CONTINUOUS
 10
-111.22440200233881
 20
286.36325899789909
 30
0.0
 11
-114.8059730987645
 21
285.39772864351511
 31
0.0
 12
-110.9641115208326
 22
285.39772864351511
 32
0.0
 13
-110.9641115208326
 23
285.39772864351511
 33
0.0
210
0.0
220
0.0
230
1.0
  0
SOLID
  5
8BC
  8
0
  6
CONTINUOUS
 10
-114.8059730987645
 20
285.39772864351511
 30
0.0
 11
-135.24877864803901
 21
279.88669765873459
 31
0.0
 12
-131.40691707010669
 22
279.88669765873459
 32
0.0
 13
-131.40691707010669
 23
279.88669765873459
 33
0.0
210
0.0
220
0.0
230
1.0
  0
SOLID
  5
8BD
  8
0
  6
CONTINUOUS
 10
114.8059730987645
 20
285.39772864351511
 30
0.0
 11
110.9641115208326
 21
285.39772864351511
 31
0.0
 12
131.40691707010669
 22
279.88669765873459
 32
0.0
 13
131.40691707010669
 23
279.88669765873459
 33
0.0
210
0.0
220
0.0
230
-1.0
  0
SOLID
  5
8BE
  8
0
  6
CONTINUOUS
 10
-135.24877864803901
 20
279.88669765873459
 30
0.0
 11
-136.1900963130083
 21
278.98751734570487
 31
0.0
 12
-134.74236706916599
 22
278.98751734570487
 32
0.0
 13
-134.74236706916599
 23
278.98751734570487
 33
0.0
210
0.0
220
0.0
230
1.0
  0
SOLID
  5
8BF
  8
0
  6
CONTINUOUS
 10
135.24877864803901
 20
279.88669765873459
 30
0.0
 11
131.40691707010669
 21
279.88669765873459
 31
0.0
 12
134.74236706916599
 22
278.98751734570487
 32
0.0
 13
134.74236706916599
 23
278.98751734570487
 33
0.0
210
0.0
220
0.0
230
-1.0
  0
SOLID
  5
8C0
  8
0
  6
CONTINUOUS
 10
-136.1900963130083
 20
278.98751734570487
 30
0.0
 11
-138.0824030388205
 21
277.1799182562736
 31
0.0
 12
-136.63467379497831
 22
277.1799182562736
 32
0.0
 13
-136.63467379497831
 23
277.1799182562736
 33
0.0
210
0.0
220
0.0
230
1.0
  0
SOLID
  5
8C1
  8
0
  6
CONTINUOUS
 10
136.1900963130083
 20
278.98751734570487
 30
0.0
 11
134.74236706916599
 21
278.98751734570487
 31
0.0
 12
136.63467379497831
 22
277.1799182562736
 32
0.0
 13
136.63467379497831
 23
277.1799182562736
 33
0.0
210
0.0
220
0.0
230
-1.0
  0
SOLID
  5
8C2
  8
0
  6
CONTINUOUS
 10
-138.0824030388205
 20
277.1799182562736
 30
0.0
 11
-138.01763513795419
 21
276.83035822824161
 31
0.0
 12
-137.00061489109169
 22
276.83035822824161
 32
0.0
 13
-137.00061489109169
 23
276.83035822824161
 33
0.0
210
0.0
220
0.0
230
1.0
  0
SOLID
  5
8C3
  8
0
  6
CONTINUOUS
 10
138.0824030388205
 20
277.1799182562736
 30
0.0
 11
136.63467379497831
 21
277.1799182562736
 31
0.0
 12
137.00061489109169
 22
276.83035822824161
 32
0.0
 13
137.00061489109169
 23
276.83035822824161
 33
0.0
210
0.0
220
0.0
230
-1.0
  0
SOLID
  5
8C4
  8
0
  6
CONTINUOUS
 10
-138.01763513795419
 20
276.83035822824161
 30
0.0
 11
-137.2843126080474
 21
272.87252972551079
 31
0.0
 12
-136.26729236118479
 22
272.87252972551079
 32
0.0
 13
-136.26729236118479
 23
272.87252972551079
 33
0.0
210
0.0
220
0.0
230
1.0
  0
SOLID
  5
8C5
  8
0
  6
CONTINUOUS
 10
138.01763513795419
 20
276.83035822824161
 30
0.0
 11
137.00061489109169
 21
276.83035822824161
 31
0.0
 12
136.26729236118479
 22
272.87252972551079
 32
0.0
 13
136.26729236118479
 23
272.87252972551079
 33
0.0
210
0.0
220
0.0
230
-1.0
  0
SOLID
  5
8C6
  8
0
  6
CONTINUOUS
 10
136.6423699863621
 20
269.4078894047683
 30
0.0
 11
135.6253497394994
 21
269.4078894047683
 31
0.0
 12
136.6130364497466
 22
269.24957283522599
 32
0.0
 13
136.6130364497466
 23
269.24957283522599
 33
0.0
210
0.0
220
0.0
230
-1.0
  0
SOLID
  5
8C7
  8
0
  6
CONTINUOUS
 10
-137.2843126080474
 20
272.87252972551079
 30
0.0
 11
-136.6423699863621
 21
269.4078894047683
 31
0.0
 12
-135.6253497394994
 22
269.4078894047683
 32
0.0
 13
-135.6253497394994
 23
269.4078894047683
 33
0.0
210
0.0
220
0.0
230
1.0
  0
SOLID
  5
8C8
  8
0
  6
CONTINUOUS
 10
137.2843126080474
 20
272.87252972551079
 30
0.0
 11
136.26729236118479
 21
272.87252972551079
 31
0.0
 12
135.6253497394994
 22
269.4078894047683
 32
0.0
 13
135.6253497394994
 23
269.4078894047683
 33
0.0
210
0.0
220
0.0
230
-1.0
  0
SOLID
  5
8C9
  8
0
  6
CONTINUOUS
 10
-135.44311282355389
 20
268.42433519667549
 30
0.0
 11
-136.43079953380089
 21
268.26601862713318
 31
0.0
 12
-135.41377928693831
 22
268.26601862713318
 32
0.0
 13
-135.41377928693831
 23
268.26601862713318
 33
0.0
  0
SOLID
  5
8CA
  8
0
  6
CONTINUOUS
 10
-136.43079953380089
 20
268.26601862713318
 30
0.0
 11
-134.6838289837724
 21
258.83741176677529
 31
0.0
 12
-133.6668087369099
 22
258.83741176677529
 32
0.0
 13
-133.6668087369099
 23
258.83741176677529
 33
0.0
210
0.0
220
0.0
230
1.0
  0
SOLID
  5
8CB
  8
0
  6
CONTINUOUS
 10
136.43079953380089
 20
268.26601862713318
 30
0.0
 11
135.41377928693831
 21
268.26601862713318
 31
0.0
 12
133.6668087369099
 22
258.83741176677529
 32
0.0
 13
133.6668087369099
 23
258.83741176677529
 33
0.0
210
0.0
220
0.0
230
-1.0
  0
SOLID
  5
8CC
  8
0
  6
CONTINUOUS
 10
-134.6838289837724
 20
258.83741176677529
 30
0.0
 11
-134.69330497049901
 21
258.80096657649722
 31
0.0
 12
-133.66005602412321
 22
258.80096657649722
 32
0.0
 13
-133.66005602412321
 23
258.80096657649722
 33
0.0
210
0.0
220
0.0
230
1.0
  0
SOLID
  5
8CD
  8
0
  6
CONTINUOUS
 10
134.6838289837724
 20
258.83741176677529
 30
0.0
 11
133.6668087369099
 21
258.83741176677529
 31
0.0
 12
133.66005602412321
 22
258.80096657649722
 32
0.0
 13
133.66005602412321
 23
258.80096657649722
 33
0.0
210
0.0
220
0.0
230
-1.0
  0
SOLID
  5
8CE
  8
0
  6
CONTINUOUS
 10
-134.69330497049901
 20
258.80096657649722
 30
0.0
 11
-135.2366404512309
 21
256.71126704952962
 31
0.0
 12
-134.20339150485509
 22
256.71126704952962
 32
0.0
 13
-134.20339150485509
 23
256.71126704952962
 33
0.0
210
0.0
220
0.0
230
1.0
  0
SOLID
  5
8CF
  8
0
  6
CONTINUOUS
 10
134.69330497049901
 20
258.80096657649722
 30
0.0
 11
133.66005602412321
 21
258.80096657649722
 31
0.0
 12
134.20339150485509
 22
256.71126704952962
 32
0.0
 13
134.20339150485509
 23
256.71126704952962
 33
0.0
210
0.0
220
0.0
230
-1.0
  0
SOLID
  5
8D0
  8
0
  6
CONTINUOUS
 10
-135.2366404512309
 20
256.71126704952962
 30
0.0
 11
-138.73146788129591
 21
255.87794141917379
 31
0.0
 12
-134.42006159360821
 22
255.87794141917379
 32
0.0
 13
-134.42006159360821
 23
255.87794141917379
 33
0.0
210
0.0
220
0.0
230
1.0
  0
SOLID
  5
8D1
  8
0
  6
CONTINUOUS
 10
135.2366404512309
 20
256.71126704952962
 30
0.0
 11
134.20339150485509
 21
256.71126704952962
 31
0.0
 12
134.42006159360821
 22
255.87794141917379
 32
0.0
 13
134.42006159360821
 23
255.87794141917379
 33
0.0
210
0.0
220
0.0
230
-1.0
  0
SOLID
  5
8D2
  8
0
  6
CONTINUOUS
 10
-138.73146788129591
 20
255.87794141917379
 30
0.0
 11
-201.00791936783281
 21
241.0284061474504
 31
0.0
 12
-196.69651308014551
 22
241.0284061474504
 32
0.0
 13
-196.69651308014551
 23
241.0284061474504
 33
0.0
210
0.0
220
0.0
230
1.0
  0
SOLID
  5
8D3
  8
0
  6
CONTINUOUS
 10
138.73146788129591
 20
255.87794141917379
 30
0.0
 11
134.42006159360821
 21
255.87794141917379
 31
0.0
 12
196.69651308014551
 22
241.0284061474504
 32
0.0
 13
196.69651308014551
 23
241.0284061474504
 33
0.0
210
0.0
220
0.0
230
-1.0
  0
SOLID
  5
8D4
  8
0
  6
CONTINUOUS
 10
-201.00791936783281
 20
241.0284061474504
 30
0.0
 11
-204.1270127716306
 21
240.06333261790331
 31
0.0
 12
-200.7438690238854
 22
240.06333261790331
 32
0.0
 13
-200.7438690238854
 23
240.06333261790331
 33
0.0
210
0.0
220
0.0
230
1.0
  0
SOLID
  5
8D5
  8
0
  6
CONTINUOUS
 10
201.00791936783281
 20
241.0284061474504
 30
0.0
 11
196.69651308014551
 21
241.0284061474504
 31
0.0
 12
200.7438690238854
 22
240.06333261790331
 32
0.0
 13
200.7438690238854
 23
240.06333261790331
 33
0.0
210
0.0
220
0.0
230
-1.0
  0
SOLID
  5
8D6
  8
0
  6
CONTINUOUS
 10
-204.1270127716306
 20
240.06333261790331
 30
0.0
 11
-305.98860314559658
 21
208.54650646970481
 31
0.0
 12
-302.60545939784811
 22
208.54650646970481
 32
0.0
 13
-302.60545939784811
 23
208.54650646970481
 33
0.0
210
0.0
220
0.0
230
1.0
  0
SOLID
  5
8D7
  8
0
  6
CONTINUOUS
 10
204.1270127716306
 20
240.06333261790331
 30
0.0
 11
200.7438690238854
 21
240.06333261790331
 31
0.0
 12
302.60545939784811
 22
208.54650646970481
 32
0.0
 13
302.60545939784811
 23
208.54650646970481
 33
0.0
210
0.0
220
0.0
230
-1.0
  0
SOLID
  5
8D8
  8
0
  6
CONTINUOUS
 10
-305.98860314559658
 20
208.54650646970481
 30
0.0
 11
-309.72027465092827
 21
207.58414223798229
 31
0.0
 12
-305.71579641913718
 22
207.58414223798229
 32
0.0
 13
-305.71579641913718
 23
207.58414223798229
 33
0.0
  0
SOLID
  5
8D9
  8
0
  6
CONTINUOUS
 10
305.98860314559658
 20
208.54650646970481
 30
0.0
 11
302.60545939784811
 21
208.54650646970481
 31
0.0
 12
305.71579641913718
 22
207.58414223798229
 32
0.0
 13
305.71579641913718
 23
207.58414223798229
 33
0.0
210
0.0
220
0.0
230
-1.0
  0
SOLID
  5
8DA
  8
0
  6
CONTINUOUS
 10
-309.72027465092827
 20
207.58414223798229
 30
0.0
 11
-477.88541718754522
 21
164.2158773817298
 31
0.0
 12
-473.88093895575452
 22
164.2158773817298
 32
0.0
 13
-473.88093895575452
 23
164.2158773817298
 33
0.0
  0
SOLID
  5
8DB
  8
0
  6
CONTINUOUS
 10
309.72027465092827
 20
207.58414223798229
 30
0.0
 11
305.71579641913718
 21
207.58414223798229
 31
0.0
 12
473.88093895575452
 22
164.2158773817298
 32
0.0
 13
473.88093895575452
 23
164.2158773817298
 33
0.0
210
0.0
220
0.0
230
-1.0
  0
SOLID
  5
8DC
  8
0
  6
CONTINUOUS
 10
-477.88541718754522
 20
164.2158773817298
 30
0.0
 11
-478.8582175114139
 21
163.3109110262954
 31
0.0
 12
-477.39004398121222
 22
163.3109110262954
 32
0.0
 13
-477.39004398121222
 23
163.3109110262954
 33
0.0
210
0.0
220
0.0
230
1.0
  0
SOLID
  5
8DD
  8
0
  6
CONTINUOUS
 10
477.88541718754522
 20
164.2158773817298
 30
0.0
 11
473.88093895575452
 21
164.2158773817298
 31
0.0
 12
477.39004398121222
 22
163.3109110262954
 32
0.0
 13
477.39004398121222
 23
163.3109110262954
 33
0.0
210
0.0
220
0.0
230
-1.0
  0
SOLID
  5
8DE
  8
0
  6
CONTINUOUS
 10
-478.8582175114139
 20
163.3109110262954
 30
0.0
 11
-485.1306015283314
 21
157.47590422746961
 31
0.0
 12
-483.66242799812949
 22
157.47590422746961
 32
0.0
 13
-483.66242799812949
 23
157.47590422746961
 33
0.0
  0
SOLID
  5
8DF
  8
0
  6
CONTINUOUS
 10
478.8582175114139
 20
163.3109110262954
 30
0.0
 11
477.39004398121222
 21
163.3109110262954
 31
0.0
 12
483.66242799812949
 22
157.47590422746961
 32
0.0
 13
483.66242799812949
 23
157.47590422746961
 33
0.0
210
0.0
220
0.0
230
-1.0
  0
SOLID
  5
8E0
  8
0
  6
CONTINUOUS
 10
-485.1306015283314
 20
157.47590422746961
 30
0.0
 11
-485.32869122676323
 21
156.9117872435601
 31
0.0
 12
-484.26882975146719
 22
156.9117872435601
 32
0.0
 13
-484.26882975146719
 23
156.9117872435601
 33
0.0
  0
SOLID
  5
8E1
  8
0
  6
CONTINUOUS
 10
485.1306015283314
 20
157.47590422746961
 30
0.0
 11
483.66242799812949
 21
157.47590422746961
 31
0.0
 12
484.26882975146719
 22
156.9117872435601
 32
0.0
 13
484.26882975146719
 23
156.9117872435601
 33
0.0
210
0.0
220
0.0
230
-1.0
  0
SOLID
  5
8E2
  8
0
  6
CONTINUOUS
 10
-485.32869122676323
 20
156.9117872435601
 30
0.0
 11
-487.83996742810928
 21
149.760211125864
 31
0.0
 12
-486.78010595281319
 22
149.760211125864
 32
0.0
 13
-486.78010595281319
 23
149.760211125864
 33
0.0
210
0.0
220
0.0
230
1.0
  0
SOLID
  5
8E3
  8
0
  6
CONTINUOUS
 10
485.32869122676323
 20
156.9117872435601
 30
0.0
 11
484.26882975146719
 21
156.9117872435601
 31
0.0
 12
486.78010595281319
 22
149.760211125864
 32
0.0
 13
486.78010595281319
 23
149.760211125864
 33
0.0
210
0.0
220
0.0
230
-1.0
  0
SOLID
  5
8E4
  8
0
  6
CONTINUOUS
 10
-487.83996742810928
 20
149.760211125864
 30
0.0
 11
-487.8251191310199
 21
149.67690793605871
 31
0.0
 12
-486.80935787079773
 22
149.67690793605871
 32
0.0
 13
-486.80935787079773
 23
149.67690793605871
 33
0.0
210
0.0
220
0.0
230
1.0
  0
SOLID
  5
8E5
  8
0
  6
CONTINUOUS
 10
487.83996742810928
 20
149.760211125864
 30
0.0
 11
486.78010595281319
 21
149.760211125864
 31
0.0
 12
486.80935787079773
 22
149.67690793605871
 32
0.0
 13
486.80935787079773
 23
149.67690793605871
 33
0.0
210
0.0
220
0.0
230
-1.0
  0
SOLID
  5
8E6
  8
0
  6
CONTINUOUS
 10
484.65861748862608
 20
131.91192884470689
 30
0.0
 11
483.6428562284039
 21
131.91192884470689
 31
0.0
 12
484.627339530889
 22
131.73645056363489
 32
0.0
 13
484.627339530889
 23
131.73645056363489
 33
0.0
210
0.0
220
0.0
230
-1.0
  0
SOLID
  5
8E7
  8
0
  6
CONTINUOUS
 10
-487.8251191310199
 20
149.67690793605871
 30
0.0
 11
-484.65861748862608
 21
131.91192884470689
 31
0.0
 12
-483.6428562284039
 22
131.91192884470689
 32
0.0
 13
-483.6428562284039
 23
131.91192884470689
 33
0.0
210
0.0
220
0.0
230
1.0
  0
SOLID
  5
8E8
  8
0
  6
CONTINUOUS
 10
487.8251191310199
 20
149.67690793605871
 30
0.0
 11
486.80935787079773
 21
149.67690793605871
 31
0.0
 12
483.6428562284039
 22
131.91192884470689
 32
0.0
 13
483.6428562284039
 23
131.91192884470689
 33
0.0
210
0.0
220
0.0
230
-1.0
  0
LINE
  5
8E9
  8
0
  6
CONTINUOUS
 10
-111.22440200233881
 20
286.36325899789909
 30
0.0
 11
-114.8059730987645
 21
285.39772864351511
 31
0.0
  0
LINE
  5
8EA
  8
0
  6
CONTINUOUS
 10
-110.9641115208326
 20
285.39772864351511
 30
0.0
 11
-111.22440200233881
 21
286.36325899789909
 31
0.0
  0
LINE
  5
8EB
  8
0
  6
CONTINUOUS
 10
-114.8059730987645
 20
285.39772864351511
 30
0.0
 11
-135.24877864803901
 21
279.88669765873459
 31
0.0
  0
LINE
  5
8EC
  8
0
  6
CONTINUOUS
 10
-110.9641115208326
 20
285.39772864351511
 30
0.0
 11
-131.40691707010669
 21
279.88669765873459
 31
0.0
  0
LINE
  5
8ED
  8
0
  6
CONTINUOUS
 10
-135.24877864803901
 20
279.88669765873459
 30
0.0
 11
-136.1900963130083
 21
278.98751734570487
 31
0.0
  0
LINE
  5
8EE
  8
0
  6
CONTINUOUS
 10
-131.40691707010669
 20
279.88669765873459
 30
0.0
 11
-134.74236706916599
 21
278.98751734570487
 31
0.0
  0
LINE
  5
8EF
  8
0
  6
CONTINUOUS
 10
-136.1900963130083
 20
278.98751734570487
 30
0.0
 11
-138.0824030388205
 21
277.1799182562736
 31
0.0
  0
LINE
  5
8F0
  8
0
  6
CONTINUOUS
 10
-134.74236706916599
 20
278.98751734570487
 30
0.0
 11
-136.63467379497831
 21
277.1799182562736
 31
0.0
  0
LINE
  5
8F1
  8
0
  6
CONTINUOUS
 10
-138.0824030388205
 20
277.1799182562736
 30
0.0
 11
-138.01763513795419
 21
276.83035822824161
 31
0.0
  0
LINE
  5
8F2
  8
0
  6
CONTINUOUS
 10
-136.63467379497831
 20
277.1799182562736
 30
0.0
 11
-137.00061489109169
 21
276.83035822824161
 31
0.0
  0
LINE
  5
8F3
  8
0
  6
CONTINUOUS
 10
-138.01763513795419
 20
276.83035822824161
 30
0.0
 11
-137.2843126080474
 21
272.87252972551079
 31
0.0
  0
LINE
  5
8F4
  8
0
  6
CONTINUOUS
 10
-137.00061489109169
 20
276.83035822824161
 30
0.0
 11
-136.26729236118479
 21
272.87252972551079
 31
0.0
  0
LINE
  5
8F5
  8
0
  6
CONTINUOUS
 10
-135.6253497394994
 20
269.4078894047683
 30
0.0
 11
-136.6130364497466
 21
269.24957283522599
 31
0.0
  0
LINE
  5
8F6
  8
0
  6
CONTINUOUS
 10
-136.6130364497466
 20
269.24957283522599
 30
0.0
 11
-136.6423699863621
 21
269.4078894047683
 31
0.0
  0
LINE
  5
8F7
  8
0
  6
CONTINUOUS
 10
-137.2843126080474
 20
272.87252972551079
 30
0.0
 11
-136.6423699863621
 21
269.4078894047683
 31
0.0
  0
LINE
  5
8F8
  8
0
  6
CONTINUOUS
 10
-136.26729236118479
 20
272.87252972551079
 30
0.0
 11
-135.6253497394994
 21
269.4078894047683
 31
0.0
  0
LINE
  5
8F9
  8
0
  6
CONTINUOUS
 10
-135.44311282355389
 20
268.42433519667549
 30
0.0
 11
-136.43079953380089
 21
268.26601862713318
 31
0.0
  0
LINE
  5
8FA
  8
0
  6
CONTINUOUS
 10
-135.41377928693831
 20
268.26601862713318
 30
0.0
 11
-135.44311282355389
 21
268.42433519667549
 31
0.0
  0
LINE
  5
8FB
  8
0
  6
CONTINUOUS
 10
-136.43079953380089
 20
268.26601862713318
 30
0.0
 11
-134.6838289837724
 21
258.83741176677529
 31
0.0
  0
LINE
  5
8FC
  8
0
  6
CONTINUOUS
 10
-135.41377928693831
 20
268.26601862713318
 30
0.0
 11
-133.6668087369099
 21
258.83741176677529
 31
0.0
  0
LINE
  5
8FD
  8
0
  6
CONTINUOUS
 10
-134.6838289837724
 20
258.83741176677529
 30
0.0
 11
-134.69330497049901
 21
258.80096657649722
 31
0.0
  0
LINE
  5
8FE
  8
0
  6
CONTINUOUS
 10
-133.6668087369099
 20
258.83741176677529
 30
0.0
 11
-133.66005602412321
 21
258.80096657649722
 31
0.0
  0
LINE
  5
8FF
  8
0
  6
CONTINUOUS
 10
-134.69330497049901
 20
258.80096657649722
 30
0.0
 11
-135.2366404512309
 21
256.71126704952962
 31
0.0
  0
LINE
  5
900
  8
0
  6
CONTINUOUS
 10
-133.66005602412321
 20
258.80096657649722
 30
0.0
 11
-134.20339150485509
 21
256.71126704952962
 31
0.0
  0
LINE
  5
901
  8
0
  6
CONTINUOUS
 10
-135.2366404512309
 20
256.71126704952962
 30
0.0
 11
-138.73146788129591
 21
255.87794141917379
 31
0.0
  0
LINE
  5
902
  8
0
  6
CONTINUOUS
 10
-134.20339150485509
 20
256.71126704952962
 30
0.0
 11
-134.42006159360821
 21
255.87794141917379
 31
0.0
  0
LINE
  5
903
  8
0
  6
CONTINUOUS
 10
-138.73146788129591
 20
255.87794141917379
 30
0.0
 11
-201.00791936783281
 21
241.0284061474504
 31
0.0
  0
LINE
  5
904
  8
0
  6
CONTINUOUS
 10
-134.42006159360821
 20
255.87794141917379
 30
0.0
 11
-196.69651308014551
 21
241.0284061474504
 31
0.0
  0
LINE
  5
905
  8
0
  6
CONTINUOUS
 10
-201.00791936783281
 20
241.0284061474504
 30
0.0
 11
-204.1270127716306
 21
240.06333261790331
 31
0.0
  0
LINE
  5
906
  8
0
  6
CONTINUOUS
 10
-196.69651308014551
 20
241.0284061474504
 30
0.0
 11
-200.7438690238854
 21
240.06333261790331
 31
0.0
  0
LINE
  5
907
  8
0
  6
CONTINUOUS
 10
-204.1270127716306
 20
240.06333261790331
 30
0.0
 11
-305.98860314559658
 21
208.54650646970481
 31
0.0
  0
LINE
  5
908
  8
0
  6
CONTINUOUS
 10
-200.7438690238854
 20
240.06333261790331
 30
0.0
 11
-302.60545939784811
 21
208.54650646970481
 31
0.0
  0
LINE
  5
909
  8
0
  6
CONTINUOUS
 10
-305.98860314559658
 20
208.54650646970481
 30
0.0
 11
-309.72027465092827
 21
207.58414223798229
 31
0.0
  0
LINE
  5
90A
  8
0
  6
CONTINUOUS
 10
-302.60545939784811
 20
208.54650646970481
 30
0.0
 11
-305.71579641913718
 21
207.58414223798229
 31
0.0
  0
LINE
  5
90B
  8
0
  6
CONTINUOUS
 10
-309.72027465092827
 20
207.58414223798229
 30
0.0
 11
-477.88541718754522
 21
164.2158773817298
 31
0.0
  0
LINE
  5
90C
  8
0
  6
CONTINUOUS
 10
-305.71579641913718
 20
207.58414223798229
 30
0.0
 11
-473.88093895575452
 21
164.2158773817298
 31
0.0
  0
LINE
  5
90D
  8
0
  6
CONTINUOUS
 10
-477.88541718754522
 20
164.2158773817298
 30
0.0
 11
-478.8582175114139
 21
163.3109110262954
 31
0.0
  0
LINE
  5
90E
  8
0
  6
CONTINUOUS
 10
-473.88093895575452
 20
164.2158773817298
 30
0.0
 11
-477.39004398121222
 21
163.3109110262954
 31
0.0
  0
LINE
  5
90F
  8
0
  6
CONTINUOUS
 10
-478.8582175114139
 20
163.3109110262954
 30
0.0
 11
-485.1306015283314
 21
157.47590422746961
 31
0.0
  0
LINE
  5
910
  8
0
  6
CONTINUOUS
 10
-477.39004398121222
 20
163.3109110262954
 30
0.0
 11
-483.66242799812949
 21
157.47590422746961
 31
0.0
  0
LINE
  5
911
  8
0
  6
CONTINUOUS
 10
-485.1306015283314
 20
157.47590422746961
 30
0.0
 11
-485.32869122676323
 21
156.9117872435601
 31
0.0
  0
LINE
  5
912
  8
0
  6
CONTINUOUS
 10
-483.66242799812949
 20
157.47590422746961
 30
0.0
 11
-484.26882975146719
 21
156.9117872435601
 31
0.0
  0
LINE
  5
913
  8
0
  6
CONTINUOUS
 10
-485.32869122676323
 20
156.9117872435601
 30
0.0
 11
-487.83996742810928
 21
149.760211125864
 31
0.0
  0
LINE
  5
914
  8
0
  6
CONTINUOUS
 10
-484.26882975146719
 20
156.9117872435601
 30
0.0
 11
-486.78010595281319
 21
149.760211125864
 31
0.0
  0
LINE
  5
915
  8
0
  6
CONTINUOUS
 10
-487.83996742810928
 20
149.760211125864
 30
0.0
 11
-487.8251191310199
 21
149.67690793605871
 31
0.0
  0
LINE
  5
916
  8
0
  6
CONTINUOUS
 10
-486.78010595281319
 20
149.760211125864
 30
0.0
 11
-486.80935787079773
 21
149.67690793605871
 31
0.0
  0
LINE
  5
917
  8
0
  6
CONTINUOUS
 10
-483.6428562284039
 20
131.91192884470689
 30
0.0
 11
-484.627339530889
 21
131.73645056363489
 31
0.0
  0
LINE
  5
918
  8
0
  6
CONTINUOUS
 10
-484.627339530889
 20
131.73645056363489
 30
0.0
 11
-484.65861748862608
 21
131.91192884470689
 31
0.0
  0
LINE
  5
919
  8
0
  6
CONTINUOUS
 10
-487.8251191310199
 20
149.67690793605871
 30
0.0
 11
-484.65861748862608
 21
131.91192884470689
 31
0.0
  0
LINE
  5
91A
  8
0
  6
CONTINUOUS
 10
-486.80935787079773
 20
149.67690793605871
 30
0.0
 11
-483.6428562284039
 21
131.91192884470689
 31
0.0
  0
ENDBLK
  5
91C
  8
0
  0
ENDSEC
  0
SECTION
  2
ENTITIES
  0
LINE
  5
25A
  8
0
  6
DASH
 10
-201.16518339091439
 20
74.999999999999545
 30
0.0
 11
-399.99999999999977
 21
75.000000000000185
 31
0.0
1001
REVIT
1002
{
1070
     1
1000
675968
1002
}
1002
{
1070
     2
1000
-2000051
1002
}
1002
{
1070
     3
1000
118704
1002
}
  0
LINE
  5
25C
  8
0
 10
-404.24999999999977
 20
108.57045888547469
 30
0.0
 11
-404.25
 21
-7.0000000000001341
 31
0.0
1001
REVIT
1002
{
1070
     1
1000
680655
1002
}
1002
{
1070
     2
1000
-2000051
1002
}
1002
{
1070
     3
1000
-2000042
1002
}
  0
CIRCLE
  5
275
  8
0
 10
155.23796610192281
 20
369.3001838547633
 30
0.0
 40
2.5
1001
REVIT
1002
{
1070
     1
1000
366235
1002
}
1002
{
1070
     5
1000
515860
1002
}
1002
{
1070
     2
1000
-2005028
1002
}
  0
INSERT
  5
276
  8
0
  6
CONTINUOUS
  2
*U24
 10
0.0
 20
0.0
 30
0.0
1001
REVIT
1002
{
1070
     1
1000
366235
1002
}
1002
{
1070
     5
1000
515860
1002
}
1002
{
1070
     2
1000
-2005028
1002
}
1001
ACAD
1002
{
1000
R14_HATCH_DATA
1000
276
1011
1.0
1021
0.0
1031
-0.0
1021
0.0
1031
0.0
1011
0.0
1021
0.0
1031
-0.0
1021
1.0
1031
0.0
1011
0.0
1021
0.0
1031
-0.0
1021
0.0
1031
1.0
1040
0.0
1010
0.0
1020
0.0
1030
1.0
1000
SOLID
1070
     1
1070
     0
1071
        1
1071
        0
1071
        1
1070
     2
1040
155.23796610192281
1040
369.3001838547633
1040
2.5
1040
0.0
1040
6.2831853071795862
1070
     1
1071
        0
1070
     0
1070
     1
1071
        1
1040
0.0
1040
0.0
1040
0.0
1002
}
  0
LINE
  5
277
  8
0
 10
155.23796610192281
 20
455.38742953815421
 30
0.0
 11
78.257099771948205
 21
455.38742953815421
 31
0.0
1001
REVIT
1002
{
1070
     1
1000
366235
1002
}
1002
{
1070
     5
1000
515860
1002
}
1002
{
1070
     2
1000
-2005028
1002
}
  0
LINE
  5
278
  8
0
 10
155.23796610192281
 20
369.3001838547633
 30
0.0
 11
155.23796610192281
 21
455.38742953815421
 31
0.0
1001
REVIT
1002
{
1070
     1
1000
366235
1002
}
1002
{
1070
     5
1000
515860
1002
}
1002
{
1070
     2
1000
-2005028
1002
}
  0
INSERT
  5
27A
  8
0
  2
*U25
 10
0.0
 20
0.0
 30
0.0
  0
INSERT
  5
289
  8
0
  2
*U26
 10
0.0
 20
0.0
 30
0.0
  0
CIRCLE
  5
28A
  8
0
 10
57.467704130765313
 20
252.79246749175039
 30
0.0
 40
2.5
1001
REVIT
1002
{
1070
     1
1000
675972
1002
}
1002
{
1070
     5
1000
233013
1002
}
1002
{
1070
     2
1000
-2005028
1002
}
  0
INSERT
  5
28B
  8
0
  6
CONTINUOUS
  2
*U27
 10
0.0
 20
0.0
 30
0.0
1001
REVIT
1002
{
1070
     1
1000
675972
1002
}
1002
{
1070
     5
1000
233013
1002
}
1002
{
1070
     2
1000
-2005028
1002
}
1001
ACAD
1002
{
1000
R14_HATCH_DATA
1000
28B
1011
1.0
1021
0.0
1031
-0.0
1021
0.0
1031
0.0
1011
0.0
1021
0.0
1031
-0.0
1021
1.0
1031
0.0
1011
0.0
1021
0.0
1031
-0.0
1021
0.0
1031
1.0
1040
0.0
1010
0.0
1020
0.0
1030
1.0
1000
SOLID
1070
     1
1070
     0
1071
        1
1071
        0
1071
        1
1070
     2
1040
57.467704130765313
1040
252.79246749175039
1040
2.5
1040
0.0
1040
6.2831853071795862
1070
     1
1071
        0
1070
     0
1070
     1
1071
        1
1040
0.0
1040
0.0
1040
0.0
1002
}
  0
LINE
  5
28C
  8
0
 10
57.467704130765313
 20
395.90559581361879
 30
0.0
 11
-2.1179002280517731
 21
395.90559581361879
 31
0.0
1001
REVIT
1002
{
1070
     1
1000
675972
1002
}
1002
{
1070
     5
1000
233013
1002
}
1002
{
1070
     2
1000
-2005028
1002
}
  0
LINE
  5
28D
  8
0
 10
57.467704130765313
 20
252.79246749175039
 30
0.0
 11
57.467704130765313
 21
395.90559581361879
 31
0.0
1001
REVIT
1002
{
1070
     1
1000
675972
1002
}
1002
{
1070
     5
1000
233013
1002
}
1002
{
1070
     2
1000
-2005028
1002
}
  0
INSERT
  5
28E
  8
0
  2
*U28
 10
0.0
 20
0.0
 30
0.0
  0
CIRCLE
  5
28F
  8
0
 10
-498.74805997483128
 20
16.174638231084479
 30
0.0
 40
2.4999999999999969
1001
REVIT
1002
{
1070
     1
1000
675973
1002
}
1002
{
1070
     5
1000
233011
1002
}
1002
{
1070
     2
1000
-2005028
1002
}
  0
INSERT
  5
290
  8
0
  6
CONTINUOUS
  2
*U29
 10
0.0
 20
0.0
 30
0.0
1001
REVIT
1002
{
1070
     1
1000
675973
1002
}
1002
{
1070
     5
1000
233011
1002
}
1002
{
1070
     2
1000
-2005028
1002
}
1001
ACAD
1002
{
1000
R14_HATCH_DATA
1000
290
1011
1.0
1021
0.0
1031
-0.0
1021
0.0
1031
0.0
1011
0.0
1021
0.0
1031
-0.0
1021
1.0
1031
0.0
1011
0.0
1021
0.0
1031
-0.0
1021
0.0
1031
1.0
1040
0.0
1010
0.0
1020
0.0
1030
1.0
1000
SOLID
1070
     1
1070
     0
1071
        1
1071
        0
1071
        1
1070
     2
1040
-498.74805997483128
1040
16.174638231084479
1040
2.4999999999999969
1040
0.0
1040
6.2831853071795862
1070
     1
1071
        0
1070
     0
1070
     1
1071
        1
1040
0.0
1040
0.0
1040
0.0
1002
}
  0
LINE
  5
291
  8
0
 10
-498.74805997483128
 20
-49.611387151596951
 30
0.0
 11
-528.819284587418
 21
-49.611387151596951
 31
0.0
1001
REVIT
1002
{
1070
     1
1000
675973
1002
}
1002
{
1070
     5
1000
233011
1002
}
1002
{
1070
     2
1000
-2005028
1002
}
  0
LINE
  5
292
  8
0
 10
-498.74805997483128
 20
16.174638231084479
 30
0.0
 11
-498.74805997483128
 21
-49.611387151596951
 31
0.0
1001
REVIT
1002
{
1070
     1
1000
675973
1002
}
1002
{
1070
     5
1000
233011
1002
}
1002
{
1070
     2
1000
-2005028
1002
}
  0
INSERT
  5
293
  8
0
  2
*U30
 10
0.0
 20
0.0
 30
0.0
  0
CIRCLE
  5
294
  8
0
 10
-97.992596134563996
 20
272.96011717671229
 30
0.0
 40
2.5000000000000142
1001
REVIT
1002
{
1070
     1
1000
675974
1002
}
1002
{
1070
     5
1000
233013
1002
}
1002
{
1070
     2
1000
-2005028
1002
}
  0
INSERT
  5
295
  8
0
  6
CONTINUOUS
  2
*U31
 10
0.0
 20
0.0
 30
0.0
1001
REVIT
1002
{
1070
     1
1000
675974
1002
}
1002
{
1070
     5
1000
233013
1002
}
1002
{
1070
     2
1000
-2005028
1002
}
1001
ACAD
1002
{
1000
R14_HATCH_DATA
1000
295
1011
1.0
1021
0.0
1031
-0.0
1021
0.0
1031
0.0
1011
0.0
1021
0.0
1031
-0.0
1021
1.0
1031
0.0
1011
0.0
1021
0.0
1031
-0.0
1021
0.0
1031
1.0
1040
0.0
1010
0.0
1020
0.0
1030
1.0
1000
SOLID
1070
     1
1070
     0
1071
        1
1071
        0
1071
        1
1070
     2
1040
-97.992596134563996
1040
272.96011717671229
1040
2.5000000000000142
1040
0.0
1040
6.2831853071795862
1070
     1
1071
        0
1070
     0
1070
     1
1071
        1
1040
0.0
1040
0.0
1040
0.0
1002
}
  0
LINE
  5
296
  8
0
 10
-97.992596134563996
 20
447.00121306712259
 30
0.0
 11
-139.02420835795681
 21
447.00121306712259
 31
0.0
1001
REVIT
1002
{
1070
     1
1000
675974
1002
}
1002
{
1070
     5
1000
233013
1002
}
1002
{
1070
     2
1000
-2005028
1002
}
  0
LINE
  5
297
  8
0
 10
-97.992596134563996
 20
272.96011717671229
 30
0.0
 11
-97.992596134563996
 21
447.00121306712259
 31
0.0
1001
REVIT
1002
{
1070
     1
1000
675974
1002
}
1002
{
1070
     5
1000
233013
1002
}
1002
{
1070
     2
1000
-2005028
1002
}
  0
INSERT
  5
298
  8
0
  2
*U32
 10
0.0
 20
0.0
 30
0.0
  0
CIRCLE
  5
299
  8
0
 10
-371.36066987241207
 20
-4.6125983903005441
 30
0.0
 40
2.4999999999999432
1001
REVIT
1002
{
1070
     1
1000
675975
1002
}
1002
{
1070
     5
1000
233013
1002
}
1002
{
1070
     2
1000
-2005028
1002
}
  0
INSERT
  5
29A
  8
0
  6
CONTINUOUS
  2
*U33
 10
0.0
 20
0.0
 30
0.0
1001
REVIT
1002
{
1070
     1
1000
675975
1002
}
1002
{
1070
     5
1000
233013
1002
}
1002
{
1070
     2
1000
-2005028
1002
}
1001
ACAD
1002
{
1000
R14_HATCH_DATA
1000
29A
1011
1.0
1021
0.0
1031
-0.0
1021
0.0
1031
0.0
1011
0.0
1021
0.0
1031
-0.0
1021
1.0
1031
0.0
1011
0.0
1021
0.0
1031
-0.0
1021
0.0
1031
1.0
1040
0.0
1010
0.0
1020
0.0
1030
1.0
1000
SOLID
1070
     1
1070
     0
1071
        1
1071
        0
1071
        1
1070
     2
1040
-371.36066987241207
1040
-4.6125983903005441
1040
2.4999999999999432
1040
0.0
1040
6.2831853071795862
1070
     1
1071
        0
1070
     0
1070
     1
1071
        1
1040
0.0
1040
0.0
1040
0.0
1002
}
  0
LINE
  5
29B
  8
0
 10
-371.36066987241207
 20
-129.94802151458521
 30
0.0
 11
-643.444284587418
 21
-129.94802151458521
 31
0.0
1001
REVIT
1002
{
1070
     1
1000
675975
1002
}
1002
{
1070
     5
1000
233013
1002
}
1002
{
1070
     2
1000
-2005028
1002
}
  0
LINE
  5
29C
  8
0
 10
-371.36066987241207
 20
-4.6125983903005441
 30
0.0
 11
-371.36066987241207
 21
-129.94802151458521
 31
0.0
1001
REVIT
1002
{
1070
     1
1000
675975
1002
}
1002
{
1070
     5
1000
233013
1002
}
1002
{
1070
     2
1000
-2005028
1002
}
  0
INSERT
  5
29D
  8
0
  2
*U34
 10
0.0
 20
0.0
 30
0.0
  0
CIRCLE
  5
29E
  8
0
 10
-431.28179687252208
 20
-42.964082662386659
 30
0.0
 40
2.5
1001
REVIT
1002
{
1070
     1
1000
675977
1002
}
1002
{
1070
     5
1000
233011
1002
}
1002
{
1070
     2
1000
-2005028
1002
}
  0
INSERT
  5
29F
  8
0
  6
CONTINUOUS
  2
*U35
 10
0.0
 20
0.0
 30
0.0
1001
REVIT
1002
{
1070
     1
1000
675977
1002
}
1002
{
1070
     5
1000
233011
1002
}
1002
{
1070
     2
1000
-2005028
1002
}
1001
ACAD
1002
{
1000
R14_HATCH_DATA
1000
29F
1011
1.0
1021
0.0
1031
-0.0
1021
0.0
1031
0.0
1011
0.0
1021
0.0
1031
-0.0
1021
1.0
1031
0.0
1011
0.0
1021
0.0
1031
-0.0
1021
0.0
1031
1.0
1040
0.0
1010
0.0
1020
0.0
1030
1.0
1000
SOLID
1070
     1
1070
     0
1071
        1
1071
        0
1071
        1
1070
     2
1040
-431.28179687252208
1040
-42.964082662386659
1040
2.5
1040
0.0
1040
6.2831853071795862
1070
     1
1071
        0
1070
     0
1070
     1
1071
        1
1040
0.0
1040
0.0
1040
0.0
1002
}
  0
LINE
  5
2A0
  8
0
 10
-431.28179687252208
 20
-98.945608927336437
 30
0.0
 11
-570.44428458741811
 21
-98.945608927336409
 31
0.0
1001
REVIT
1002
{
1070
     1
1000
675977
1002
}
1002
{
1070
     5
1000
233011
1002
}
1002
{
1070
     2
1000
-2005028
1002
}
  0
LINE
  5
2A1
  8
0
 10
-431.28179687252208
 20
-42.964082662386659
 30
0.0
 11
-431.28179687252208
 21
-98.945608927336437
 31
0.0
1001
REVIT
1002
{
1070
     1
1000
675977
1002
}
1002
{
1070
     5
1000
233011
1002
}
1002
{
1070
     2
1000
-2005028
1002
}
  0
INSERT
  5
2A2
  8
0
  2
*U36
 10
0.0
 20
0.0
 30
0.0
  0
CIRCLE
  5
2A3
  8
0
 10
-341.22830697254972
 20
143.6499963602412
 30
0.0
 40
2.5
1001
REVIT
1002
{
1070
     1
1000
675979
1002
}
1002
{
1070
     5
1000
233013
1002
}
1002
{
1070
     2
1000
-2005028
1002
}
  0
INSERT
  5
2A4
  8
0
  6
CONTINUOUS
  2
*U37
 10
0.0
 20
0.0
 30
0.0
1001
REVIT
1002
{
1070
     1
1000
675979
1002
}
1002
{
1070
     5
1000
233013
1002
}
1002
{
1070
     2
1000
-2005028
1002
}
1001
ACAD
1002
{
1000
R14_HATCH_DATA
1000
2A4
1011
1.0
1021
0.0
1031
-0.0
1021
0.0
1031
0.0
1011
0.0
1021
0.0
1031
-0.0
1021
1.0
1031
0.0
1011
0.0
1021
0.0
1031
-0.0
1021
0.0
1031
1.0
1040
0.0
1010
0.0
1020
0.0
1030
1.0
1000
SOLID
1070
     1
1070
     0
1071
        1
1071
        0
1071
        1
1070
     2
1040
-341.22830697254972
1040
143.6499963602412
1040
2.5
1040
0.0
1040
6.2831853071795862
1070
     1
1071
        0
1070
     0
1070
     1
1071
        1
1040
0.0
1040
0.0
1040
0.0
1002
}
  0
LINE
  5
2A5
  8
0
 10
-341.22830697254972
 20
-175.54796328921009
 30
0.0
 11
-523.944284587418
 21
-175.54796328921009
 31
0.0
1001
REVIT
1002
{
1070
     1
1000
675979
1002
}
1002
{
1070
     5
1000
233013
1002
}
1002
{
1070
     2
1000
-2005028
1002
}
  0
LINE
  5
2A6
  8
0
 10
-341.22830697254972
 20
143.6499963602412
 30
0.0
 11
-341.22830697254972
 21
-175.54796328921009
 31
0.0
1001
REVIT
1002
{
1070
     1
1000
675979
1002
}
1002
{
1070
     5
1000
233013
1002
}
1002
{
1070
     2
1000
-2005028
1002
}
  0
INSERT
  5
2A7
  8
0
  2
*U38
 10
0.0
 20
0.0
 30
0.0
  0
CIRCLE
  5
2A8
  8
0
 10
-442.10053408952308
 20
144.1708657885336
 30
0.0
 40
2.4999999999999432
1001
REVIT
1002
{
1070
     1
1000
675981
1002
}
1002
{
1070
     5
1000
233013
1002
}
1002
{
1070
     2
1000
-2005028
1002
}
  0
INSERT
  5
2A9
  8
0
  6
CONTINUOUS
  2
*U39
 10
0.0
 20
0.0
 30
0.0
1001
REVIT
1002
{
1070
     1
1000
675981
1002
}
1002
{
1070
     5
1000
233013
1002
}
1002
{
1070
     2
1000
-2005028
1002
}
1001
ACAD
1002
{
1000
R14_HATCH_DATA
1000
2A9
1011
1.0
1021
0.0
1031
-0.0
1021
0.0
1031
0.0
1011
0.0
1021
0.0
1031
-0.0
1021
1.0
1031
0.0
1011
0.0
1021
0.0
1031
-0.0
1021
0.0
1031
1.0
1040
0.0
1010
0.0
1020
0.0
1030
1.0
1000
SOLID
1070
     1
1070
     0
1071
        1
1071
        0
1071
        1
1070
     2
1040
-442.10053408952308
1040
144.1708657885336
1040
2.4999999999999432
1040
0.0
1040
6.2831853071795862
1070
     1
1071
        0
1070
     0
1070
     1
1071
        1
1040
0.0
1040
0.0
1040
0.0
1002
}
  0
LINE
  5
2AA
  8
0
 10
-442.10053408952308
 20
349.90417609517311
 30
0.0
 11
-528.819284587418
 21
349.904176095173
 31
0.0
1001
REVIT
1002
{
1070
     1
1000
675981
1002
}
1002
{
1070
     5
1000
233013
1002
}
1002
{
1070
     2
1000
-2005028
1002
}
  0
LINE
  5
2AB
  8
0
 10
-442.10053408952308
 20
144.1708657885336
 30
0.0
 11
-442.10053408952308
 21
349.90417609517311
 31
0.0
1001
REVIT
1002
{
1070
     1
1000
675981
1002
}
1002
{
1070
     5
1000
233013
1002
}
1002
{
1070
     2
1000
-2005028
1002
}
  0
INSERT
  5
2AC
  8
0
  2
*U40
 10
0.0
 20
0.0
 30
0.0
  0
CIRCLE
  5
2AD
  8
0
 10
-472.67092566436889
 20
123.1447852743555
 30
0.0
 40
2.5
1001
REVIT
1002
{
1070
     1
1000
703636
1002
}
1002
{
1070
     5
1000
233013
1002
}
1002
{
1070
     2
1000
-2005028
1002
}
  0
INSERT
  5
2AE
  8
0
  6
CONTINUOUS
  2
*U41
 10
0.0
 20
0.0
 30
0.0
1001
REVIT
1002
{
1070
     1
1000
703636
1002
}
1002
{
1070
     5
1000
233013
1002
}
1002
{
1070
     2
1000
-2005028
1002
}
1001
ACAD
1002
{
1000
R14_HATCH_DATA
1000
2AE
1011
1.0
1021
0.0
1031
-0.0
1021
0.0
1031
0.0
1011
0.0
1021
0.0
1031
-0.0
1021
1.0
1031
0.0
1011
0.0
1021
0.0
1031
-0.0
1021
0.0
1031
1.0
1040
0.0
1010
0.0
1020
0.0
1030
1.0
1000
SOLID
1070
     1
1070
     0
1071
        1
1071
        0
1071
        1
1070
     2
1040
-472.67092566436889
1040
123.1447852743555
1040
2.5
1040
0.0
1040
6.2831853071795862
1070
     1
1071
        0
1070
     0
1070
     1
1071
        1
1040
0.0
1040
0.0
1040
0.0
1002
}
  0
LINE
  5
2AF
  8
0
 10
-472.67092566436889
 20
123.1447852743555
 30
0.0
 11
-618.069284587418
 21
123.1447852743555
 31
0.0
1001
REVIT
1002
{
1070
     1
1000
703636
1002
}
1002
{
1070
     5
1000
233013
1002
}
1002
{
1070
     2
1000
-2005028
1002
}
  0
INSERT
  5
2B0
  8
0
  2
*U42
 10
0.0
 20
0.0
 30
0.0
  0
LINE
  5
315
  8
0
 10
178.39361968854769
 20
397.07633926360461
 30
0.0
 11
178.39361968854789
 21
300.63033240520468
 31
0.0
  0
LINE
  5
316
  8
0
 10
178.39361968854811
 20
197.07633926360461
 30
0.0
 11
178.39361968854789
 21
293.52234612200448
 31
0.0
  0
LINE
  5
317
  8
0
 10
178.39361968854769
 20
397.07633926360461
 30
0.0
 11
178.39361968854789
 21
300.63033240520468
 31
0.0
  0
LINE
  5
318
  8
0
 10
178.39361968854789
 20
300.63033240520468
 30
0.0
 11
168.08600052766701
 21
298.81282104027389
 31
0.0
  0
LINE
  5
319
  8
0
 10
168.0860005276669
 20
298.81282104027389
 30
0.0
 11
188.70123884942871
 21
295.33985748693527
 31
0.0
  0
LINE
  5
31A
  8
0
 10
188.70123884942871
 20
295.33985748693527
 30
0.0
 11
178.39361968854789
 21
293.52234612200448
 31
0.0
  0
LINE
  5
31B
  8
0
 10
178.39361968854789
 20
293.52234612200448
 30
0.0
 11
178.39361968854811
 21
197.07633926360461
 31
0.0
  0
LINE
  5
31C
  8
0
 10
119.99999999999859
 20
-228.78154087428589
 30
0.0
 11
23.55399314159871
 21
-228.78154087428589
 31
0.0
  0
LINE
  5
31D
  8
0
 10
-80.000000000001407
 20
-228.78154087428589
 30
0.0
 11
16.446006858398508
 21
-228.78154087428589
 31
0.0
  0
LINE
  5
31E
  8
0
 10
119.99999999999859
 20
-228.78154087428589
 30
0.0
 11
23.55399314159871
 21
-228.78154087428589
 31
0.0
  0
LINE
  5
31F
  8
0
 10
23.55399314159871
 20
-228.78154087428589
 30
0.0
 11
21.736481776667919
 21
-218.47392171340499
 31
0.0
  0
LINE
  5
320
  8
0
 10
21.736481776667919
 20
-218.47392171340491
 30
0.0
 11
18.263518223329289
 21
-239.08916003516671
 31
0.0
  0
LINE
  5
321
  8
0
 10
18.263518223329289
 20
-239.08916003516671
 30
0.0
 11
16.446006858398508
 21
-228.78154087428589
 31
0.0
  0
LINE
  5
322
  8
0
 10
16.446006858398508
 20
-228.78154087428589
 30
0.0
 11
-80.000000000001407
 21
-228.78154087428589
 31
0.0
  0
INSERT
  5
323
  8
0
  6
CONTINUOUS
  2
*U43
 10
0.0
 20
0.0
 30
0.0
1001
ACAD
1002
{
1000
R14_HATCH_DATA
1000
323
1011
1.0
1021
0.0
1031
-0.0
1021
0.0
1031
0.0
1011
0.0
1021
0.0
1031
-0.0
1021
1.0
1031
0.0
1011
0.0
1021
0.0
1031
-0.0
1021
0.0
1031
1.0
1040
0.0
1010
0.0
1020
0.0
1030
1.0
1000
SOLID
1070
     1
1070
     0
1071
        1
1071
        0
1071
        4
1070
     1
1040
-471.55000000000189
1040
56.470844814672887
1040
-471.55000000000189
1040
155.07042973825349
1070
     1
1040
-471.55000000000189
1040
155.07042973825349
1040
-473.55000000000189
1040
154.34248926972111
1070
     1
1040
-473.550000000002
1040
154.3424892697212
1040
-473.55000000000189
1040
56.470844814672922
1070
     1
1040
-473.55000000000189
1040
56.470844814672887
1040
-471.55000000000189
1040
56.470844814672887
1071
        0
1070
     0
1070
     1
1071
        1
1040
-473.55000000000132
1040
56.470844814672759
1040
0.0
1002
}
  0
INSERT
  5
324
  8
0
  6
CONTINUOUS
  2
*U44
 10
0.0
 20
0.0
 30
0.0
1001
ACAD
1002
{
1000
R14_HATCH_DATA
1000
324
1011
1.0
1021
0.0
1031
-0.0
1021
0.0
1031
0.0
1011
0.0
1021
0.0
1031
-0.0
1021
1.0
1031
0.0
1011
0.0
1021
0.0
1031
-0.0
1021
0.0
1031
1.0
1040
0.0
1010
0.0
1020
0.0
1030
1.0
1000
SOLID
1070
     1
1070
     0
1071
        1
1071
        0
1071
        4
1070
     1
1040
-473.55000000000172
1040
154.3424892697212
1040
-425.88132867405488
1040
171.69246673938451
1070
     1
1040
-425.88132867405488
1040
171.6924667393844
1040
-426.56536896070622
1040
173.57185198095641
1070
     1
1040
-426.56536896070622
1040
173.57185198095641
1040
-473.55000000000177
1040
156.470844814673
1070
     1
1040
-473.55000000000189
1040
156.470844814673
1040
-473.55000000000177
1040
154.3424892697212
1071
        0
1070
     0
1070
     1
1071
        1
1040
-473.55000000000132
1040
56.470844814672759
1040
0.0
1002
}
  0
LINE
  5
325
  8
0
 10
-473.55000000000138
 20
154.34248926972089
 30
0.0
 11
-473.55000000000132
 21
56.470844814672759
 31
0.0
  0
LINE
  5
326
  8
0
 10
-473.55000000000132
 20
56.470844814672759
 30
0.0
 11
-471.55000000000121
 21
56.470844814672759
 31
0.0
  0
LINE
  5
327
  8
0
 10
-471.55000000000121
 20
56.470844814672759
 30
0.0
 11
-471.55000000000138
 21
155.07042973825321
 31
0.0
  0
LINE
  5
328
  8
0
 10
-426.56536896070583
 20
173.5718519809561
 30
0.0
 11
-473.55000000000121
 21
156.4708448146728
 31
0.0
  0
LINE
  5
329
  8
0
 10
-473.55000000000121
 20
156.4708448146728
 30
0.0
 11
-473.55000000000121
 21
154.34248926972089
 31
0.0
  0
LINE
  5
32A
  8
0
 10
-473.55000000000121
 20
154.34248926972089
 30
0.0
 11
-425.88132867405437
 21
171.6924667393842
 31
0.0
  0
LINE
  5
32B
  8
0
 10
-425.88132867405437
 20
171.6924667393842
 30
0.0
 11
-426.56536896070583
 21
173.5718519809561
 31
0.0
  0
LINE
  5
32C
  8
0
 10
-476.30000000000342
 20
145.4633376874246
 30
0.0
 11
-476.30000000000342
 21
149.46333768742591
 31
0.0
1001
REVIT
1002
{
1070
     3
1000
211597
1002
}
  0
LINE
  5
32D
  8
0
 10
-447.55000000000342
 20
146.96333768742409
 30
0.0
 11
-471.55000000000121
 21
146.96333768742409
 31
0.0
1001
REVIT
1002
{
1070
     3
1000
211597
1002
}
  0
LINE
  5
32E
  8
0
 10
-473.55000000000132
 20
146.96333768742409
 30
0.0
 11
-475.55000000000342
 21
146.96333768742409
 31
0.0
1001
REVIT
1002
{
1070
     3
1000
211597
1002
}
  0
LINE
  5
32F
  8
0
 10
-445.55000000000342
 20
147.4633376874252
 30
0.0
 11
-447.55000000000342
 21
146.96333768742409
 31
0.0
1001
REVIT
1002
{
1070
     3
1000
211597
1002
}
  0
LINE
  5
330
  8
0
 10
-447.55000000000342
 20
147.96333768742409
 30
0.0
 11
-445.55000000000342
 21
147.4633376874252
 31
0.0
1001
REVIT
1002
{
1070
     3
1000
211597
1002
}
  0
LINE
  5
331
  8
0
 10
-475.55000000000342
 20
147.96333768742409
 30
0.0
 11
-473.55000000000132
 21
147.96333768742409
 31
0.0
1001
REVIT
1002
{
1070
     3
1000
211597
1002
}
  0
LINE
  5
332
  8
0
 10
-471.55000000000121
 20
147.96333768742409
 30
0.0
 11
-447.55000000000342
 21
147.96333768742409
 31
0.0
1001
REVIT
1002
{
1070
     3
1000
211597
1002
}
  0
LINE
  5
333
  8
0
 10
-475.55000000000342
 20
149.16320122853551
 30
0.0
 11
-475.55000000000342
 21
147.96333768742409
 31
0.0
1001
REVIT
1002
{
1070
     3
1000
211597
1002
}
  0
LINE
  5
334
  8
0
 10
-475.55000000000342
 20
146.96333768742409
 30
0.0
 11
-475.55000000000342
 21
145.76347414631309
 31
0.0
1001
REVIT
1002
{
1070
     3
1000
211597
1002
}
  0
LINE
  5
335
  8
0
 10
-476.30000000000342
 20
145.4633376874246
 30
0.0
 11
-475.55000000000342
 21
145.76347414631309
 31
0.0
1001
REVIT
1002
{
1070
     3
1000
211597
1002
}
  0
LINE
  5
336
  8
0
 10
-476.30000000000342
 20
149.46333768742591
 30
0.0
 11
-475.55000000000342
 21
149.16320122853551
 31
0.0
1001
REVIT
1002
{
1070
     3
1000
211597
1002
}
  0
ARC
  5
337
  8
0
 10
-2.9999999999999178
 20
72.999999999999901
 30
0.0
 40
1.999999999999998
 50
0.0
 51
90.000000000000185
1001
REVIT
1002
{
1070
     3
1000
224526
1002
}
  0
ARC
  5
338
  8
0
 10
-48.999999999999872
 20
72.999999999999972
 30
0.0
 40
2.0
 50
89.999999999999801
 51
179.9999999999996
1001
REVIT
1002
{
1070
     3
1000
224526
1002
}
  0
ARC
  5
339
  8
0
 10
-48.999999999999872
 20
1.999999999999907
 30
0.0
 40
1.9999999999999949
 50
180.0
 51
269.99999999999977
1001
REVIT
1002
{
1070
     3
1000
224526
1002
}
  0
ARC
  5
33A
  8
0
 10
-2.9999999999998428
 20
1.9999999999999001
 30
0.0
 40
1.999999999999996
 50
269.9999999999996
 51
0.0
1001
REVIT
1002
{
1070
     3
1000
224526
1002
}
  0
LINE
  5
33B
  8
0
 10
-2.9999999999999138
 20
74.999999999999972
 30
0.0
 11
-48.999999999999872
 21
74.999999999999972
 31
0.0
1001
REVIT
1002
{
1070
     3
1000
224526
1002
}
  0
LINE
  5
33C
  8
0
 10
-50.999999999999872
 20
72.999999999999972
 30
0.0
 11
-50.999999999999872
 21
1.9999999999999141
 31
0.0
1001
REVIT
1002
{
1070
     3
1000
224526
1002
}
  0
LINE
  5
33D
  8
0
 10
-48.999999999999872
 20
-0.0000000000000995
 30
0.0
 11
-2.9999999999998401
 21
-0.0000000000000995
 31
0.0
1001
REVIT
1002
{
1070
     3
1000
224526
1002
}
  0
LINE
  5
33E
  8
0
 10
-0.9999999999998436
 20
1.9999999999999001
 30
0.0
 11
-0.9999999999998436
 21
72.999999999999886
 31
0.0
1001
REVIT
1002
{
1070
     3
1000
224526
1002
}
  0
LINE
  5
33F
  8
0
 10
-49.000000000000028
 20
73.000000000000142
 30
0.0
 11
-2.9999999999998108
 21
1.9999999999999709
 31
0.0
  0
LINE
  5
340
  8
0
 10
-2.9999999999998179
 20
73.000000000000142
 30
0.0
 11
-48.999999999999829
 21
1.9999999999999001
 31
0.0
  0
LINE
  5
341
  8
0
 10
199.9049116822429
 20
328.46486362353693
 30
0.0
 11
-404.24999999999977
 21
108.57045888547481
 31
0.0
1001
REVIT
1002
{
1070
     3
1000
206265
1002
}
  0
LINE
  5
342
  8
0
 10
-404.25000000000023
 20
2.1526816378833331
 30
0.0
 11
199.9049116822427
 21
222.0470863759455
 31
0.0
1001
REVIT
1002
{
1070
     3
1000
206265
1002
}
  0
LINE
  5
343
  8
0
 10
-50.999999999999368
 20
75.000000000000483
 30
0.0
 11
-204.10363773226069
 21
75.000000000000483
 31
0.0
1001
REVIT
1002
{
1070
     3
1000
206265
1002
}
  0
LINE
  5
344
  8
0
 10
-404.2499999999996
 20
0.000000000000334
 30
0.0
 11
-50.999999999999368
 21
0.000000000000334
 31
0.0
1001
REVIT
1002
{
1070
     3
1000
206265
1002
}
  0
LINE
  5
345
  8
0
 10
-476.30000000000342
 20
80.663337687424587
 30
0.0
 11
-476.30000000000342
 21
84.663337687425951
 31
0.0
1001
REVIT
1002
{
1070
     3
1000
211597
1002
}
  0
LINE
  5
346
  8
0
 10
-447.55000000000342
 20
82.163337687424104
 30
0.0
 11
-471.55000000000132
 21
82.163337687424146
 31
0.0
1001
REVIT
1002
{
1070
     3
1000
211597
1002
}
  0
LINE
  5
347
  8
0
 10
-473.55000000000138
 20
82.163337687424146
 30
0.0
 11
-475.55000000000348
 21
82.163337687424146
 31
0.0
1001
REVIT
1002
{
1070
     3
1000
211597
1002
}
  0
LINE
  5
348
  8
0
 10
-445.55000000000348
 20
82.663337687425255
 30
0.0
 11
-447.55000000000342
 21
82.163337687424104
 31
0.0
1001
REVIT
1002
{
1070
     3
1000
211597
1002
}
  0
LINE
  5
349
  8
0
 10
-447.55000000000342
 20
83.163337687424104
 30
0.0
 11
-445.55000000000348
 21
82.663337687425255
 31
0.0
1001
REVIT
1002
{
1070
     3
1000
211597
1002
}
  0
LINE
  5
34A
  8
0
 10
-475.55000000000348
 20
83.163337687424132
 30
0.0
 11
-473.55000000000138
 21
83.163337687424132
 31
0.0
1001
REVIT
1002
{
1070
     3
1000
211597
1002
}
  0
LINE
  5
34B
  8
0
 10
-471.55000000000121
 20
83.163337687424132
 30
0.0
 11
-447.55000000000342
 21
83.163337687424104
 31
0.0
1001
REVIT
1002
{
1070
     3
1000
211597
1002
}
  0
LINE
  5
34C
  8
0
 10
-475.55000000000348
 20
84.363201228535559
 30
0.0
 11
-475.55000000000348
 21
83.163337687424132
 31
0.0
1001
REVIT
1002
{
1070
     3
1000
211597
1002
}
  0
LINE
  5
34D
  8
0
 10
-475.55000000000348
 20
82.163337687424146
 30
0.0
 11
-475.55000000000348
 21
80.963474146313146
 31
0.0
1001
REVIT
1002
{
1070
     3
1000
211597
1002
}
  0
LINE
  5
34E
  8
0
 10
-476.30000000000342
 20
80.663337687424587
 30
0.0
 11
-475.55000000000348
 21
80.963474146313146
 31
0.0
1001
REVIT
1002
{
1070
     3
1000
211597
1002
}
  0
LINE
  5
34F
  8
0
 10
-476.30000000000342
 20
84.663337687425951
 30
0.0
 11
-475.55000000000348
 21
84.363201228535559
 31
0.0
1001
REVIT
1002
{
1070
     3
1000
211597
1002
}
  0
LINE
  5
350
  8
0
  6
DASH
 10
-467.55000000000172
 20
108.03872599031961
 30
0.0
 11
-467.55000000000177
 21
83.163337687424118
 31
0.0
1001
REVIT
1002
{
1070
     3
1000
217411
1002
}
  0
LINE
  5
351
  8
0
  6
DASH
 10
-467.55000000000177
 20
82.163337687424104
 30
0.0
 11
-467.55000000000177
 21
76.494574202364475
 31
0.0
1001
REVIT
1002
{
1070
     3
1000
217411
1002
}
  0
ARC
  5
352
  8
0
 10
-422.94151964865182
 20
168.634114174106
 30
0.0
 40
1.9999999999999969
 50
19.999999999999531
 51
110.0000000000001
1001
REVIT
1002
{
1070
     3
1000
224526
1002
}
  0
ARC
  5
353
  8
0
 10
-466.16738020480369
 20
152.90118758112541
 30
0.0
 40
2.0
 50
110.0000000000001
 51
199.99999999999949
1001
REVIT
1002
{
1070
     3
1000
224526
1002
}
  0
ARC
  5
354
  8
0
 10
-453.85465504507971
 20
119.07225323283269
 30
0.0
 40
1.999999999999996
 50
199.99999999999949
 51
290.00000000000011
1001
REVIT
1002
{
1070
     3
1000
224526
1002
}
  0
ARC
  5
355
  8
0
 10
-410.62879448892778
 20
134.80517982581341
 30
0.0
 40
1.9999999999999989
 50
290.00000000000011
 51
19.999999999999531
1001
REVIT
1002
{
1070
     3
1000
224526
1002
}
  0
LINE
  5
356
  8
0
 10
-423.62555993530327
 20
170.5134994156779
 30
0.0
 11
-466.85142049145497
 21
154.78057282269731
 31
0.0
1001
REVIT
1002
{
1070
     3
1000
224526
1002
}
  0
LINE
  5
357
  8
0
 10
-468.0467654463755
 20
152.2171472944741
 30
0.0
 11
-466.49850536717361
 21
147.96333768742409
 31
0.0
1001
REVIT
1002
{
1070
     3
1000
224526
1002
}
  0
LINE
  5
358
  8
0
 10
-466.1345351329075
 20
146.96333768742409
 30
0.0
 11
-455.73404028665152
 21
118.3882129461814
 31
0.0
1001
REVIT
1002
{
1070
     3
1000
224526
1002
}
  0
LINE
  5
359
  8
0
 10
-453.17061475842843
 20
117.1928679912609
 30
0.0
 11
-409.9447542022765
 21
132.9257945842416
 31
0.0
1001
REVIT
1002
{
1070
     3
1000
224526
1002
}
  0
LINE
  5
35A
  8
0
 10
-408.74940924735603
 20
135.48922011246469
 30
0.0
 11
-421.06213440708001
 21
169.3181544607574
 31
0.0
1001
REVIT
1002
{
1070
     3
1000
224526
1002
}
  0
LINE
  5
35B
  8
0
 10
-466.16738020480392
 20
152.9011875811255
 30
0.0
 11
-451.01259008304493
 21
147.96333768742389
 31
0.0
  0
LINE
  5
35C
  8
0
 10
-447.94348299230739
 20
146.963337687424
 30
0.0
 11
-410.62879448892778
 21
134.8051798258135
 31
0.0
  0
LINE
  5
35D
  8
0
 10
-422.94151964865182
 20
168.63411417410629
 30
0.0
 11
-453.8546550450796
 21
119.07225323283269
 31
0.0
  0
LINE
  5
35E
  8
0
 10
274.93216436871973
 20
360.77255036017982
 30
0.0
 11
270.9989327204745
 21
371.57901549921792
 31
0.0
  0
LINE
  5
35F
  8
0
 10
270.9989327204745
 20
371.57901549921792
 30
0.0
 11
-452.07636860782782
 21
108.4011286826571
 31
0.0
  0
LINE
  5
360
  8
0
 10
-452.07636860782782
 20
108.4011286826571
 30
0.0
 11
-448.14313695958259
 21
97.594663543618964
 31
0.0
  0
LINE
  5
361
  8
0
 10
-448.14313695958259
 20
97.594663543618964
 30
0.0
 11
274.93216436871973
 21
360.77255036017982
 31
0.0
  0
LINE
  5
362
  8
0
 10
-448.14313695958259
 20
97.594663543618964
 30
0.0
 11
274.93216436871973
 21
360.77255036017982
 31
0.0
  0
LINE
  5
363
  8
0
 10
-452.07636860782782
 20
108.4011286826571
 30
0.0
 11
-448.14313695958259
 21
97.594663543618964
 31
0.0
  0
LINE
  5
364
  8
0
 10
270.9989327204745
 20
371.57901549921792
 30
0.0
 11
-452.07636860782782
 21
108.4011286826571
 31
0.0
  0
LINE
  5
365
  8
0
 10
274.93216436871973
 20
360.77255036017982
 30
0.0
 11
270.9989327204745
 21
371.57901549921792
 31
0.0
  0
LINE
  5
366
  8
0
 10
-455.05000000000018
 20
95.080770984753713
 30
0.0
 11
-404.24999999999977
 21
95.080770984753713
 31
0.0
  0
LINE
  5
367
  8
0
 10
-455.05000000000018
 20
-57.319229015245703
 30
0.0
 11
-455.05000000000018
 21
82.163337687424104
 31
0.0
  0
LINE
  5
368
  8
0
 10
-455.05000000000018
 20
83.163337687424004
 30
0.0
 11
-455.05000000000018
 21
95.080770984753713
 31
0.0
  0
LINE
  5
369
  8
0
 10
-404.24999999999977
 20
-57.319229015245703
 30
0.0
 11
-455.05000000000018
 21
-57.319229015245703
 31
0.0
  0
LINE
  5
36A
  8
0
 10
-404.24999999999977
 20
0.0000000000002913
 30
0.0
 11
-404.24999999999977
 21
-57.319229015245703
 31
0.0
  0
LINE
  5
36B
  8
0
 10
-455.05000000000018
 20
95.080770984753713
 30
0.0
 11
-451.07752223422352
 21
83.163337687424004
 31
0.0
1001
REVIT
1002
{
1070
     3
1000
41944
1002
}
  0
LINE
  5
36C
  8
0
 10
-450.74418890089021
 20
82.163337687424104
 30
0.0
 11
-404.24999999999977
 21
-57.319229015245703
 31
0.0
1001
REVIT
1002
{
1070
     3
1000
41944
1002
}
  0
LINE
  5
36D
  8
0
 10
-404.24999999999977
 20
95.080770984753713
 30
0.0
 11
-455.05000000000018
 21
-57.319229015245703
 31
0.0
1001
REVIT
1002
{
1070
     3
1000
41944
1002
}
  0
INSERT
  5
36E
  8
0
  6
CONTINUOUS
  2
*U45
 10
0.0
 20
0.0
 30
0.0
1001
ACAD
1002
{
1000
R14_HATCH_DATA
1000
36E
1011
1.0
1021
0.0
1031
-0.0
1021
0.0
1031
0.0
1011
0.0
1021
0.0
1031
-0.0
1021
1.0
1031
0.0
1011
0.0
1021
0.0
1031
-0.0
1021
0.0
1031
1.0
1040
0.0
1010
0.0
1020
0.0
1030
1.0
1000
SOLID
1070
     1
1070
     0
1071
        2
1071
        0
1071
      105
1070
     1
1040
-462.80000000000058
1040
17.896774167515321
1040
-462.08824762596868
1040
17.990478145220489
1070
     1
1040
-462.08824762596868
1040
17.990478145220489
1040
-461.42500000000092
1040
18.265204307108121
1070
     1
1040
-461.42500000000092
1040
18.265204307108121
1040
-460.85545635173793
1040
18.70223051925224
1070
     1
1040
-460.85545635173793
1040
18.70223051925224
1040
-460.4184301395938
1040
19.271774167515151
1070
     1
1040
-460.4184301395938
1040
19.27177416751514
1040
-460.14370397770602
1040
19.935021793483092
1070
     1
1040
-460.14370397770608
1040
19.935021793483092
1040
-460.05000000000098
1040
20.646774167514959
1070
     1
1040
-460.05000000000098
1040
20.646774167514959
1040
-460.05000000000098
1040
82.163337687424175
1070
     1
1040
-460.05000000000098
1040
82.163337687424175
1040
-461.05000000000098
1040
82.163337687424175
1070
     1
1040
-461.05000000000098
1040
82.163337687424175
1040
-461.05000000000098
1040
20.646774167514959
1070
     1
1040
-461.05000000000098
1040
20.646774167514959
1040
-461.10962980399512
1040
20.193840838585569
1070
     1
1040
-461.10962980399512
1040
20.193840838585569
1040
-461.28445554337821
1040
19.771774167515161
1070
     1
1040
-461.28445554337821
1040
19.771774167515161
1040
-461.56256313292431
1040
19.409337300438828
1070
     1
1040
-461.56256313292431
1040
19.409337300438828
1040
-461.92500000000069
1040
19.131229710892459
1070
     1
1040
-461.92500000000081
1040
19.131229710892459
1040
-462.34706667107122
1040
18.956403971509442
1070
     1
1040
-462.34706667107122
1040
18.956403971509442
1040
-462.80000000000069
1040
18.89677416751536
1070
     1
1040
-462.80000000000069
1040
18.89677416751536
1040
-547.75148842848876
1040
18.937632331947668
1070
     1
1040
-547.75148842848876
1040
18.937632331947668
1040
-548.10987808020752
1040
19.05829895141494
1070
     1
1040
-548.10987808020752
1040
19.05829895141494
1040
-548.43397797065938
1040
19.25313949268331
1070
     1
1040
-548.43397797065938
1040
19.25313949268331
1040
-548.70865424085434
1040
19.513055867897599
1070
     1
1040
-548.70865424085434
1040
19.513055867897599
1040
-549.08165929623283
1040
20.128251494452051
1070
     1
1040
-549.08165929623283
1040
20.128251494452051
1040
-550.56219600538338
1040
22.91583517607782
1070
     1
1040
-550.56219600538338
1040
22.91583517607782
1040
-550.93939259777665
1040
23.85654656698355
1070
     1
1040
-550.93939259777676
1040
23.85654656698355
1040
-551.1084270132028
1040
24.855867614842811
1070
     1
1040
-551.1084270132028
1040
24.855867614842811
1040
-551.06160353003418
1040
25.868301687618271
1070
     1
1040
-551.06160353003418
1040
25.868301687618271
1040
-550.58670586989638
1040
28.945808172633509
1070
     1
1040
-550.58670586989638
1040
28.945808172633509
1040
-550.60375147312084
1040
29.656151578066378
1070
     1
1040
-550.60375147312084
1040
29.656151578066378
1040
-550.71289155138277
1040
30.103208073341651
1070
     1
1040
-550.71289155138277
1040
30.103208073341651
1040
-550.99497678673833
1040
30.618155930787871
1070
     1
1040
-550.99497678673845
1040
30.618155930787871
1040
-551.72297513038052
1040
31.612444883402311
1070
     1
1040
-551.72297513038041
1040
31.612444883402311
1040
-553.45093776720898
1040
33.646127752762553
1070
     1
1040
-553.45093776720898
1040
33.646127752762553
1040
-554.87427053601596
1040
35.016934299544523
1070
     1
1040
-554.87427053601596
1040
35.016934299544523
1040
-558.76732634137215
1040
38.35773523356643
1070
     1
1040
-558.76732634137215
1040
38.35773523356643
1040
-562.93544660620285
1040
42.74577293151718
1070
     1
1040
-562.93544660620285
1040
42.74577293151718
1040
-566.12927913876945
1040
47.886544773823132
1070
     1
1040
-566.12927913876945
1040
47.886544773823132
1040
-568.31158993427618
1040
53.938754099449312
1070
     1
1040
-568.31158993427607
1040
53.938754099449312
1040
-573.6642177854668
1040
74.880482156865511
1070
     1
1040
-573.6642177854668
1040
74.880482156865511
1040
-575.00388163464174
1040
78.856308540788959
1070
     1
1040
-575.00388163464186
1040
78.856308540788959
1040
-576.46718226849953
1040
81.968797692341909
1070
     1
1040
-576.46718226849953
1040
81.968797692341909
1040
-578.51755145751144
1040
85.190275504588087
1070
     1
1040
-578.51755145751144
1040
85.190275504588087
1040
-580.95304121386812
1040
88.131418607656457
1070
     1
1040
-580.95304121386823
1040
88.131418607656457
1040
-583.72024696520998
1040
90.718860420340974
1070
     1
1040
-583.72024696520987
1040
90.718860420340974
1040
-586.83697023565696
1040
92.977056469710377
1070
     1
1040
-586.83697023565696
1040
92.977056469710377
1040
-592.59848381425229
1040
96.668607333680967
1070
     1
1040
-592.59848381425229
1040
96.668607333680967
1040
-592.85048257956441
1040
96.999532774024047
1070
     1
1040
-592.85048257956441
1040
96.999532774024047
1040
-593.0172640901144
1040
97.380582577230641
1070
     1
1040
-593.0172640901144
1040
97.380582577230641
1040
-593.08940607416946
1040
97.790229448232694
1070
     1
1040
-593.08940607416946
1040
97.790229448232694
1040
-593.06283289184103
1040
98.205330509139557
1070
     1
1040
-593.06283289184103
1040
98.205330509139557
1040
-590.97687257387622
1040
109.3634063493522
1070
     1
1040
-590.97687257387634
1040
109.3634063493522
1040
-590.7699757635437
1040
109.63804616212821
1070
     1
1040
-590.7699757635437
1040
109.63804616212821
1040
-590.46226247665288
1040
109.7914927324983
1070
     1
1040
-590.46226247665288
1040
109.7914927324983
1040
-590.29033711720353
1040
109.8114641914291
1070
     1
1040
-590.29033711720342
1040
109.8114641914291
1040
-577.26719249341375
1040
109.7859085611458
1070
     1
1040
-577.26719249341375
1040
109.7859085611458
1040
-576.93097669135057
1040
109.591794277319
1070
     1
1040
-576.93097669135068
1040
109.591794277319
1040
-576.73686240752386
1040
109.255578475256
1070
     1
1040
-576.73686240752386
1040
109.255578475256
1040
-576.71130677724057
1040
109.061464191429
1070
     1
1040
-576.71130677724057
1040
109.061464191429
1040
-576.71130677724057
1040
106.40074009030479
1070
     1
1040
-576.71130677724057
1040
106.40074009030479
1040
-575.71130677724057
1040
106.40074009030479
1070
     1
1040
-575.71130677724057
1040
106.40074009030479
1040
-575.71130677724057
1040
109.061464191429
1070
     1
1040
-575.71130677724057
1040
109.061464191429
1040
-575.77093658123465
1040
109.5143975203584
1070
     1
1040
-575.77093658123476
1040
109.5143975203584
1040
-575.94576232061797
1040
109.9364641914291
1070
     1
1040
-575.94576232061797
1040
109.9364641914291
1040
-576.22386991016424
1040
110.29890105850551
1070
     1
1040
-576.22386991016424
1040
110.29890105850551
1040
-576.58630677724057
1040
110.5770086480518
1070
     1
1040
-576.58630677724057
1040
110.5770086480518
1040
-577.00837344831132
1040
110.7518343874348
1070
     1
1040
-577.00837344831132
1040
110.7518343874348
1040
-577.46130677724057
1040
110.8114641914291
1070
     1
1040
-577.46130677724068
1040
110.8114641914291
1040
-590.69149628925186
1040
110.7648641205929
1070
     1
1040
-590.69149628925186
1040
110.7648641205929
1040
-591.07129083749078
1040
110.6275456984918
1070
     1
1040
-591.07129083749078
1040
110.6275456984918
1040
-591.40949395866267
1040
110.40682212306329
1070
     1
1040
-591.40949395866267
1040
110.40682212306329
1040
-591.68809389344983
1040
110.114448519164
1070
     1
1040
-591.68809389344983
1040
110.114448519164
1040
-591.89225318277136
1040
109.7659958932532
1070
     1
1040
-591.89225318277136
1040
109.7659958932532
1040
-592.01109886966333
1040
109.3800218648167
1070
     1
1040
-592.01109886966333
1040
109.3800218648167
1040
-594.04612532181716
1040
98.387363465362824
1070
     1
1040
-594.04612532181716
1040
98.387363465362824
1040
-594.08788317976189
1040
97.735061798223569
1070
     1
1040
-594.08788317976212
1040
97.735061798223569
1040
-593.97451720481831
1040
97.091331000934886
1070
     1
1040
-593.97451720481831
1040
97.091331000934886
1040
-593.71243197395415
1040
96.492538453038875
1070
     1
1040
-593.71243197395415
1040
96.492538453038875
1040
-593.31643391417799
1040
95.972512761071357
1070
     1
1040
-593.31643391417799
1040
95.972512761071357
1040
-592.80889481785789
1040
95.560632621516689
1070
     1
1040
-592.80889481785789
1040
95.560632621516689
1040
-587.37036066419375
1040
92.131187300899114
1070
     1
1040
-587.37036066419375
1040
92.131187300899114
1040
-584.3566695679765
1040
89.947642360599914
1070
     1
1040
-584.3566695679765
1040
89.947642360599914
1040
-581.68094169271194
1040
87.445735814450373
1070
     1
1040
-581.68094169271194
1040
87.445735814450373
1040
-579.32596399441661
1040
84.601820582557821
1070
     1
1040
-579.32596399441684
1040
84.601820582557821
1040
-577.34337560504139
1040
81.486837904600719
1070
     1
1040
-577.34337560504139
1040
81.486837904600719
1040
-575.78481565653658
1040
78.1717290202578
1070
     1
1040
-575.78481565653658
1040
78.1717290202578
1040
-574.63307110491894
1040
74.632846849636095
1070
     1
1040
-574.63307110491894
1040
74.632846849636095
1040
-569.18550125762488
1040
53.319665831375069
1070
     1
1040
-569.18550125762488
1040
53.319665831375069
1040
-567.02796880109884
1040
47.447959672819451
1070
     1
1040
-567.02796880109884
1040
47.447959672819451
1040
-563.72678055315191
1040
42.134388776990512
1070
     1
1040
-563.72678055315191
1040
42.134388776990512
1040
-559.41855540546965
1040
37.598854013562629
1070
     1
1040
-559.41855540546965
1040
37.598854013562629
1040
-555.52549960011333
1040
34.258053079540574
1070
     1
1040
-555.52549960011333
1040
34.258053079540574
1040
-553.90064184144592
1040
32.684648880054567
1070
     1
1040
-553.90064184144592
1040
32.684648880054567
1040
-552.5298237206822
1040
31.021686597528952
1070
     1
1040
-552.52982372068197
1040
31.021686597528959
1040
-551.64511135739804
1040
29.74131550188881
1070
     1
1040
-551.64511135739815
1040
29.74131550188881
1040
-551.56774958541087
1040
29.424428404099402
1070
     1
1040
-551.56774958541087
1040
29.424428404099391
1040
-551.57500820101689
1040
29.098315557051119
1070
     1
1040
-551.57500820101677
1040
29.098315557051119
1040
-552.04990586115457
1040
26.02080907203587
1070
     1
1040
-552.04990586115457
1040
26.02080907203587
1040
-552.10658691972696
1040
24.795230983939081
1070
     1
1040
-552.10658691972696
1040
24.795230983939081
1040
-551.90196631157994
1040
23.58552655758324
1070
     1
1040
-551.90196631157971
1040
23.58552655758324
1040
-551.44535991026146
1040
22.446770663328781
1070
     1
1040
-551.44535991026146
1040
22.446770663328781
1040
-549.80424477485496
1040
19.356846757455038
1070
     1
1040
-549.80424477485496
1040
19.356846757455038
1040
-549.47043150051945
1040
18.86521683954469
1070
     1
1040
-549.47043150051945
1040
18.86521683954469
1040
-549.03879736164174
1040
18.456776821350701
1070
     1
1040
-549.03879736164174
1040
18.456776821350701
1040
-548.52949753378834
1040
18.150598827928938
1070
     1
1040
-548.52949753378834
1040
18.150598827928938
1040
-547.96631379537325
1040
17.9609798544803
1070
     1
1040
-547.96631379537325
1040
17.9609798544803
1040
-547.37554403644128
1040
17.896774167515321
1070
     1
1040
-547.37554403644117
1040
17.896774167515321
1040
-466.6369270872699
1040
17.896774167515321
1070
     1
1040
-466.6369270872699
1040
17.896774167515321
1040
-462.80000000000058
1040
17.896774167515321
1071
        0
1071
        0
1071
       30
1070
     1
1040
-460.17564246825413
1040
83.163337687424075
1040
-460.05000000000098
1040
83.163337687424075
1070
     1
1040
-460.05000000000098
1040
83.163337687424075
1040
-460.05000000000098
1040
92.146774167515218
1070
     1
1040
-460.05000000000098
1040
92.146774167515218
1040
-460.12666689085069
1040
92.729117018996064
1070
     1
1040
-460.12666689085069
1040
92.729117018996064
1040
-460.35144284148612
1040
93.271774167515574
1070
     1
1040
-460.35144284148612
1040
93.271774167515574
1040
-460.70900974233149
1040
93.737764425185588
1070
     1
1040
-460.70900974233149
1040
93.737764425185588
1040
-461.17500000000149
1040
94.095331326030973
1070
     1
1040
-461.17500000000149
1040
94.095331326030973
1040
-461.71765714852108
1040
94.320107276666434
1070
     1
1040
-461.71765714852103
1040
94.320107276666434
1040
-462.30000000000189
1040
94.396774167516114
1070
     1
1040
-462.30000000000189
1040
94.396774167516114
1040
-462.88234285148292
1040
94.320107276666434
1070
     1
1040
-462.88234285148292
1040
94.320107276666434
1040
-463.4250000000024
1040
94.095331326030973
1070
     1
1040
-463.42500000000229
1040
94.095331326030973
1040
-463.89099025767217
1040
93.737764425185588
1070
     1
1040
-463.89099025767217
1040
93.737764425185588
1040
-464.2485571585176
1040
93.271774167515574
1070
     1
1040
-464.2485571585176
1040
93.271774167515574
1040
-464.4733331091532
1040
92.729117018996064
1070
     1
1040
-464.4733331091532
1040
92.729117018996064
1040
-464.55000000000291
1040
92.146774167515218
1070
     1
1040
-464.55000000000291
1040
92.146774167515218
1040
-464.55000000000291
1040
87.146774167515147
1070
     1
1040
-464.55000000000291
1040
87.146774167515147
1040
-463.5500000000028
1040
87.146774167515147
1070
     1
1040
-463.5500000000028
1040
87.146774167515147
1040
-463.50740728286422
1040
92.470297973893565
1070
     1
1040
-463.50740728286422
1040
92.470297973893565
1040
-463.38253175473329
1040
92.771774167515673
1070
     1
1040
-463.38253175473329
1040
92.771774167515673
1040
-463.18388347648579
1040
93.030657643999078
1070
     1
1040
-463.18388347648579
1040
93.030657643999078
1040
-462.9250000000024
1040
93.229305922246496
1070
     1
1040
-462.9250000000024
1040
93.229305922246496
1040
-462.62352380638032
1040
93.354181450377425
1070
     1
1040
-462.62352380638032
1040
93.354181450377425
1040
-462.30000000000177
1040
93.396774167516085
1070
     1
1040
-462.30000000000189
1040
93.396774167516085
1040
-461.97647619362351
1040
93.354181450377425
1070
     1
1040
-461.97647619362351
1040
93.354181450377425
1040
-461.67500000000138
1040
93.229305922246496
1070
     1
1040
-461.67500000000149
1040
93.229305922246496
1040
-461.4161165235181
1040
93.030657643999078
1070
     1
1040
-461.4161165235181
1040
93.030657643999078
1040
-461.2174682452706
1040
92.771774167515673
1070
     1
1040
-461.2174682452706
1040
92.771774167515673
1040
-461.09259271713972
1040
92.470297973893565
1070
     1
1040
-461.09259271713972
1040
92.470297973893565
1040
-461.05000000000098
1040
92.146774167515218
1070
     1
1040
-461.05000000000098
1040
92.146774167515218
1040
-461.05000000000098
1040
83.163337687424075
1070
     1
1040
-461.05000000000098
1040
83.163337687424075
1040
-460.17564246825401
1040
83.163337687424075
1071
        0
1070
     0
1070
     1
1071
        1
1040
-460.0500000000003
1040
17.896774167515321
1040
0.0
1002
}
  0
LINE
  5
36F
  8
0
 10
-576.71130677724
 20
106.40074009030459
 30
0.0
 11
-575.71130677724
 21
106.40074009030459
 31
0.0
1001
REVIT
1002
{
1070
     3
1000
476644
1002
}
  0
LINE
  5
370
  8
0
 10
-575.71130677724
 20
106.40074009030459
 30
0.0
 11
-575.71130677724
 21
109.0614641914289
 31
0.0
1001
REVIT
1002
{
1070
     3
1000
476644
1002
}
  0
ARC
  5
371
  8
0
 10
-577.46130677723988
 20
109.0614641914289
 30
0.0
 40
1.75
 50
0.0
 51
90.0
1001
REVIT
1002
{
1070
     3
1000
476644
1002
}
  0
LINE
  5
372
  8
0
 10
-577.46130677723988
 20
110.8114641914289
 30
0.0
 11
-590.29033711720263
 21
110.8114641914289
 31
0.0
1001
REVIT
1002
{
1070
     3
1000
476644
1002
}
  0
ARC
  5
373
  8
0
 10
-590.29033711720263
 20
109.0614641914256
 30
0.0
 40
1.7500000000014491
 50
90.0
 51
169.5118037983689
1001
REVIT
1002
{
1070
     3
1000
476644
1002
}
  0
LINE
  5
374
  8
0
 10
-592.01109886966253
 20
109.3800218648165
 30
0.0
 11
-594.04612532181659
 21
98.387363465362725
 31
0.0
1001
REVIT
1002
{
1070
     3
1000
476644
1002
}
  0
ARC
  5
375
  8
0
 10
-591.34207113938055
 20
97.886772835748644
 30
0.0
 40
2.7500000000013221
 50
169.5118037983689
 51
237.76518004707859
1001
REVIT
1002
{
1070
     3
1000
476644
1002
}
  0
LINE
  5
376
  8
0
 10
-592.80889481785709
 20
95.560632621516575
 30
0.0
 11
-587.37036066419284
 21
92.131187300898944
 31
0.0
1001
REVIT
1002
{
1070
     3
1000
476644
1002
}
  0
ARC
  5
377
  8
0
 10
-602.97203069889224
 20
67.389514113169014
 30
0.0
 40
29.250000000001211
 50
14.33762585345529
 51
57.765180047081607
1001
REVIT
1002
{
1070
     3
1000
476644
1002
}
  0
LINE
  5
378
  8
0
 10
-574.63307110491814
 20
74.632846849635982
 30
0.0
 11
-569.18550125762408
 21
53.319665831375062
 31
0.0
1001
REVIT
1002
{
1070
     3
1000
476644
1002
}
  0
ARC
  5
379
  8
0
 10
-539.39326168447326
 20
60.934451528686139
 30
0.0
 40
30.749999999999812
 50
194.33762585345491
 51
229.3656677408556
1001
REVIT
1002
{
1070
     3
1000
476644
1002
}
  0
LINE
  5
37A
  8
0
 10
-559.41855540546885
 20
37.598854013562502
 30
0.0
 11
-555.52549960011265
 21
34.258053079540481
 31
0.0
1001
REVIT
1002
{
1070
     3
1000
476644
1002
}
  0
ARC
  5
37B
  8
0
 10
-568.06165908398702
 20
19.649589594464089
 30
0.0
 40
19.249999999998529
 50
36.210836948253387
 51
49.365667740855713
1001
REVIT
1002
{
1070
     3
1000
476644
1002
}
  0
LINE
  5
37C
  8
0
 10
-552.52982372068141
 20
31.021686597528841
 30
0.0
 11
-551.80182537703934
 21
30.027397644914291
 31
0.0
1001
REVIT
1002
{
1070
     3
1000
476644
1002
}
  0
ARC
  5
37D
  8
0
 10
-552.81038611491545
 20
29.288949787572971
 30
0.0
 40
1.2499999999989371
 50
351.2277387767702
 51
36.210836948254382
1001
REVIT
1002
{
1070
     3
1000
476644
1002
}
  0
LINE
  5
37E
  8
0
 10
-551.57500820101609
 20
29.098315557051048
 30
0.0
 11
-552.049905861154
 21
26.020809072035892
 31
0.0
1001
REVIT
1002
{
1070
     3
1000
476644
1002
}
  0
ARC
  5
37F
  8
0
 10
-546.36716745721299
 20
25.1438916116347
 30
0.0
 40
5.7499999999984253
 50
171.22773877677221
 51
207.97358915472461
1001
REVIT
1002
{
1070
     3
1000
476644
1002
}
  0
LINE
  5
380
  8
0
 10
-551.44535991026078
 20
22.446770663328781
 30
0.0
 11
-549.80424477485428
 21
19.356846757454999
 31
0.0
1001
REVIT
1002
{
1070
     3
1000
476644
1002
}
  0
ARC
  5
381
  8
0
 10
-547.37554403644049
 20
20.64677416751416
 30
0.0
 40
2.74999999999884
 50
207.97358915472421
 51
270.0
1001
REVIT
1002
{
1070
     3
1000
476644
1002
}
  0
LINE
  5
382
  8
0
 10
-547.37554403644049
 20
17.896774167515321
 30
0.0
 11
-462.80000000000013
 21
17.896774167515321
 31
0.0
1001
REVIT
1002
{
1070
     3
1000
476644
1002
}
  0
ARC
  5
383
  8
0
 10
-462.7999999999999
 20
20.646774167514849
 30
0.0
 40
2.7499999999995191
 50
270.0
 51
0.0
1001
REVIT
1002
{
1070
     3
1000
476644
1002
}
  0
LINE
  5
384
  8
0
 10
-460.0500000000003
 20
20.646774167514849
 30
0.0
 11
-460.0500000000003
 21
82.163337687424075
 31
0.0
1001
REVIT
1002
{
1070
     3
1000
476644
1002
}
  0
LINE
  5
385
  8
0
 10
-460.0500000000003
 20
83.163337687423976
 30
0.0
 11
-460.0500000000003
 21
92.146774167515062
 31
0.0
1001
REVIT
1002
{
1070
     3
1000
476644
1002
}
  0
ARC
  5
386
  8
0
 10
-462.30000000000132
 20
92.146774167515034
 30
0.0
 40
2.2500000000009148
 50
0.0000000000002036
 51
179.9999999999996
1001
REVIT
1002
{
1070
     3
1000
476644
1002
}
  0
LINE
  5
387
  8
0
 10
-464.55000000000223
 20
92.146774167515062
 30
0.0
 11
-464.55000000000223
 21
87.146774167515034
 31
0.0
1001
REVIT
1002
{
1070
     3
1000
476644
1002
}
  0
LINE
  5
388
  8
0
 10
-464.55000000000223
 20
87.146774167515034
 30
0.0
 11
-463.55000000000223
 21
87.146774167515034
 31
0.0
1001
REVIT
1002
{
1070
     3
1000
476644
1002
}
  0
LINE
  5
389
  8
0
 10
-463.55000000000223
 20
87.146774167515034
 30
0.0
 11
-463.55000000000223
 21
92.146774167515062
 31
0.0
1001
REVIT
1002
{
1070
     3
1000
476644
1002
}
  0
ARC
  5
38A
  8
0
 10
-462.30000000000132
 20
92.146774167515034
 30
0.0
 40
1.2500000000009139
 50
0.0000000000014249
 51
180.0
1001
REVIT
1002
{
1070
     3
1000
476644
1002
}
  0
LINE
  5
38B
  8
0
 10
-461.05000000000041
 20
92.146774167515062
 30
0.0
 11
-461.05000000000041
 21
83.163337687423976
 31
0.0
1001
REVIT
1002
{
1070
     3
1000
476644
1002
}
  0
LINE
  5
38C
  8
0
 10
-461.05000000000041
 20
82.163337687424075
 30
0.0
 11
-461.05000000000041
 21
20.646774167514849
 31
0.0
1001
REVIT
1002
{
1070
     3
1000
476644
1002
}
  0
ARC
  5
38D
  8
0
 10
-462.7999999999999
 20
20.646774167514881
 30
0.0
 40
1.749999999999555
 50
270.0
 51
359.9999999999992
1001
REVIT
1002
{
1070
     3
1000
476644
1002
}
  0
LINE
  5
38E
  8
0
 10
-462.80000000000013
 20
18.896774167515311
 30
0.0
 11
-547.37554403644106
 21
18.896774167515311
 31
0.0
1001
REVIT
1002
{
1070
     3
1000
476644
1002
}
  0
ARC
  5
38F
  8
0
 10
-547.37554403644049
 20
20.646774167514138
 30
0.0
 40
1.7499999999988161
 50
207.97358915472421
 51
270.0
1001
REVIT
1002
{
1070
     3
1000
476644
1002
}
  0
LINE
  5
390
  8
0
 10
-548.92108086997632
 20
19.825911270203989
 30
0.0
 11
-550.5621960053827
 21
22.915835176077739
 31
0.0
1001
REVIT
1002
{
1070
     3
1000
476644
1002
}
  0
ARC
  5
391
  8
0
 10
-546.36716745721264
 20
25.143891611634739
 30
0.0
 40
4.7499999999986988
 50
171.22773877677321
 51
207.97358915472401
1001
REVIT
1002
{
1070
     3
1000
476644
1002
}
  0
LINE
  5
392
  8
0
 10
-551.06160353003338
 20
25.868301687618249
 30
0.0
 11
-550.58670586989558
 21
28.945808172633409
 31
0.0
1001
REVIT
1002
{
1070
     3
1000
476644
1002
}
  0
ARC
  5
393
  8
0
 10
-552.81038611491545
 20
29.288949787572971
 30
0.0
 40
2.249999999998916
 50
351.22773877677059
 51
36.210836948253878
1001
REVIT
1002
{
1070
     3
1000
476644
1002
}
  0
LINE
  5
394
  8
0
 10
-550.99497678673765
 20
30.618155930787829
 30
0.0
 11
-551.72297513037984
 21
31.612444883402361
 31
0.0
1001
REVIT
1002
{
1070
     3
1000
476644
1002
}
  0
ARC
  5
395
  8
0
 10
-568.06165908398725
 20
19.649589594463681
 30
0.0
 40
20.24999999999908
 50
36.210836948253061
 51
49.365667740855443
1001
REVIT
1002
{
1070
     3
1000
476644
1002
}
  0
LINE
  5
396
  8
0
 10
-554.87427053601505
 20
35.016934299544467
 30
0.0
 11
-558.76732634137159
 21
38.357735233566551
 31
0.0
1001
REVIT
1002
{
1070
     3
1000
476644
1002
}
  0
ARC
  5
397
  8
0
 10
-539.39326168447326
 20
60.934451528686168
 30
0.0
 40
29.749999999999851
 50
194.33762585345551
 51
229.3656677408558
1001
REVIT
1002
{
1070
     3
1000
476644
1002
}
  0
LINE
  5
398
  8
0
 10
-568.21664793817206
 20
53.567301138604691
 30
0.0
 11
-573.66421778546612
 21
74.880482156865625
 31
0.0
1001
REVIT
1002
{
1070
     3
1000
476644
1002
}
  0
ARC
  5
399
  8
0
 10
-602.97203069889224
 20
67.389514113169028
 30
0.0
 40
30.250000000001151
 50
14.33762585345489
 51
57.765180047078744
1001
REVIT
1002
{
1070
     3
1000
476644
1002
}
  0
LINE
  5
39A
  8
0
 10
-586.83697023565617
 20
92.977056469710234
 30
0.0
 11
-592.27550438932042
 21
96.406501790327823
 31
0.0
1001
REVIT
1002
{
1070
     3
1000
476644
1002
}
  0
ARC
  5
39B
  8
0
 10
-591.34207113938055
 20
97.886772835748644
 30
0.0
 40
1.750000000001342
 50
169.5118037983697
 51
237.76518004708171
1001
REVIT
1002
{
1070
     3
1000
476644
1002
}
  0
LINE
  5
39C
  8
0
 10
-593.06283289184034
 20
98.205330509139515
 30
0.0
 11
-591.02780643968617
 21
109.1979889085933
 31
0.0
1001
REVIT
1002
{
1070
     3
1000
476644
1002
}
  0
ARC
  5
39D
  8
0
 10
-590.29033711720263
 20
109.0614641914256
 30
0.0
 40
0.7500000000014656
 50
90.000000000003254
 51
169.51180379836609
1001
REVIT
1002
{
1070
     3
1000
476644
1002
}
  0
LINE
  5
39E
  8
0
 10
-590.29033711720263
 20
109.8114641914289
 30
0.0
 11
-577.46130677723988
 21
109.8114641914289
 31
0.0
1001
REVIT
1002
{
1070
     3
1000
476644
1002
}
  0
ARC
  5
39F
  8
0
 10
-577.46130677723988
 20
109.0614641914289
 30
0.0
 40
0.750000000000064
 50
0.0000000000026462
 51
89.999999999996746
1001
REVIT
1002
{
1070
     3
1000
476644
1002
}
  0
LINE
  5
3A0
  8
0
 10
-576.71130677724
 20
109.0614641914289
 30
0.0
 11
-576.71130677724
 21
106.40074009030459
 31
0.0
1001
REVIT
1002
{
1070
     3
1000
476644
1002
}
  0
LINE
  5
3A1
  8
0
  6
DASH
 10
200.04537822804139
 20
351.75151266754801
 30
0.0
 11
-467.55000000000109
 21
108.7666664588525
 31
0.0
1001
REVIT
1002
{
1070
     3
1000
217411
1002
}
  0
LINE
  5
3A2
  8
0
 10
-142.00251767188709
 20
265.85377890310269
 30
0.0
 11
-142.63559748050341
 21
269.80336241987169
 31
0.0
1001
REVIT
1002
{
1070
     3
1000
211597
1002
}
  0
LINE
  5
3A3
  8
0
 10
-113.8522910733507
 20
271.88513384631852
 30
0.0
 11
-141.49937569072409
 21
267.45357518600559
 31
0.0
1001
REVIT
1002
{
1070
     3
1000
211597
1002
}
  0
LINE
  5
3A4
  8
0
 10
-111.9566342910441
 20
272.69537169022368
 30
0.0
 11
-113.8522910733507
 21
271.88513384631852
 31
0.0
1001
REVIT
1002
{
1070
     3
1000
211597
1002
}
  0
LINE
  5
3A5
  8
0
 10
-114.0105610255047
 20
272.87252972551039
 30
0.0
 11
-111.9566342910441
 21
272.69537169022368
 31
0.0
1001
REVIT
1002
{
1070
     3
1000
211597
1002
}
  0
LINE
  5
3A6
  8
0
 10
-141.65764564287809
 20
268.44097106519757
 30
0.0
 11
-114.0105610255047
 21
272.87252972551039
 31
0.0
1001
REVIT
1002
{
1070
     3
1000
211597
1002
}
  0
LINE
  5
3A7
  8
0
 10
-141.84754798812119
 20
269.62571138128362
 30
0.0
 11
-141.65764564287809
 21
268.44097106519757
 31
0.0
1001
REVIT
1002
{
1070
     3
1000
211597
1002
}
  0
LINE
  5
3A8
  8
0
 10
-141.49937569072409
 20
267.45357518600559
 30
0.0
 11
-141.30947334548111
 21
266.26883486992011
 31
0.0
1001
REVIT
1002
{
1070
     3
1000
211597
1002
}
  0
LINE
  5
3A9
  8
0
 10
-142.00251767188709
 20
265.85377890310269
 30
0.0
 11
-141.30947334548111
 21
266.26883486992011
 31
0.0
1001
REVIT
1002
{
1070
     3
1000
211597
1002
}
  0
LINE
  5
3AA
  8
0
 10
-142.63559748050341
 20
269.80336241987169
 30
0.0
 11
-141.84754798812119
 21
269.62571138128362
 31
0.0
1001
REVIT
1002
{
1070
     3
1000
211597
1002
}
  0
ARC
  5
3AB
  8
0
 10
48.999999999999872
 20
-2.0000000000000071
 30
0.0
 40
1.999999999999998
 50
0.0
 51
90.000000000000185
1001
REVIT
1002
{
1070
     3
1000
224526
1002
}
  0
ARC
  5
3AC
  8
0
 10
2.9999999999999112
 20
-1.9999999999999361
 30
0.0
 40
2.0
 50
89.999999999999801
 51
179.9999999999996
1001
REVIT
1002
{
1070
     3
1000
224526
1002
}
  0
ARC
  5
3AD
  8
0
 10
2.999999999999921
 20
-73.0
 30
0.0
 40
1.9999999999999949
 50
180.0
 51
269.99999999999977
1001
REVIT
1002
{
1070
     3
1000
224526
1002
}
  0
ARC
  5
3AE
  8
0
 10
48.99999999999995
 20
-73.0
 30
0.0
 40
1.999999999999996
 50
269.9999999999996
 51
0.0
1001
REVIT
1002
{
1070
     3
1000
224526
1002
}
  0
LINE
  5
3AF
  8
0
 10
48.999999999999872
 20
0.0000000000000639
 30
0.0
 11
2.999999999999921
 21
0.0000000000000639
 31
0.0
1001
REVIT
1002
{
1070
     3
1000
224526
1002
}
  0
LINE
  5
3B0
  8
0
 10
0.9999999999999111
 20
-1.9999999999999281
 30
0.0
 11
0.9999999999999111
 21
-73.0
 31
0.0
1001
REVIT
1002
{
1070
     3
1000
224526
1002
}
  0
LINE
  5
3B1
  8
0
 10
2.9999999999999072
 20
-75.0
 30
0.0
 11
48.99999999999995
 21
-75.0
 31
0.0
1001
REVIT
1002
{
1070
     3
1000
224526
1002
}
  0
LINE
  5
3B2
  8
0
 10
50.999999999999943
 20
-73.0
 30
0.0
 11
50.999999999999943
 21
-2.0000000000000142
 31
0.0
1001
REVIT
1002
{
1070
     3
1000
224526
1002
}
  0
LINE
  5
3B3
  8
0
 10
2.9999999999997509
 20
-1.999999999999758
 30
0.0
 11
48.999999999999972
 21
-72.999999999999943
 31
0.0
  0
LINE
  5
3B4
  8
0
 10
48.999999999999972
 20
-1.999999999999758
 30
0.0
 11
2.9999999999999529
 21
-73.0
 31
0.0
  0
LINE
  5
3B5
  8
0
  6
DASH
 10
-2.0
 20
0.0
 30
0.0
 11
-2.0000000000004481
 21
-228.78154087428649
 31
0.0
1001
REVIT
1002
{
1070
     3
1000
217411
1002
}
  0
ARC
  5
3B6
  8
0
 10
-87.614288445974637
 20
290.68324507078393
 30
0.0
 40
1.9999999999999969
 50
20.000000000003428
 51
110.00000000000369
1001
REVIT
1002
{
1070
     3
1000
224526
1002
}
  0
ARC
  5
3B7
  8
0
 10
-130.8401490021254
 20
274.95031847780052
 30
0.0
 40
2.0
 50
110.00000000000369
 51
200.0000000000035
1001
REVIT
1002
{
1070
     3
1000
224526
1002
}
  0
ARC
  5
3B8
  8
0
 10
-118.5274238423992
 20
241.12138412950861
 30
0.0
 40
1.999999999999996
 50
200.0000000000035
 51
290.00000000000301
1001
REVIT
1002
{
1070
     3
1000
224526
1002
}
  0
ARC
  5
3B9
  8
0
 10
-75.301563286248381
 20
256.85431072249207
 30
0.0
 40
1.9999999999999989
 50
290.00000000000369
 51
20.000000000003428
1001
REVIT
1002
{
1070
     3
1000
224526
1002
}
  0
LINE
  5
3BA
  8
0
 10
-88.298328732626118
 20
292.56263031235568
 30
0.0
 11
-131.5241892887768
 21
276.82970371937228
 31
0.0
1001
REVIT
1002
{
1070
     3
1000
224526
1002
}
  0
LINE
  5
3BB
  8
0
 10
-132.71953424369721
 20
274.26627819114913
 30
0.0
 11
-131.2088857652937
 21
270.11580560800292
 31
0.0
1001
REVIT
1002
{
1070
     3
1000
224526
1002
}
  0
LINE
  5
3BC
  8
0
 10
-130.86058936726539
 20
269.15886911914311
 30
0.0
 11
-120.4068090839709
 21
240.4373438428571
 31
0.0
1001
REVIT
1002
{
1070
     3
1000
224526
1002
}
  0
LINE
  5
3BD
  8
0
 10
-117.84338355574771
 20
239.2419988879368
 30
0.0
 11
-74.617522999596929
 21
254.97492548092029
 31
0.0
1001
REVIT
1002
{
1070
     3
1000
224526
1002
}
  0
LINE
  5
3BE
  8
0
 10
-73.422178044676613
 20
257.53835100914353
 30
0.0
 11
-85.734903204402798
 21
291.36728535743538
 31
0.0
1001
REVIT
1002
{
1070
     3
1000
224526
1002
}
  0
LINE
  5
3BF
  8
0
 10
-130.8401490021256
 20
274.95031847780058
 30
0.0
 11
-121.0165905603658
 21
271.74953135916161
 31
0.0
  0
LINE
  5
3C0
  8
0
 10
-118.9332174991204
 20
271.0707107772626
 30
0.0
 11
-75.301563286248381
 21
256.85431072249207
 31
0.0
  0
LINE
  5
3C1
  8
0
 10
-87.614288445974637
 20
290.68324507078421
 30
0.0
 11
-118.5274238423991
 21
241.12138412950861
 31
0.0
  0
LINE
  5
3C2
  8
0
  6
DASH
 10
200.0453782280413
 20
351.75151266754801
 30
0.0
 11
-99.902855951624304
 21
242.57928360544099
 31
0.0
1001
REVIT
1002
{
1070
     3
1000
217411
1002
}
  0
INSERT
  5
3C3
  8
0
  6
CONTINUOUS
  2
*X46
 10
0.0
 20
0.0
 30
0.0
1001
ACAD
1000
HATCH
1002
{
1070
    19
1000
FP_1
1040
1.0
1040
0.0
1000
R14_HATCH_DATA
1000
3C3
1011
1.0
1021
0.0
1031
-0.0
1021
0.0
1031
0.0
1011
0.0
1021
0.0
1031
-0.0
1021
1.0
1031
0.0
1011
0.0
1021
0.0
1031
-0.0
1021
0.0
1031
1.0
1040
0.0
1010
0.0
1020
0.0
1030
1.0
1000
FP_1
1070
     0
1070
     0
1071
        1
1071
        0
1071
        4
1070
     1
1040
-65.000000000000455
1040
-228.7815408742868
1040
-25.000000000000611
1040
-228.78154087428669
1070
     1
1040
-25.000000000000622
1040
-228.78154087428669
1040
-25.0000000000013
1040
-9.0000000000001421
1070
     1
1040
-25.0000000000013
1040
-9.0000000000001421
1040
-65.000000000001265
1040
-9.0000000000002842
1070
     1
1040
-65.000000000001265
1040
-9.0000000000002842
1040
-65.000000000000469
1040
-228.7815408742868
1071
        0
1070
     0
1070
     2
1040
0.0
1040
1.0
1070
     0
1070
     1
1040
0.0
1040
0.0
1040
0.0004591257134905
1040
0.0
1040
15.0
1070
     0
1071
        1
1040
-45.0
1040
-228.78154087428649
1040
0.0
1002
}
  0
LINE
  5
3C4
  8
0
 10
-25.000000000001162
 20
-9.0000000000000568
 30
0.0
 11
-65.000000000001151
 21
-9.0000000000001705
 31
0.0
1001
REVIT
1002
{
1070
     3
1000
224526
1002
}
  0
LINE
  5
3C5
  8
0
 10
-65.000000000001151
 20
-9.0000000000001705
 30
0.0
 11
-65.000000000000426
 21
-228.78154087428669
 31
0.0
1001
REVIT
1002
{
1070
     3
1000
224526
1002
}
  0
LINE
  5
3C6
  8
0
 10
-25.00000000000043
 20
-228.78154087428649
 30
0.0
 11
-25.000000000001162
 21
-9.0000000000000568
 31
0.0
1001
REVIT
1002
{
1070
     3
1000
224526
1002
}
  0
LINE
  5
3C7
  8
0
 10
-1.999999999999545
 20
-0.9999999999996732
 30
0.0
 11
-404.2499999999996
 21
-0.9999999999996732
 31
0.0
1001
REVIT
1002
{
1070
     3
1000
211597
1002
}
  0
LINE
  5
3C8
  8
0
 10
-404.2499999999996
 20
-6.9999999999998357
 30
0.0
 11
-1.999999999999545
 21
-6.9999999999998357
 31
0.0
1001
REVIT
1002
{
1070
     3
1000
211597
1002
}
  0
LINE
  5
3C9
  8
0
 10
-1.999999999999488
 20
-1.000000000000131
 30
0.0
 11
-1.999999999999488
 21
-7.0000000000001288
 31
0.0
1001
REVIT
1002
{
1070
     3
1000
211597
1002
}
  0
LINE
  5
3CA
  8
0
 10
-404.2499999999996
 20
-0.9999999999997321
 30
0.0
 11
-404.2499999999996
 21
-6.9999999999998987
 31
0.0
1001
REVIT
1002
{
1070
     3
1000
211597
1002
}
  0
ARC
  5
3CB
  8
0
 10
98.000000000000384
 20
182.61516235161761
 30
0.0
 40
1.9999999999999969
 50
0.0
 51
90.0
1001
REVIT
1002
{
1070
     3
1000
224526
1002
}
  0
ARC
  5
3CC
  8
0
 10
2.0000000000004401
 20
136.6151623516177
 30
0.0
 40
1.999999999999992
 50
180.0
 51
269.9999999999996
1001
REVIT
1002
{
1070
     3
1000
224526
1002
}
  0
ARC
  5
3CD
  8
0
 10
98.000000000000426
 20
136.6151623516177
 30
0.0
 40
2.0000000000000071
 50
269.9999999999996
 51
0.0
1001
REVIT
1002
{
1070
     3
1000
224526
1002
}
  0
LINE
  5
3CE
  8
0
 10
98.000000000000384
 20
184.6151623516177
 30
0.0
 11
97.061545658661146
 21
184.6151623516177
 31
0.0
1001
REVIT
1002
{
1070
     3
1000
224526
1002
}
  0
LINE
  5
3CF
  8
0
 10
0.0000000000004334
 20
149.28764883999551
 30
0.0
 11
0.0000000000004334
 21
136.6151623516177
 31
0.0
1001
REVIT
1002
{
1070
     3
1000
224526
1002
}
  0
LINE
  5
3D0
  8
0
 10
2.000000000000433
 20
134.6151623516177
 30
0.0
 11
98.000000000000426
 21
134.6151623516177
 31
0.0
1001
REVIT
1002
{
1070
     3
1000
224526
1002
}
  0
LINE
  5
3D1
  8
0
 10
100.0000000000004
 20
136.6151623516177
 30
0.0
 11
100.0000000000004
 21
182.61516235161761
 31
0.0
1001
REVIT
1002
{
1070
     3
1000
224526
1002
}
  0
LINE
  5
3D2
  8
0
 10
40.664626120647021
 20
164.08836233547461
 30
0.0
 11
98.000000000000455
 21
136.6151623516177
 31
0.0
  0
LINE
  5
3D3
  8
0
 10
98.000000000000455
 20
182.6151623516179
 30
0.0
 11
2.0000000000004761
 21
136.6151623516177
 31
0.0
  0
LINE
  5
3D4
  8
0
 10
100.0000000000006
 20
-228.78154087428709
 30
0.0
 11
100.00000000000129
 21
134.6151623516177
 31
0.0
1001
REVIT
1002
{
1070
     3
1000
206265
1002
}
  0
LINE
  5
3D5
  8
0
 10
0.0000000000012079
 20
134.61516235161781
 30
0.0
 11
0.0000000000004974
 21
-228.78154087428689
 31
0.0
1001
REVIT
1002
{
1070
     3
1000
206265
1002
}
  0
INSERT
  5
3D6
  8
0
  6
CONTINUOUS
  2
*U47
 10
0.0
 20
0.0
 30
0.0
1001
ACAD
1002
{
1000
R14_HATCH_DATA
1000
3D6
1011
1.0
1021
0.0
1031
-0.0
1021
0.0
1031
0.0
1011
0.0
1021
0.0
1031
-0.0
1021
1.0
1031
0.0
1011
0.0
1021
0.0
1031
-0.0
1021
0.0
1031
1.0
1040
0.0
1010
0.0
1020
0.0
1030
1.0
1000
SOLID
1070
     1
1070
     0
1071
        2
1071
        0
1071
        5
1070
     1
1040
-139.40602668553069
1040
258.50677525930439
1040
-138.41973231139681
1040
258.6717704336333
1070
     1
1040
-138.41973231139681
1040
258.67177043363318
1040
-139.93088112337901
1040
267.70498960382872
1070
     1
1040
-139.93088112337901
1040
267.70498960382872
1040
-140.91829993138691
1040
267.54671597640851
1070
     1
1040
-140.918299931387
1040
267.54671597640851
1040
-140.90271859851859
1040
267.45357518600599
1070
     1
1040
-140.9027185985185
1040
267.45357518600599
1040
-139.40602668553069
1040
258.50677525930428
1071
        0
1071
        0
1071
       13
1070
     1
1040
-141.0832989371516
1040
268.53303325377982
1040
-140.09588012914389
1040
268.69130688120009
1070
     1
1040
-140.09588012914389
1040
268.69130688119998
1040
-141.3970665279621
1040
276.46943027222778
1070
     1
1040
-141.39706652796221
1040
276.46943027222778
1040
-138.77971573625021
1040
283.67687340778872
1070
     1
1040
-138.77971573625021
1040
283.67687340778872
1040
-131.8332437598128
1040
290.00245685442837
1070
     1
1040
-131.8332437598128
1040
290.00245685442837
1040
40.30227872401823
1040
332.44686964512039
1070
     1
1040
40.302278724018237
1040
332.4468696451205
1040
183.55821923020341
1040
375.10694855443143
1070
     1
1040
183.55821923020329
1040
375.10694855443143
1040
183.64236564881739
1040
376.1754039981181
1070
     1
1040
183.6423656488175
1040
376.1754039981181
1040
40.039725303755461
1040
333.41208160423008
1070
     1
1040
40.039725303755397
1040
333.41208160423008
1040
-132.31896167821361
1040
290.91264190251752
1070
     1
1040
-132.31896167821361
1040
290.91264190251752
1040
-139.6354375314117
1040
284.2501262108521
1070
     1
1040
-139.6354375314117
1040
284.2501262108521
1040
-142.42673156546101
1040
276.56369262741919
1070
     1
1040
-142.4267315654609
1040
276.56369262741919
1040
-141.29580971254609
1040
269.80336241987209
1070
     1
1040
-141.29580971254609
1040
269.80336241987209
1040
-141.0832989371516
1040
268.53303325377982
1071
        0
1070
     0
1070
     1
1071
        1
1040
40.039725303773238
1040
333.41208160423417
1040
0.0
1002
}
  0
LINE
  5
3D7
  8
0
 10
183.64236564881739
 20
376.1754039981177
 30
0.0
 11
40.039725303758281
 21
333.41208160422968
 31
0.0
1001
REVIT
1002
{
1070
     3
1000
476644
1002
}
  0
LINE
  5
3D8
  8
0
 10
40.039725303755368
 20
333.4120816042298
 30
0.0
 11
-132.3189616782135
 21
290.91264190251718
 31
0.0
1001
REVIT
1002
{
1070
     3
1000
476644
1002
}
  0
LINE
  5
3D9
  8
0
 10
-132.3189616782135
 20
290.91264190251718
 30
0.0
 11
-139.6354375314117
 21
284.2501262108517
 31
0.0
1001
REVIT
1002
{
1070
     3
1000
476644
1002
}
  0
LINE
  5
3DA
  8
0
 10
-139.6354375314117
 20
284.2501262108517
 30
0.0
 11
-142.4267315654609
 21
276.5636926274189
 31
0.0
1001
REVIT
1002
{
1070
     3
1000
476644
1002
}
  0
LINE
  5
3DB
  8
0
 10
-142.4267315654609
 20
276.5636926274189
 30
0.0
 11
-141.0832989371516
 21
268.53303325377948
 31
0.0
1001
REVIT
1002
{
1070
     3
1000
476644
1002
}
  0
LINE
  5
3DC
  8
0
 10
-140.9182999313868
 20
267.54671597640822
 30
0.0
 11
-139.40602668553061
 21
258.50677525930399
 31
0.0
1001
REVIT
1002
{
1070
     3
1000
476644
1002
}
  0
LINE
  5
3DD
  8
0
 10
-139.40602668553061
 20
258.50677525930399
 30
0.0
 11
-138.4197323113967
 21
258.6717704336329
 31
0.0
1001
REVIT
1002
{
1070
     3
1000
476644
1002
}
  0
LINE
  5
3DE
  8
0
 10
-138.4197323113967
 20
258.6717704336329
 30
0.0
 11
-139.93088112337901
 21
267.70498960382838
 31
0.0
1001
REVIT
1002
{
1070
     3
1000
476644
1002
}
  0
LINE
  5
3DF
  8
0
 10
-140.09588012914369
 20
268.69130688119969
 30
0.0
 11
-141.39706652796201
 21
276.4694302722275
 31
0.0
1001
REVIT
1002
{
1070
     3
1000
476644
1002
}
  0
LINE
  5
3E0
  8
0
 10
-141.39706652796201
 20
276.46943027222761
 30
0.0
 11
-138.77971573625001
 21
283.67687340778832
 31
0.0
1001
REVIT
1002
{
1070
     3
1000
476644
1002
}
  0
LINE
  5
3E1
  8
0
 10
-138.77971573625001
 20
283.67687340778832
 30
0.0
 11
-131.83324375981249
 21
290.00245685442798
 31
0.0
1001
REVIT
1002
{
1070
     3
1000
476644
1002
}
  0
LINE
  5
3E2
  8
0
 10
-131.83324375981249
 20
290.00245685442798
 30
0.0
 11
40.302278724033712
 21
332.4468696451238
 31
0.0
1001
REVIT
1002
{
1070
     3
1000
476644
1002
}
  0
LINE
  5
3E3
  8
0
 10
40.30227872401835
 20
332.4468696451201
 30
0.0
 11
183.55821923020341
 21
375.10694855443109
 31
0.0
1001
REVIT
1002
{
1070
     3
1000
476644
1002
}
  0
LINE
  5
3E4
  8
0
 10
183.55821923020341
 20
375.10694855443109
 30
0.0
 11
183.64236564881739
 21
376.1754039981177
 31
0.0
1001
REVIT
1002
{
1070
     3
1000
476644
1002
}
  0
LINE
  5
3E5
  8
0
 10
96.995167394100221
 20
357.82816035472069
 30
0.0
 11
183.77852654413039
 21
377.90431714986659
 31
0.0
1001
REVIT
1002
{
1070
     3
1000
211597
1002
}
  0
LINE
  5
3E6
  8
0
 10
27.26884708757067
 20
333.37483677767239
 30
0.0
 11
96.9951673941016
 21
357.82816035472109
 31
0.0
1001
REVIT
1002
{
1070
     3
1000
211597
1002
}
  0
LINE
  5
3E7
  8
0
 10
-137.44862109672059
 20
295.2696775564167
 30
0.0
 11
27.268847087570361
 21
333.37483677767199
 31
0.0
1001
REVIT
1002
{
1070
     3
1000
211597
1002
}
  0
ARC
  5
3E8
  8
0
 10
-136.32170017443281
 20
290.39832771936841
 30
0.0
 40
4.9999999999999982
 50
103.0254706119922
 51
175.4969541356775
1001
REVIT
1002
{
1070
     3
1000
211597
1002
}
  0
LINE
  5
3E9
  8
0
 10
-142.4267315654609
 20
276.5636926274189
 30
0.0
 11
-141.30626598148601
 21
290.79088817987991
 31
0.0
1001
REVIT
1002
{
1070
     3
1000
211597
1002
}
  0
INSERT
  5
3EA
  8
0
  6
CONTINUOUS
  2
*U48
 10
0.0
 20
0.0
 30
0.0
1001
ACAD
1002
{
1000
R14_HATCH_DATA
1000
3EA
1011
1.0
1021
0.0
1031
-0.0
1021
0.0
1031
0.0
1011
0.0
1021
0.0
1031
-0.0
1021
1.0
1031
0.0
1011
0.0
1021
0.0
1031
-0.0
1021
0.0
1031
1.0
1040
0.0
1010
0.0
1020
0.0
1030
1.0
1000
SOLID
1070
     1
1070
     0
1071
        2
1071
        0
1071
       18
1070
     1
1040
-484.627339530889
1040
131.73645056363489
1040
-483.6428562284039
1040
131.91192884470681
1070
     1
1040
-483.6428562284039
1040
131.91192884470689
1040
-486.80935787079773
1040
149.67690793605871
1070
     1
1040
-486.80935787079773
1040
149.67690793605871
1040
-484.26882975146719
1040
156.9117872435601
1070
     1
1040
-484.26882975146719
1040
156.9117872435601
1040
-477.39004398121222
1040
163.3109110262954
1070
     1
1040
-477.39004398121222
1040
163.3109110262954
1040
-305.71579641913718
1040
207.58414223798241
1070
     1
1040
-305.71579641913718
1040
207.58414223798229
1040
-200.7438690238854
1040
240.06333261790331
1070
     1
1040
-200.7438690238854
1040
240.06333261790331
1040
-134.42006159360821
1040
255.87794141917379
1070
     1
1040
-134.42006159360821
1040
255.87794141917379
1040
-133.66005602412321
1040
258.80096657649722
1070
     1
1040
-133.66005602412321
1040
258.80096657649722
1040
-135.44311282355389
1040
268.42433519667549
1070
     1
1040
-135.44311282355389
1040
268.42433519667549
1040
-136.43079953380089
1040
268.26601862713318
1070
     1
1040
-136.43079953380089
1040
268.26601862713318
1040
-134.6838289837724
1040
258.8374117667754
1070
     1
1040
-134.6838289837724
1040
258.83741176677529
1040
-135.2366404512309
1040
256.71126704952962
1070
     1
1040
-135.2366404512309
1040
256.71126704952962
1040
-201.00791936783281
1040
241.0284061474504
1070
     1
1040
-201.00791936783281
1040
241.0284061474504
1040
-305.98860314559658
1040
208.54650646970489
1070
     1
1040
-305.98860314559658
1040
208.54650646970481
1040
-477.88541718754522
1040
164.2158773817298
1070
     1
1040
-477.88541718754522
1040
164.2158773817298
1040
-485.1306015283314
1040
157.47590422746961
1070
     1
1040
-485.1306015283314
1040
157.47590422746961
1040
-487.83996742810928
1040
149.760211125864
1070
     1
1040
-487.83996742810928
1040
149.760211125864
1040
-484.627339530889
1040
131.73645056363489
1071
        0
1071
        0
1071
        9
1070
     1
1040
-136.6130364497466
1040
269.24957283522599
1040
-135.6253497394994
1040
269.4078894047683
1070
     1
1040
-135.6253497394994
1040
269.4078894047683
1040
-137.00061489109169
1040
276.83035822824161
1070
     1
1040
-137.00061489109169
1040
276.83035822824161
1040
-134.74236706916599
1040
278.98751734570487
1070
     1
1040
-134.74236706916599
1040
278.98751734570487
1040
-110.9641115208326
1040
285.39772864351499
1070
     1
1040
-110.9641115208326
1040
285.39772864351511
1040
-111.22440200233881
1040
286.36325899789921
1070
     1
1040
-111.22440200233881
1040
286.36325899789909
1040
-135.24877864803901
1040
279.88669765873459
1070
     1
1040
-135.24877864803901
1040
279.88669765873459
1040
-138.0824030388205
1040
277.17991825627371
1070
     1
1040
-138.0824030388205
1040
277.1799182562736
1040
-137.2843126080474
1040
272.87252972551079
1070
     1
1040
-137.2843126080474
1040
272.87252972551079
1040
-136.6130364497466
1040
269.24957283522599
1071
        0
1070
     0
1070
     1
1071
        1
1040
-305.9886031455784
1040
208.5465064697091
1040
0.0
1002
}
  0
LINE
  5
3EB
  8
0
 10
-138.08240303882019
 20
277.17991825627331
 30
0.0
 11
-136.6130364497462
 21
269.24957283522559
 31
0.0
1001
REVIT
1002
{
1070
     3
1000
476644
1002
}
  0
LINE
  5
3EC
  8
0
 10
-136.43079953380061
 20
268.26601862713289
 30
0.0
 11
-134.683828983772
 21
258.83741176677501
 31
0.0
1001
REVIT
1002
{
1070
     3
1000
476644
1002
}
  0
LINE
  5
3ED
  8
0
 10
-134.683828983772
 20
258.83741176677512
 30
0.0
 11
-135.23664045123039
 21
256.71126704952928
 31
0.0
1001
REVIT
1002
{
1070
     3
1000
476644
1002
}
  0
LINE
  5
3EE
  8
0
 10
-135.23664045123039
 20
256.71126704952928
 30
0.0
 11
-201.00791936783079
 21
241.02840614745071
 31
0.0
1001
REVIT
1002
{
1070
     3
1000
476644
1002
}
  0
LINE
  5
3EF
  8
0
 10
-201.00791936783239
 20
241.0284061474502
 30
0.0
 11
-305.98860314559329
 21
208.5465064697045
 31
0.0
1001
REVIT
1002
{
1070
     3
1000
476644
1002
}
  0
LINE
  5
3F0
  8
0
 10
-305.98860314559619
 20
208.5465064697045
 30
0.0
 11
-477.8854171875447
 21
164.21587738172951
 31
0.0
1001
REVIT
1002
{
1070
     3
1000
476644
1002
}
  0
LINE
  5
3F1
  8
0
 10
-477.8854171875447
 20
164.21587738172951
 30
0.0
 11
-485.13060152833083
 21
157.4759042274693
 31
0.0
1001
REVIT
1002
{
1070
     3
1000
476644
1002
}
  0
LINE
  5
3F2
  8
0
 10
-485.13060152833083
 20
157.4759042274693
 30
0.0
 11
-487.83996742810882
 21
149.7602111258638
 31
0.0
1001
REVIT
1002
{
1070
     3
1000
476644
1002
}
  0
LINE
  5
3F3
  8
0
 10
-487.83996742810882
 20
149.7602111258638
 30
0.0
 11
-484.62733953088849
 21
131.7364505636348
 31
0.0
1001
REVIT
1002
{
1070
     3
1000
476644
1002
}
  0
LINE
  5
3F4
  8
0
 10
-484.62733953088849
 20
131.7364505636348
 30
0.0
 11
-483.64285622840339
 21
131.91192884470669
 31
0.0
1001
REVIT
1002
{
1070
     3
1000
476644
1002
}
  0
LINE
  5
3F5
  8
0
 10
-483.64285622840339
 20
131.91192884470669
 30
0.0
 11
-486.8093578707971
 21
149.6769079360584
 31
0.0
1001
REVIT
1002
{
1070
     3
1000
476644
1002
}
  0
LINE
  5
3F6
  8
0
 10
-486.8093578707971
 20
149.67690793605851
 30
0.0
 11
-484.26882975146663
 21
156.91178724355979
 31
0.0
1001
REVIT
1002
{
1070
     3
1000
476644
1002
}
  0
LINE
  5
3F7
  8
0
 10
-484.26882975146668
 20
156.91178724355979
 30
0.0
 11
-477.39004398121148
 21
163.3109110262952
 31
0.0
1001
REVIT
1002
{
1070
     3
1000
476644
1002
}
  0
LINE
  5
3F8
  8
0
 10
-477.39004398121159
 20
163.3109110262952
 30
0.0
 11
-305.71579641912001
 21
207.58414223798641
 31
0.0
1001
REVIT
1002
{
1070
     3
1000
476644
1002
}
  0
LINE
  5
3F9
  8
0
 10
-305.71579641913672
 20
207.58414223798209
 30
0.0
 11
-200.74386902388309
 21
240.0633326179036
 31
0.0
1001
REVIT
1002
{
1070
     3
1000
476644
1002
}
  0
LINE
  5
3FA
  8
0
 10
-200.74386902388491
 20
240.063332617903
 30
0.0
 11
-134.42006159360781
 21
255.87794141917351
 31
0.0
1001
REVIT
1002
{
1070
     3
1000
476644
1002
}
  0
LINE
  5
3FB
  8
0
 10
-134.42006159360781
 20
255.87794141917351
 30
0.0
 11
-133.66005602412289
 21
258.80096657649688
 31
0.0
1001
REVIT
1002
{
1070
     3
1000
476644
1002
}
  0
LINE
  5
3FC
  8
0
 10
-133.66005602412289
 20
258.80096657649688
 30
0.0
 11
-135.44311282355361
 21
268.42433519667532
 31
0.0
1001
REVIT
1002
{
1070
     3
1000
476644
1002
}
  0
LINE
  5
3FD
  8
0
 10
-135.6253497394992
 20
269.40788940476801
 30
0.0
 11
-137.00061489109129
 21
276.83035822824132
 31
0.0
1001
REVIT
1002
{
1070
     3
1000
476644
1002
}
  0
LINE
  5
3FE
  8
0
 10
-137.00061489109129
 20
276.83035822824132
 30
0.0
 11
-134.74236706916571
 21
278.98751734570459
 31
0.0
1001
REVIT
1002
{
1070
     3
1000
476644
1002
}
  0
LINE
  5
3FF
  8
0
 10
-134.74236706916571
 20
278.98751734570459
 30
0.0
 11
-110.9641115208322
 21
285.39772864351471
 31
0.0
1001
REVIT
1002
{
1070
     3
1000
476644
1002
}
  0
LINE
  5
400
  8
0
 10
-110.9641115208322
 20
285.39772864351471
 30
0.0
 11
-111.22440200233839
 21
286.36325899789881
 31
0.0
1001
REVIT
1002
{
1070
     3
1000
476644
1002
}
  0
LINE
  5
401
  8
0
 10
-111.22440200233839
 20
286.36325899789881
 30
0.0
 11
-135.2487786480385
 21
279.88669765873431
 31
0.0
1001
REVIT
1002
{
1070
     3
1000
476644
1002
}
  0
LINE
  5
402
  8
0
 10
-135.2487786480385
 20
279.88669765873431
 30
0.0
 11
-138.08240303882019
 21
277.17991825627331
 31
0.0
1001
REVIT
1002
{
1070
     3
1000
476644
1002
}
  0
LINE
  5
403
  8
0
 10
-249.29612831929751
 20
233.5671096464126
 30
0.0
 11
-139.60636057861771
 21
259.70431447524737
 31
0.0
1001
REVIT
1002
{
1070
     3
1000
211597
1002
}
  0
LINE
  5
404
  8
0
 10
-138.63133100421621
 20
259.93664742867787
 30
0.0
 11
-136.8771500587701
 21
260.35463889335449
 31
0.0
1001
REVIT
1002
{
1070
     3
1000
211597
1002
}
  0
LINE
  5
405
  8
0
 10
-136.87715005877021
 20
260.35463889335449
 30
0.0
 11
-135.79280372978889
 21
262.02251470498919
 31
0.0
1001
REVIT
1002
{
1070
     3
1000
211597
1002
}
  0
LINE
  5
406
  8
0
 10
-318.7583624667941
 20
208.37340399021861
 30
0.0
 11
-249.29612831929691
 21
233.56710964641269
 31
0.0
1001
REVIT
1002
{
1070
     3
1000
211597
1002
}
  0
LINE
  5
407
  8
0
 10
-483.06113755287009
 20
168.51809589537871
 30
0.0
 11
-318.75836246679449
 21
208.37340399021821
 31
0.0
1001
REVIT
1002
{
1070
     3
1000
211597
1002
}
  0
ARC
  5
408
  8
0
 10
-481.88245777632028
 20
163.65901018051909
 30
0.0
 40
4.9999999999999991
 50
103.6350087804345
 51
176.1064923041186
1001
REVIT
1002
{
1070
     3
1000
211597
1002
}
  0
LINE
  5
409
  8
0
 10
-487.83996742810871
 20
149.7602111258638
 30
0.0
 11
-486.87091767324489
 21
163.99852138324459
 31
0.0
1001
REVIT
1002
{
1070
     3
1000
211597
1002
}
  0
VIEWPORT
  5
304
 67
     1
  8
0
 10
143.41473388671869
 20
99.790247440338135
 30
0.0
 40
334.673629294997
 41
222.15178063964851
 68
     1
 69
     1
1001
ACAD
1000
MVIEW
1002
{
1070
    16
1010
0.0
1020
0.0
1030
0.0
1010
0.0
1020
0.0
1030
1.0
1040
0.0
1040
222.15178063964851
1040
143.41473388671869
1040
99.790247440338135
1040
50.0
1040
0.0
1040
0.0
1070
     0
1070
   100
1070
     1
1070
     1
1070
     0
1070
     0
1070
     0
1070
     0
1040
0.0
1040
0.0
1040
0.0
1040
10.0
1040
10.0
1040
10.0
1040
10.0
1070
     0
1002
{
1002
}
1002
}
  0
VIEWPORT
  5
308
 67
     1
  8
0
 10
143.3724060058594
 20
99.832585573196425
 30
0.0
 40
229.39584960937501
 41
159.73213691711419
 68
     2
 69
     2
1001
ACAD
1000
MVIEW
1002
{
1070
    16
1010
0.0
1020
0.0
1030
0.0
1010
0.0
1020
0.0
1030
1.0
1040
0.0
1040
712.06358896666825
1040
-232.88106010934919
1040
111.3180233831314
1040
50.0
1040
0.0
1040
0.0
1070
     0
1070
  1000
1070
     1
1070
     1
1070
     0
1070
     0
1070
     0
1070
     0
1040
0.0
1040
0.0
1040
0.0
1040
1.0
1040
1.0
1040
0.0
1040
0.0
1070
     0
1002
{
1002
}
1002
}
  0
ENDSEC
  0
EOF
