  0
SECTION
  2
HEADER
  9
$ACADVER
  1
AC1009
  9
$INSBASE
 10
0.0
 20
0.0
 30
0.0
  9
$EXTMIN
 10
-599.55719939102664
 20
-141.2635891837887
 30
0.0
  9
$EXTMAX
 10
601.65719489036655
 20
322.03849212465161
 30
0.0
  9
$LIMMIN
 10
0.0
 20
0.0
  9
$LIMMAX
 10
12.0
 20
9.0
  9
$ORTHOMODE
 70
     0
  9
$REGENMODE
 70
     1
  9
$FILLMODE
 70
     1
  9
$QTEXTMODE
 70
     0
  9
$MIRRTEXT
 70
     0
  9
$DRAGMODE
 70
     2
  9
$LTSCALE
 40
1.0
  9
$OSMODE
 70
     0
  9
$ATTMODE
 70
     1
  9
$TEXTSIZE
 40
0.2
  9
$TRACEWID
 40
0.05
  9
$TEXTSTYLE
  7
STANDARD
  9
$CLAYER
  8
0
  9
$CELTYPE
  6
BYLAYER
  9
$CECOLOR
 62
   256
  9
$DIMSCALE
 40
1.0
  9
$DIMASZ
 40
0.18
  9
$DIMEXO
 40
0.0625
  9
$DIMDLI
 40
0.38
  9
$DIMRND
 40
0.0
  9
$DIMDLE
 40
0.0
  9
$DIMEXE
 40
0.18
  9
$DIMTP
 40
0.0
  9
$DIMTM
 40
0.0
  9
$DIMTXT
 40
0.18
  9
$DIMCEN
 40
0.09
  9
$DIMTSZ
 40
0.0
  9
$DIMTOL
 70
     0
  9
$DIMLIM
 70
     0
  9
$DIMTIH
 70
     1
  9
$DIMTOH
 70
     1
  9
$DIMSE1
 70
     0
  9
$DIMSE2
 70
     0
  9
$DIMTAD
 70
     0
  9
$DIMZIN
 70
     0
  9
$DIMBLK
  1

  9
$DIMASO
 70
     1
  9
$DIMSHO
 70
     1
  9
$DIMPOST
  1

  9
$DIMAPOST
  1

  9
$DIMALT
 70
     0
  9
$DIMALTD
 70
     2
  9
$DIMALTF
 40
25.399999999999999
  9
$DIMLFAC
 40
1.0
  9
$DIMTOFL
 70
     0
  9
$DIMTVP
 40
0.0
  9
$DIMTIX
 70
     0
  9
$DIMSOXD
 70
     0
  9
$DIMSAH
 70
     0
  9
$DIMBLK1
  1

  9
$DIMBLK2
  1

  9
$DIMSTYLE
  2
STANDARD
  9
$DIMCLRD
 70
     0
  9
$DIMCLRE
 70
     0
  9
$DIMCLRT
 70
     0
  9
$DIMTFAC
 40
1.0
  9
$DIMGAP
 40
0.09
  9
$LUNITS
 70
     2
  9
$LUPREC
 70
     4
  9
$SKETCHINC
 40
0.1
  9
$FILLETRAD
 40
0.0
  9
$AUNITS
 70
     0
  9
$AUPREC
 70
     0
  9
$MENU
  1
.
  9
$ELEVATION
 40
0.0
  9
$PELEVATION
 40
0.0
  9
$THICKNESS
 40
0.0
  9
$LIMCHECK
 70
     0
  9
$BLIPMODE
 70
     0
  9
$CHAMFERA
 40
0.0
  9
$CHAMFERB
 40
0.0
  9
$SKPOLY
 70
     0
  9
$TDCREATE
 40
2458206.6266666669
  9
$TDUPDATE
 40
2458206.6461777552
  9
$TDINDWG
 40
0.000135
  9
$TDUSRTIMER
 40
0.000135
  9
$USRTIMER
 70
     1
  9
$ANGBASE
 50
0.0
  9
$ANGDIR
 70
     0
  9
$PDMODE
 70
     0
  9
$PDSIZE
 40
0.0
  9
$PLINEWID
 40
0.0
  9
$COORDS
 70
     2
  9
$SPLFRAME
 70
     0
  9
$SPLINETYPE
 70
     6
  9
$SPLINESEGS
 70
     8
  9
$ATTDIA
 70
     1
  9
$ATTREQ
 70
     0
  9
$HANDLING
 70
     1
  9
$HANDSEED
  5
3C0
  9
$SURFTAB1
 70
     6
  9
$SURFTAB2
 70
     6
  9
$SURFTYPE
 70
     6
  9
$SURFU
 70
     6
  9
$SURFV
 70
     6
  9
$UCSNAME
  2

  9
$UCSORG
 10
0.0
 20
0.0
 30
0.0
  9
$UCSXDIR
 10
1.0
 20
0.0
 30
0.0
  9
$UCSYDIR
 10
0.0
 20
1.0
 30
0.0
  9
$PUCSNAME
  2

  9
$PUCSORG
 10
0.0
 20
0.0
 30
0.0
  9
$PUCSXDIR
 10
1.0
 20
0.0
 30
0.0
  9
$PUCSYDIR
 10
0.0
 20
1.0
 30
0.0
  9
$USERI1
 70
     0
  9
$USERI2
 70
     0
  9
$USERI3
 70
     0
  9
$USERI4
 70
     0
  9
$USERI5
 70
     0
  9
$USERR1
 40
0.0
  9
$USERR2
 40
0.0
  9
$USERR3
 40
0.0
  9
$USERR4
 40
0.0
  9
$USERR5
 40
0.0
  9
$WORLDVIEW
 70
     1
  9
$SHADEDGE
 70
     3
  9
$SHADEDIF
 70
    70
  9
$TILEMODE
 70
     1
  9
$MAXACTVP
 70
    64
  9
$PLIMCHECK
 70
     0
  9
$PEXTMIN
 10
25.699999999999989
 20
19.5
 30
0.0
  9
$PEXTMAX
 10
231.30000000000001
 20
175.5
 30
0.0
  9
$PLIMMIN
 10
-20.0
 20
-7.5
  9
$PLIMMAX
 10
277.0
 20
202.5
  9
$UNITMODE
 70
     0
  9
$VISRETAIN
 70
     1
  9
$PLINEGEN
 70
     0
  9
$PSLTSCALE
 70
     1
  0
ENDSEC
  0
SECTION
  2
TABLES
  0
TABLE
  2
VPORT
 70
     1
  0
VPORT
  2
*ACTIVE
 70
     0
 10
0.0
 20
0.0
 11
1.0
 21
1.0
 12
40.927663889978362
 22
88.733290488166745
 13
0.0
 23
0.0
 14
1.0
 24
1.0
 15
0.0
 25
0.0
 16
0.0
 26
0.0
 36
1.0
 17
0.0
 27
0.0
 37
0.0
 40
459.99375934391088
 41
2.7949852507374628
 42
50.0
 43
0.0
 44
0.0
 50
0.0
 51
0.0
 71
     0
 72
  1000
 73
     1
 74
     1
 75
     0
 76
     0
 77
     0
 78
     0
  0
ENDTAB
  0
TABLE
  2
LTYPE
 70
     2
  0
LTYPE
  2
CONTINUOUS
 70
     0
  3
Solid line
 72
    65
 73
     0
 40
0.0
  0
LTYPE
  2
DASH
 70
     0
  3

 72
    65
 73
     2
 40
6.3499999999999996
 49
3.1749999999999998
 49
-3.1749999999999998
  0
ENDTAB
  0
TABLE
  2
LAYER
 70
     7
  0
LAYER
  2
0
 70
     0
 62
     7
  6
CONTINUOUS
  0
ENDTAB
  0
TABLE
  2
STYLE
 70
     8
  0
STYLE
  2
STANDARD
 70
     0
 40
0.0
 41
1.0
 50
0.0
 71
     0
 42
0.2
  3
txt
  4

  0
STYLE
  2
ARIAL
 70
     0
 40
12.5
 41
1.0
 50
0.0
 71
     0
 42
0.2
  3
txt
  4

  0
ENDTAB
  0
TABLE
  2
VIEW
 70
     1
  0
ENDTAB
  0
TABLE
  2
UCS
 70
     0
  0
ENDTAB
  0
TABLE
  2
APPID
 70
     6
  0
APPID
  2
ACAD
 70
     0
  0
APPID
  2
ACADANNOTATIVE
 70
     0
  0
APPID
  2
REVIT
 70
     0
  0
APPID
  2
ACAD_PSEXT
 70
     0
  0
APPID
  2
ACAD_NAV_VCDISPLAY
 70
     0
  0
APPID
  2
ACAD_MLEADERVER
 70
     0
  0
ENDTAB
  0
TABLE
  2
DIMSTYLE
 70
     2
  0
DIMSTYLE
  2
STANDARD
 70
     0
  3

  4

  5

  6

  7

 40
1.0
 41
0.18
 42
0.0625
 43
0.38
 44
0.18
 45
0.0
 46
0.0
 47
0.0
 48
0.0
140
0.18
141
0.09
142
0.0
143
25.399999999999999
144
1.0
145
0.0
146
1.0
147
0.09
 71
     0
 72
     0
 73
     1
 74
     1
 75
     0
 76
     0
 77
     0
 78
     0
170
     0
171
     2
172
     0
173
     0
174
     0
175
     0
176
     0
177
     0
178
     0
  0
ENDTAB
  0
ENDSEC
  0
SECTION
  2
BLOCKS
  0
BLOCK
  8
0
  2
$MODEL_SPACE
 70
     0
 10
0.0
 20
0.0
 30
0.0
  3
$MODEL_SPACE
  1

  0
ENDBLK
  5
72
  8
0
  0
BLOCK
 67
     1
  8
0
  2
$PAPER_SPACE
 70
     0
 10
0.0
 20
0.0
 30
0.0
  3
$PAPER_SPACE
  1

  0
ENDBLK
  5
76
 67
     1
  8
0
  0
BLOCK
  8
0
  2
*U17
 70
     1
 10
0.0
 20
0.0
 30
0.0
  3
*U17
  1

  0
SOLID
  5
302
  8
0
  6
CONTINUOUS
 10
62.970946004010891
 20
129.58373414967079
 30
0.0
 11
62.198403518073519
 21
129.46137544040869
 31
0.0
 12
63.743488489948248
 22
129.46137544040869
 32
0.0
 13
63.743488489948248
 23
129.46137544040869
 33
0.0
210
0.0
220
0.0
230
1.0
  0
SOLID
  5
303
  8
0
  6
CONTINUOUS
 10
62.198403518073519
 20
129.46137544040869
 30
0.0
 11
61.501482873279713
 21
129.10627663560811
 31
0.0
 12
64.440409134742069
 22
129.10627663560811
 32
0.0
 13
64.440409134742069
 23
129.10627663560811
 33
0.0
210
0.0
220
0.0
230
1.0
  0
SOLID
  5
304
  8
0
  6
CONTINUOUS
 10
-62.198403518073519
 20
129.46137544040869
 30
0.0
 11
-63.743488489948248
 21
129.46137544040869
 31
0.0
 12
-64.440409134742069
 22
129.10627663560811
 32
0.0
 13
-64.440409134742069
 23
129.10627663560811
 33
0.0
210
0.0
220
0.0
230
-1.0
  0
SOLID
  5
305
  8
0
  6
CONTINUOUS
 10
61.501482873279713
 20
129.10627663560811
 30
0.0
 11
60.948403518073533
 21
128.553197280402
 31
0.0
 12
64.993488489948248
 22
128.553197280402
 32
0.0
 13
64.993488489948248
 23
128.553197280402
 33
0.0
210
0.0
220
0.0
230
1.0
  0
SOLID
  5
306
  8
0
  6
CONTINUOUS
 10
-61.501482873279713
 20
129.10627663560811
 30
0.0
 11
-64.440409134742069
 21
129.10627663560811
 31
0.0
 12
-64.993488489948248
 22
128.553197280402
 32
0.0
 13
-64.993488489948248
 23
128.553197280402
 33
0.0
210
0.0
220
0.0
230
-1.0
  0
SOLID
  5
307
  8
0
  6
CONTINUOUS
 10
60.948403518073533
 20
128.553197280402
 30
0.0
 11
60.593304713273021
 21
127.8562766356082
 31
0.0
 12
65.348587294748754
 22
127.8562766356082
 32
0.0
 13
65.348587294748754
 23
127.8562766356082
 33
0.0
210
0.0
220
0.0
230
1.0
  0
SOLID
  5
308
  8
0
  6
CONTINUOUS
 10
-60.948403518073533
 20
128.553197280402
 30
0.0
 11
-64.993488489948248
 21
128.553197280402
 31
0.0
 12
-65.348587294748754
 22
127.8562766356082
 32
0.0
 13
-65.348587294748754
 23
127.8562766356082
 33
0.0
210
0.0
220
0.0
230
-1.0
  0
SOLID
  5
309
  8
0
  6
CONTINUOUS
 10
60.593304713273021
 20
127.8562766356082
 30
0.0
 11
60.470946004010912
 21
127.0837341496708
 31
0.0
 12
65.470946004010884
 22
127.0837341496708
 32
0.0
 13
65.470946004010884
 23
127.0837341496708
 33
0.0
210
0.0
220
0.0
230
1.0
  0
SOLID
  5
30A
  8
0
  6
CONTINUOUS
 10
-60.593304713273021
 20
127.8562766356082
 30
0.0
 11
-65.348587294748754
 21
127.8562766356082
 31
0.0
 12
-65.470946004010884
 22
127.0837341496708
 32
0.0
 13
-65.470946004010884
 23
127.0837341496708
 33
0.0
210
0.0
220
0.0
230
-1.0
  0
SOLID
  5
30B
  8
0
  6
CONTINUOUS
 10
60.470946004010912
 20
127.0837341496708
 30
0.0
 11
60.593304713273021
 21
126.3111916637334
 31
0.0
 12
65.348587294748754
 22
126.3111916637334
 32
0.0
 13
65.348587294748754
 23
126.3111916637334
 33
0.0
210
0.0
220
0.0
230
1.0
  0
SOLID
  5
30C
  8
0
  6
CONTINUOUS
 10
-60.470946004010912
 20
127.0837341496708
 30
0.0
 11
-65.470946004010884
 21
127.0837341496708
 31
0.0
 12
-65.348587294748754
 22
126.3111916637334
 32
0.0
 13
-65.348587294748754
 23
126.3111916637334
 33
0.0
210
0.0
220
0.0
230
-1.0
  0
SOLID
  5
30D
  8
0
  6
CONTINUOUS
 10
60.593304713273021
 20
126.3111916637334
 30
0.0
 11
60.948403518073533
 21
125.6142710189396
 31
0.0
 12
64.993488489948248
 22
125.6142710189396
 32
0.0
 13
64.993488489948248
 23
125.6142710189396
 33
0.0
210
0.0
220
0.0
230
1.0
  0
SOLID
  5
30E
  8
0
  6
CONTINUOUS
 10
-60.593304713273021
 20
126.3111916637334
 30
0.0
 11
-65.348587294748754
 21
126.3111916637334
 31
0.0
 12
-64.993488489948248
 22
125.6142710189396
 32
0.0
 13
-64.993488489948248
 23
125.6142710189396
 33
0.0
210
0.0
220
0.0
230
-1.0
  0
SOLID
  5
30F
  8
0
  6
CONTINUOUS
 10
60.948403518073533
 20
125.6142710189396
 30
0.0
 11
61.501482873279713
 21
125.0611916637334
 31
0.0
 12
64.440409134742069
 22
125.0611916637334
 32
0.0
 13
64.440409134742069
 23
125.0611916637334
 33
0.0
210
0.0
220
0.0
230
1.0
  0
SOLID
  5
310
  8
0
  6
CONTINUOUS
 10
-60.948403518073533
 20
125.6142710189396
 30
0.0
 11
-64.993488489948248
 21
125.6142710189396
 31
0.0
 12
-64.440409134742069
 22
125.0611916637334
 32
0.0
 13
-64.440409134742069
 23
125.0611916637334
 33
0.0
210
0.0
220
0.0
230
-1.0
  0
SOLID
  5
311
  8
0
  6
CONTINUOUS
 10
-62.198403518073519
 20
124.70609285893291
 30
0.0
 11
-63.743488489948248
 21
124.70609285893291
 31
0.0
 12
-62.970946004010891
 22
124.5837341496708
 32
0.0
 13
-62.970946004010891
 23
124.5837341496708
 33
0.0
210
0.0
220
0.0
230
-1.0
  0
SOLID
  5
312
  8
0
  6
CONTINUOUS
 10
61.501482873279713
 20
125.0611916637334
 30
0.0
 11
62.198403518073519
 21
124.70609285893291
 31
0.0
 12
63.743488489948248
 22
124.70609285893291
 32
0.0
 13
63.743488489948248
 23
124.70609285893291
 33
0.0
210
0.0
220
0.0
230
1.0
  0
SOLID
  5
313
  8
0
  6
CONTINUOUS
 10
-61.501482873279713
 20
125.0611916637334
 30
0.0
 11
-64.440409134742069
 21
125.0611916637334
 31
0.0
 12
-63.743488489948248
 22
124.70609285893291
 32
0.0
 13
-63.743488489948248
 23
124.70609285893291
 33
0.0
210
0.0
220
0.0
230
-1.0
  0
LINE
  5
314
  8
0
  6
CONTINUOUS
 10
62.970946004010891
 20
129.58373414967079
 30
0.0
 11
62.198403518073519
 21
129.46137544040869
 31
0.0
  0
LINE
  5
315
  8
0
  6
CONTINUOUS
 10
63.743488489948248
 20
129.46137544040869
 30
0.0
 11
62.970946004010891
 21
129.58373414967079
 31
0.0
  0
LINE
  5
316
  8
0
  6
CONTINUOUS
 10
62.198403518073519
 20
129.46137544040869
 30
0.0
 11
61.501482873279713
 21
129.10627663560811
 31
0.0
  0
LINE
  5
317
  8
0
  6
CONTINUOUS
 10
63.743488489948248
 20
129.46137544040869
 30
0.0
 11
64.440409134742069
 21
129.10627663560811
 31
0.0
  0
LINE
  5
318
  8
0
  6
CONTINUOUS
 10
61.501482873279713
 20
129.10627663560811
 30
0.0
 11
60.948403518073533
 21
128.553197280402
 31
0.0
  0
LINE
  5
319
  8
0
  6
CONTINUOUS
 10
64.440409134742069
 20
129.10627663560811
 30
0.0
 11
64.993488489948248
 21
128.553197280402
 31
0.0
  0
LINE
  5
31A
  8
0
  6
CONTINUOUS
 10
60.948403518073533
 20
128.553197280402
 30
0.0
 11
60.593304713273021
 21
127.8562766356082
 31
0.0
  0
LINE
  5
31B
  8
0
  6
CONTINUOUS
 10
64.993488489948248
 20
128.553197280402
 30
0.0
 11
65.348587294748754
 21
127.8562766356082
 31
0.0
  0
LINE
  5
31C
  8
0
  6
CONTINUOUS
 10
60.593304713273021
 20
127.8562766356082
 30
0.0
 11
60.470946004010912
 21
127.0837341496708
 31
0.0
  0
LINE
  5
31D
  8
0
  6
CONTINUOUS
 10
65.348587294748754
 20
127.8562766356082
 30
0.0
 11
65.470946004010884
 21
127.0837341496708
 31
0.0
  0
LINE
  5
31E
  8
0
  6
CONTINUOUS
 10
60.470946004010912
 20
127.0837341496708
 30
0.0
 11
60.593304713273021
 21
126.3111916637334
 31
0.0
  0
LINE
  5
31F
  8
0
  6
CONTINUOUS
 10
65.470946004010884
 20
127.0837341496708
 30
0.0
 11
65.348587294748754
 21
126.3111916637334
 31
0.0
  0
LINE
  5
320
  8
0
  6
CONTINUOUS
 10
60.593304713273021
 20
126.3111916637334
 30
0.0
 11
60.948403518073533
 21
125.6142710189396
 31
0.0
  0
LINE
  5
321
  8
0
  6
CONTINUOUS
 10
65.348587294748754
 20
126.3111916637334
 30
0.0
 11
64.993488489948248
 21
125.6142710189396
 31
0.0
  0
LINE
  5
322
  8
0
  6
CONTINUOUS
 10
60.948403518073533
 20
125.6142710189396
 30
0.0
 11
61.501482873279713
 21
125.0611916637334
 31
0.0
  0
LINE
  5
323
  8
0
  6
CONTINUOUS
 10
64.993488489948248
 20
125.6142710189396
 30
0.0
 11
64.440409134742069
 21
125.0611916637334
 31
0.0
  0
LINE
  5
324
  8
0
  6
CONTINUOUS
 10
63.743488489948248
 20
124.70609285893291
 30
0.0
 11
62.970946004010891
 21
124.5837341496708
 31
0.0
  0
LINE
  5
325
  8
0
  6
CONTINUOUS
 10
62.970946004010891
 20
124.5837341496708
 30
0.0
 11
62.198403518073519
 21
124.70609285893291
 31
0.0
  0
LINE
  5
326
  8
0
  6
CONTINUOUS
 10
61.501482873279713
 20
125.0611916637334
 30
0.0
 11
62.198403518073519
 21
124.70609285893291
 31
0.0
  0
LINE
  5
327
  8
0
  6
CONTINUOUS
 10
64.440409134742069
 20
125.0611916637334
 30
0.0
 11
63.743488489948248
 21
124.70609285893291
 31
0.0
  0
ENDBLK
  5
329
  8
0
  0
BLOCK
  8
0
  2
*U18
 70
     1
 10
0.0
 20
0.0
 30
0.0
  3
*U18
  1

  0
TEXT
  5
32B
  8
0
 10
321.24816944648421
 20
265.12940913636243
 30
0.0
 40
12.5
  1
904 CF Hip Under Channel
  7
ARIAL
  0
ENDBLK
  5
32D
  8
0
  0
BLOCK
  8
0
  2
*U19
 70
     1
 10
0.0
 20
0.0
 30
0.0
  3
*U19
  1

  0
SOLID
  5
32F
  8
0
  6
CONTINUOUS
 10
32.612466975838068
 20
165.35064763269011
 30
0.0
 11
31.83992448990071
 21
165.2282889234279
 31
0.0
 12
33.385009461775446
 22
165.2282889234279
 32
0.0
 13
33.385009461775446
 23
165.2282889234279
 33
0.0
210
0.0
220
0.0
230
1.0
  0
SOLID
  5
330
  8
0
  6
CONTINUOUS
 10
31.83992448990071
 20
165.2282889234279
 30
0.0
 11
31.1430038451069
 21
164.87319011862741
 31
0.0
 12
34.08193010656926
 22
164.87319011862741
 32
0.0
 13
34.08193010656926
 23
164.87319011862741
 33
0.0
210
0.0
220
0.0
230
1.0
  0
SOLID
  5
331
  8
0
  6
CONTINUOUS
 10
-31.83992448990071
 20
165.2282889234279
 30
0.0
 11
-33.385009461775446
 21
165.2282889234279
 31
0.0
 12
-34.08193010656926
 22
164.87319011862741
 32
0.0
 13
-34.08193010656926
 23
164.87319011862741
 33
0.0
210
0.0
220
0.0
230
-1.0
  0
SOLID
  5
332
  8
0
  6
CONTINUOUS
 10
31.1430038451069
 20
164.87319011862741
 30
0.0
 11
30.58992448990071
 21
164.3201107634213
 31
0.0
 12
34.635009461775439
 22
164.3201107634213
 32
0.0
 13
34.635009461775439
 23
164.3201107634213
 33
0.0
210
0.0
220
0.0
230
1.0
  0
SOLID
  5
333
  8
0
  6
CONTINUOUS
 10
-31.1430038451069
 20
164.87319011862741
 30
0.0
 11
-34.08193010656926
 21
164.87319011862741
 31
0.0
 12
-34.635009461775439
 22
164.3201107634213
 32
0.0
 13
-34.635009461775439
 23
164.3201107634213
 33
0.0
210
0.0
220
0.0
230
-1.0
  0
SOLID
  5
334
  8
0
  6
CONTINUOUS
 10
30.58992448990071
 20
164.3201107634213
 30
0.0
 11
30.234825685100191
 21
163.62319011862741
 31
0.0
 12
34.990108266575959
 22
163.62319011862741
 32
0.0
 13
34.990108266575959
 23
163.62319011862741
 33
0.0
  0
SOLID
  5
335
  8
0
  6
CONTINUOUS
 10
-30.58992448990071
 20
164.3201107634213
 30
0.0
 11
-34.635009461775439
 21
164.3201107634213
 31
0.0
 12
-34.990108266575959
 22
163.62319011862741
 32
0.0
 13
-34.990108266575959
 23
163.62319011862741
 33
0.0
210
0.0
220
0.0
230
-1.0
  0
SOLID
  5
336
  8
0
  6
CONTINUOUS
 10
30.234825685100191
 20
163.62319011862741
 30
0.0
 11
30.112466975838071
 21
162.85064763269011
 31
0.0
 12
35.112466975838068
 22
162.85064763269011
 32
0.0
 13
35.112466975838068
 23
162.85064763269011
 33
0.0
210
0.0
220
0.0
230
1.0
  0
SOLID
  5
337
  8
0
  6
CONTINUOUS
 10
-30.234825685100191
 20
163.62319011862741
 30
0.0
 11
-34.990108266575959
 21
163.62319011862741
 31
0.0
 12
-35.112466975838068
 22
162.85064763269011
 32
0.0
 13
-35.112466975838068
 23
162.85064763269011
 33
0.0
210
0.0
220
0.0
230
-1.0
  0
SOLID
  5
338
  8
0
  6
CONTINUOUS
 10
30.112466975838071
 20
162.85064763269011
 30
0.0
 11
30.234825685100191
 21
162.0781051467527
 31
0.0
 12
34.990108266575959
 22
162.0781051467527
 32
0.0
 13
34.990108266575959
 23
162.0781051467527
 33
0.0
210
0.0
220
0.0
230
1.0
  0
SOLID
  5
339
  8
0
  6
CONTINUOUS
 10
-30.112466975838071
 20
162.85064763269011
 30
0.0
 11
-35.112466975838068
 21
162.85064763269011
 31
0.0
 12
-34.990108266575959
 22
162.0781051467527
 32
0.0
 13
-34.990108266575959
 23
162.0781051467527
 33
0.0
210
0.0
220
0.0
230
-1.0
  0
SOLID
  5
33A
  8
0
  6
CONTINUOUS
 10
30.234825685100191
 20
162.0781051467527
 30
0.0
 11
30.58992448990071
 21
161.3811845019589
 31
0.0
 12
34.635009461775439
 22
161.3811845019589
 32
0.0
 13
34.635009461775439
 23
161.3811845019589
 33
0.0
210
0.0
220
0.0
230
1.0
  0
SOLID
  5
33B
  8
0
  6
CONTINUOUS
 10
-30.234825685100191
 20
162.0781051467527
 30
0.0
 11
-34.990108266575959
 21
162.0781051467527
 31
0.0
 12
-34.635009461775439
 22
161.3811845019589
 32
0.0
 13
-34.635009461775439
 23
161.3811845019589
 33
0.0
210
0.0
220
0.0
230
-1.0
  0
SOLID
  5
33C
  8
0
  6
CONTINUOUS
 10
30.58992448990071
 20
161.3811845019589
 30
0.0
 11
31.1430038451069
 21
160.8281051467527
 31
0.0
 12
34.081930106569253
 22
160.8281051467527
 32
0.0
 13
34.081930106569253
 23
160.8281051467527
 33
0.0
210
0.0
220
0.0
230
1.0
  0
SOLID
  5
33D
  8
0
  6
CONTINUOUS
 10
-30.58992448990071
 20
161.3811845019589
 30
0.0
 11
-34.635009461775439
 21
161.3811845019589
 31
0.0
 12
-34.081930106569253
 22
160.8281051467527
 32
0.0
 13
-34.081930106569253
 23
160.8281051467527
 33
0.0
210
0.0
220
0.0
230
-1.0
  0
SOLID
  5
33E
  8
0
  6
CONTINUOUS
 10
-31.83992448990071
 20
160.47300634195221
 30
0.0
 11
-33.385009461775439
 21
160.47300634195221
 31
0.0
 12
-32.612466975838068
 22
160.35064763269011
 32
0.0
 13
-32.612466975838068
 23
160.35064763269011
 33
0.0
210
0.0
220
0.0
230
-1.0
  0
SOLID
  5
33F
  8
0
  6
CONTINUOUS
 10
31.1430038451069
 20
160.8281051467527
 30
0.0
 11
31.83992448990071
 21
160.47300634195221
 31
0.0
 12
33.385009461775439
 22
160.47300634195221
 32
0.0
 13
33.385009461775439
 23
160.47300634195221
 33
0.0
210
0.0
220
0.0
230
1.0
  0
SOLID
  5
340
  8
0
  6
CONTINUOUS
 10
-31.1430038451069
 20
160.8281051467527
 30
0.0
 11
-34.081930106569253
 21
160.8281051467527
 31
0.0
 12
-33.385009461775439
 22
160.47300634195221
 32
0.0
 13
-33.385009461775439
 23
160.47300634195221
 33
0.0
210
0.0
220
0.0
230
-1.0
  0
LINE
  5
341
  8
0
  6
CONTINUOUS
 10
32.612466975838068
 20
165.35064763269011
 30
0.0
 11
31.83992448990071
 21
165.2282889234279
 31
0.0
  0
LINE
  5
342
  8
0
  6
CONTINUOUS
 10
33.385009461775446
 20
165.2282889234279
 30
0.0
 11
32.612466975838068
 21
165.35064763269011
 31
0.0
  0
LINE
  5
343
  8
0
  6
CONTINUOUS
 10
31.83992448990071
 20
165.2282889234279
 30
0.0
 11
31.1430038451069
 21
164.87319011862741
 31
0.0
  0
LINE
  5
344
  8
0
  6
CONTINUOUS
 10
33.385009461775446
 20
165.2282889234279
 30
0.0
 11
34.08193010656926
 21
164.87319011862741
 31
0.0
  0
LINE
  5
345
  8
0
  6
CONTINUOUS
 10
31.1430038451069
 20
164.87319011862741
 30
0.0
 11
30.58992448990071
 21
164.3201107634213
 31
0.0
  0
LINE
  5
346
  8
0
  6
CONTINUOUS
 10
34.08193010656926
 20
164.87319011862741
 30
0.0
 11
34.635009461775439
 21
164.3201107634213
 31
0.0
  0
LINE
  5
347
  8
0
  6
CONTINUOUS
 10
30.58992448990071
 20
164.3201107634213
 30
0.0
 11
30.234825685100191
 21
163.62319011862741
 31
0.0
  0
LINE
  5
348
  8
0
  6
CONTINUOUS
 10
34.635009461775439
 20
164.3201107634213
 30
0.0
 11
34.990108266575959
 21
163.62319011862741
 31
0.0
  0
LINE
  5
349
  8
0
  6
CONTINUOUS
 10
30.234825685100191
 20
163.62319011862741
 30
0.0
 11
30.112466975838071
 21
162.85064763269011
 31
0.0
  0
LINE
  5
34A
  8
0
  6
CONTINUOUS
 10
34.990108266575959
 20
163.62319011862741
 30
0.0
 11
35.112466975838068
 21
162.85064763269011
 31
0.0
  0
LINE
  5
34B
  8
0
  6
CONTINUOUS
 10
30.112466975838071
 20
162.85064763269011
 30
0.0
 11
30.234825685100191
 21
162.0781051467527
 31
0.0
  0
LINE
  5
34C
  8
0
  6
CONTINUOUS
 10
35.112466975838068
 20
162.85064763269011
 30
0.0
 11
34.990108266575959
 21
162.0781051467527
 31
0.0
  0
LINE
  5
34D
  8
0
  6
CONTINUOUS
 10
30.234825685100191
 20
162.0781051467527
 30
0.0
 11
30.58992448990071
 21
161.3811845019589
 31
0.0
  0
LINE
  5
34E
  8
0
  6
CONTINUOUS
 10
34.990108266575959
 20
162.0781051467527
 30
0.0
 11
34.635009461775439
 21
161.3811845019589
 31
0.0
  0
LINE
  5
34F
  8
0
  6
CONTINUOUS
 10
30.58992448990071
 20
161.3811845019589
 30
0.0
 11
31.1430038451069
 21
160.8281051467527
 31
0.0
  0
LINE
  5
350
  8
0
  6
CONTINUOUS
 10
34.635009461775439
 20
161.3811845019589
 30
0.0
 11
34.081930106569253
 21
160.8281051467527
 31
0.0
  0
LINE
  5
351
  8
0
  6
CONTINUOUS
 10
33.385009461775439
 20
160.47300634195221
 30
0.0
 11
32.612466975838068
 21
160.35064763269011
 31
0.0
  0
LINE
  5
352
  8
0
  6
CONTINUOUS
 10
32.612466975838068
 20
160.35064763269011
 30
0.0
 11
31.83992448990071
 21
160.47300634195221
 31
0.0
  0
LINE
  5
353
  8
0
  6
CONTINUOUS
 10
31.1430038451069
 20
160.8281051467527
 30
0.0
 11
31.83992448990071
 21
160.47300634195221
 31
0.0
  0
LINE
  5
354
  8
0
  6
CONTINUOUS
 10
34.081930106569253
 20
160.8281051467527
 30
0.0
 11
33.385009461775439
 21
160.47300634195221
 31
0.0
  0
ENDBLK
  5
356
  8
0
  0
BLOCK
  8
0
  2
*U20
 70
     1
 10
0.0
 20
0.0
 30
0.0
  3
*U20
  1

  0
TEXT
  5
358
  8
0
 10
320.6001476183805
 20
306.23017016012221
 30
0.0
 40
12.5
  1
Ridge Trim
  7
ARIAL
  0
ENDBLK
  5
35A
  8
0
  0
BLOCK
  8
0
  2
*U21
 70
     1
 10
0.0
 20
0.0
 30
0.0
  3
*U21
  1

  0
SOLID
  5
35C
  8
0
  6
CONTINUOUS
 10
245.78891043682609
 20
57.446859834176962
 30
0.0
 11
245.01636795088871
 21
57.324501124914839
 31
0.0
 12
246.56145292276349
 22
57.324501124914839
 32
0.0
 13
246.56145292276349
 23
57.324501124914839
 33
0.0
210
0.0
220
0.0
230
1.0
  0
SOLID
  5
35D
  8
0
  6
CONTINUOUS
 10
245.01636795088871
 20
57.324501124914839
 30
0.0
 11
244.3194473060949
 21
56.96940232011432
 31
0.0
 12
247.2583735675573
 22
56.96940232011432
 32
0.0
 13
247.2583735675573
 23
56.96940232011432
 33
0.0
210
0.0
220
0.0
230
1.0
  0
SOLID
  5
35E
  8
0
  6
CONTINUOUS
 10
-245.01636795088871
 20
57.324501124914839
 30
0.0
 11
-246.56145292276349
 21
57.324501124914839
 31
0.0
 12
-247.2583735675573
 22
56.96940232011432
 32
0.0
 13
-247.2583735675573
 23
56.96940232011432
 33
0.0
210
0.0
220
0.0
230
-1.0
  0
SOLID
  5
35F
  8
0
  6
CONTINUOUS
 10
244.3194473060949
 20
56.96940232011432
 30
0.0
 11
243.76636795088871
 21
56.41632296490814
 31
0.0
 12
247.81145292276341
 22
56.41632296490814
 32
0.0
 13
247.81145292276341
 23
56.41632296490814
 33
0.0
210
0.0
220
0.0
230
1.0
  0
SOLID
  5
360
  8
0
  6
CONTINUOUS
 10
-244.3194473060949
 20
56.96940232011432
 30
0.0
 11
-247.2583735675573
 21
56.96940232011432
 31
0.0
 12
-247.81145292276341
 22
56.41632296490814
 32
0.0
 13
-247.81145292276341
 23
56.41632296490814
 33
0.0
210
0.0
220
0.0
230
-1.0
  0
SOLID
  5
361
  8
0
  6
CONTINUOUS
 10
243.76636795088871
 20
56.41632296490814
 30
0.0
 11
243.41126914608819
 21
55.71940232011432
 31
0.0
 12
248.16655172756401
 22
55.71940232011432
 32
0.0
 13
248.16655172756401
 23
55.71940232011432
 33
0.0
210
0.0
220
0.0
230
1.0
  0
SOLID
  5
362
  8
0
  6
CONTINUOUS
 10
-243.76636795088871
 20
56.41632296490814
 30
0.0
 11
-247.81145292276341
 21
56.41632296490814
 31
0.0
 12
-248.16655172756401
 22
55.71940232011432
 32
0.0
 13
-248.16655172756401
 23
55.71940232011432
 33
0.0
210
0.0
220
0.0
230
-1.0
  0
SOLID
  5
363
  8
0
  6
CONTINUOUS
 10
243.41126914608819
 20
55.71940232011432
 30
0.0
 11
243.28891043682609
 21
54.946859834176962
 31
0.0
 12
248.28891043682609
 22
54.946859834176962
 32
0.0
 13
248.28891043682609
 23
54.946859834176962
 33
0.0
210
0.0
220
0.0
230
1.0
  0
SOLID
  5
364
  8
0
  6
CONTINUOUS
 10
-243.41126914608819
 20
55.71940232011432
 30
0.0
 11
-248.16655172756401
 21
55.71940232011432
 31
0.0
 12
-248.28891043682609
 22
54.946859834176962
 32
0.0
 13
-248.28891043682609
 23
54.946859834176962
 33
0.0
210
0.0
220
0.0
230
-1.0
  0
SOLID
  5
365
  8
0
  6
CONTINUOUS
 10
243.28891043682609
 20
54.946859834176962
 30
0.0
 11
243.41126914608819
 21
54.174317348239597
 31
0.0
 12
248.16655172756401
 22
54.174317348239597
 32
0.0
 13
248.16655172756401
 23
54.174317348239597
 33
0.0
210
0.0
220
0.0
230
1.0
  0
SOLID
  5
366
  8
0
  6
CONTINUOUS
 10
-243.28891043682609
 20
54.946859834176962
 30
0.0
 11
-248.28891043682609
 21
54.946859834176962
 31
0.0
 12
-248.16655172756401
 22
54.174317348239597
 32
0.0
 13
-248.16655172756401
 23
54.174317348239597
 33
0.0
210
0.0
220
0.0
230
-1.0
  0
SOLID
  5
367
  8
0
  6
CONTINUOUS
 10
243.41126914608819
 20
54.174317348239597
 30
0.0
 11
243.76636795088871
 21
53.477396703445777
 31
0.0
 12
247.81145292276341
 22
53.477396703445777
 32
0.0
 13
247.81145292276341
 23
53.477396703445777
 33
0.0
210
0.0
220
0.0
230
1.0
  0
SOLID
  5
368
  8
0
  6
CONTINUOUS
 10
-243.41126914608819
 20
54.174317348239597
 30
0.0
 11
-248.16655172756401
 21
54.174317348239597
 31
0.0
 12
-247.81145292276341
 22
53.477396703445777
 32
0.0
 13
-247.81145292276341
 23
53.477396703445777
 33
0.0
210
0.0
220
0.0
230
-1.0
  0
SOLID
  5
369
  8
0
  6
CONTINUOUS
 10
243.76636795088871
 20
53.477396703445777
 30
0.0
 11
244.3194473060949
 21
52.924317348239597
 31
0.0
 12
247.2583735675573
 22
52.924317348239597
 32
0.0
 13
247.2583735675573
 23
52.924317348239597
 33
0.0
210
0.0
220
0.0
230
1.0
  0
SOLID
  5
36A
  8
0
  6
CONTINUOUS
 10
-243.76636795088871
 20
53.477396703445777
 30
0.0
 11
-247.81145292276341
 21
53.477396703445777
 31
0.0
 12
-247.2583735675573
 22
52.924317348239597
 32
0.0
 13
-247.2583735675573
 23
52.924317348239597
 33
0.0
210
0.0
220
0.0
230
-1.0
  0
SOLID
  5
36B
  8
0
  6
CONTINUOUS
 10
-245.01636795088871
 20
52.569218543439078
 30
0.0
 11
-246.56145292276349
 21
52.569218543439078
 31
0.0
 12
-245.78891043682609
 22
52.446859834176969
 32
0.0
 13
-245.78891043682609
 23
52.446859834176969
 33
0.0
210
0.0
220
0.0
230
-1.0
  0
SOLID
  5
36C
  8
0
  6
CONTINUOUS
 10
244.3194473060949
 20
52.924317348239597
 30
0.0
 11
245.01636795088871
 21
52.569218543439078
 31
0.0
 12
246.56145292276349
 22
52.569218543439078
 32
0.0
 13
246.56145292276349
 23
52.569218543439078
 33
0.0
210
0.0
220
0.0
230
1.0
  0
SOLID
  5
36D
  8
0
  6
CONTINUOUS
 10
-244.3194473060949
 20
52.924317348239597
 30
0.0
 11
-247.2583735675573
 21
52.924317348239597
 31
0.0
 12
-246.56145292276349
 22
52.569218543439078
 32
0.0
 13
-246.56145292276349
 23
52.569218543439078
 33
0.0
210
0.0
220
0.0
230
-1.0
  0
LINE
  5
36E
  8
0
  6
CONTINUOUS
 10
245.78891043682609
 20
57.446859834176962
 30
0.0
 11
245.01636795088871
 21
57.324501124914839
 31
0.0
  0
LINE
  5
36F
  8
0
  6
CONTINUOUS
 10
246.56145292276349
 20
57.324501124914839
 30
0.0
 11
245.78891043682609
 21
57.446859834176962
 31
0.0
  0
LINE
  5
370
  8
0
  6
CONTINUOUS
 10
245.01636795088871
 20
57.324501124914839
 30
0.0
 11
244.3194473060949
 21
56.96940232011432
 31
0.0
  0
LINE
  5
371
  8
0
  6
CONTINUOUS
 10
246.56145292276349
 20
57.324501124914839
 30
0.0
 11
247.2583735675573
 21
56.96940232011432
 31
0.0
  0
LINE
  5
372
  8
0
  6
CONTINUOUS
 10
244.3194473060949
 20
56.96940232011432
 30
0.0
 11
243.76636795088871
 21
56.41632296490814
 31
0.0
  0
LINE
  5
373
  8
0
  6
CONTINUOUS
 10
247.2583735675573
 20
56.96940232011432
 30
0.0
 11
247.81145292276341
 21
56.41632296490814
 31
0.0
  0
LINE
  5
374
  8
0
  6
CONTINUOUS
 10
243.76636795088871
 20
56.41632296490814
 30
0.0
 11
243.41126914608819
 21
55.71940232011432
 31
0.0
  0
LINE
  5
375
  8
0
  6
CONTINUOUS
 10
247.81145292276341
 20
56.41632296490814
 30
0.0
 11
248.16655172756401
 21
55.71940232011432
 31
0.0
  0
LINE
  5
376
  8
0
  6
CONTINUOUS
 10
243.41126914608819
 20
55.71940232011432
 30
0.0
 11
243.28891043682609
 21
54.946859834176962
 31
0.0
  0
LINE
  5
377
  8
0
  6
CONTINUOUS
 10
248.16655172756401
 20
55.71940232011432
 30
0.0
 11
248.28891043682609
 21
54.946859834176962
 31
0.0
  0
LINE
  5
378
  8
0
  6
CONTINUOUS
 10
243.28891043682609
 20
54.946859834176962
 30
0.0
 11
243.41126914608819
 21
54.174317348239597
 31
0.0
  0
LINE
  5
379
  8
0
  6
CONTINUOUS
 10
248.28891043682609
 20
54.946859834176962
 30
0.0
 11
248.16655172756401
 21
54.174317348239597
 31
0.0
  0
LINE
  5
37A
  8
0
  6
CONTINUOUS
 10
243.41126914608819
 20
54.174317348239597
 30
0.0
 11
243.76636795088871
 21
53.477396703445777
 31
0.0
  0
LINE
  5
37B
  8
0
  6
CONTINUOUS
 10
248.16655172756401
 20
54.174317348239597
 30
0.0
 11
247.81145292276341
 21
53.477396703445777
 31
0.0
  0
LINE
  5
37C
  8
0
  6
CONTINUOUS
 10
243.76636795088871
 20
53.477396703445777
 30
0.0
 11
244.3194473060949
 21
52.924317348239597
 31
0.0
  0
LINE
  5
37D
  8
0
  6
CONTINUOUS
 10
247.81145292276341
 20
53.477396703445777
 30
0.0
 11
247.2583735675573
 21
52.924317348239597
 31
0.0
  0
LINE
  5
37E
  8
0
  6
CONTINUOUS
 10
246.56145292276349
 20
52.569218543439078
 30
0.0
 11
245.78891043682609
 21
52.446859834176969
 31
0.0
  0
LINE
  5
37F
  8
0
  6
CONTINUOUS
 10
245.78891043682609
 20
52.446859834176969
 30
0.0
 11
245.01636795088871
 21
52.569218543439078
 31
0.0
  0
LINE
  5
380
  8
0
  6
CONTINUOUS
 10
244.3194473060949
 20
52.924317348239597
 30
0.0
 11
245.01636795088871
 21
52.569218543439078
 31
0.0
  0
LINE
  5
381
  8
0
  6
CONTINUOUS
 10
247.2583735675573
 20
52.924317348239597
 30
0.0
 11
246.56145292276349
 21
52.569218543439078
 31
0.0
  0
ENDBLK
  5
383
  8
0
  0
BLOCK
  8
0
  2
*U22
 70
     1
 10
0.0
 20
0.0
 30
0.0
  3
*U22
  1

  0
TEXT
  5
385
  8
0
 10
320.62572742738462
 20
136.64577198668951
 30
0.0
 40
12.5
  1
Plywood underlay 15mm
  7
ARIAL
  0
TEXT
  5
386
  8
0
 10
321.66597299355101
 20
117.02539891059391
 30
0.0
 40
12.5
  1
thickness minimum
  7
ARIAL
  0
ENDBLK
  5
388
  8
0
  0
BLOCK
  8
0
  2
*U23
 70
     1
 10
0.0
 20
0.0
 30
0.0
  3
*U23
  1

  0
SOLID
  5
38A
  8
0
  6
CONTINUOUS
 10
149.76764090383631
 20
107.2272768132638
 30
0.0
 11
148.99509841789899
 21
107.1049181040016
 31
0.0
 12
150.54018338977369
 22
107.1049181040016
 32
0.0
 13
150.54018338977369
 23
107.1049181040016
 33
0.0
210
0.0
220
0.0
230
1.0
  0
SOLID
  5
38B
  8
0
  6
CONTINUOUS
 10
148.99509841789899
 20
107.1049181040016
 30
0.0
 11
148.29817777310521
 21
106.74981929920111
 31
0.0
 12
151.23710403456749
 22
106.74981929920111
 32
0.0
 13
151.23710403456749
 23
106.74981929920111
 33
0.0
210
0.0
220
0.0
230
1.0
  0
SOLID
  5
38C
  8
0
  6
CONTINUOUS
 10
-148.99509841789899
 20
107.1049181040016
 30
0.0
 11
-150.54018338977369
 21
107.1049181040016
 31
0.0
 12
-151.23710403456749
 22
106.74981929920111
 32
0.0
 13
-151.23710403456749
 23
106.74981929920111
 33
0.0
210
0.0
220
0.0
230
-1.0
  0
SOLID
  5
38D
  8
0
  6
CONTINUOUS
 10
148.29817777310521
 20
106.74981929920111
 30
0.0
 11
147.74509841789899
 21
106.1967399439949
 31
0.0
 12
151.7901833897736
 22
106.1967399439949
 32
0.0
 13
151.7901833897736
 23
106.1967399439949
 33
0.0
210
0.0
220
0.0
230
1.0
  0
SOLID
  5
38E
  8
0
  6
CONTINUOUS
 10
-148.29817777310521
 20
106.74981929920111
 30
0.0
 11
-151.23710403456749
 21
106.74981929920111
 31
0.0
 12
-151.7901833897736
 22
106.1967399439949
 32
0.0
 13
-151.7901833897736
 23
106.1967399439949
 33
0.0
210
0.0
220
0.0
230
-1.0
  0
SOLID
  5
38F
  8
0
  6
CONTINUOUS
 10
147.74509841789899
 20
106.1967399439949
 30
0.0
 11
147.38999961309841
 21
105.49981929920111
 31
0.0
 12
152.14528219457421
 22
105.49981929920111
 32
0.0
 13
152.14528219457421
 23
105.49981929920111
 33
0.0
210
0.0
220
0.0
230
1.0
  0
SOLID
  5
390
  8
0
  6
CONTINUOUS
 10
-147.74509841789899
 20
106.1967399439949
 30
0.0
 11
-151.7901833897736
 21
106.1967399439949
 31
0.0
 12
-152.14528219457421
 22
105.49981929920111
 32
0.0
 13
-152.14528219457421
 23
105.49981929920111
 33
0.0
210
0.0
220
0.0
230
-1.0
  0
SOLID
  5
391
  8
0
  6
CONTINUOUS
 10
147.38999961309841
 20
105.49981929920111
 30
0.0
 11
147.26764090383631
 21
104.7272768132638
 31
0.0
 12
152.26764090383631
 22
104.7272768132638
 32
0.0
 13
152.26764090383631
 23
104.7272768132638
 33
0.0
210
0.0
220
0.0
230
1.0
  0
SOLID
  5
392
  8
0
  6
CONTINUOUS
 10
-147.38999961309841
 20
105.49981929920111
 30
0.0
 11
-152.14528219457421
 21
105.49981929920111
 31
0.0
 12
-152.26764090383631
 22
104.7272768132638
 32
0.0
 13
-152.26764090383631
 23
104.7272768132638
 33
0.0
210
0.0
220
0.0
230
-1.0
  0
SOLID
  5
393
  8
0
  6
CONTINUOUS
 10
147.26764090383631
 20
104.7272768132638
 30
0.0
 11
147.38999961309841
 21
103.95473432732641
 31
0.0
 12
152.14528219457421
 22
103.95473432732641
 32
0.0
 13
152.14528219457421
 23
103.95473432732641
 33
0.0
  0
SOLID
  5
394
  8
0
  6
CONTINUOUS
 10
-147.26764090383631
 20
104.7272768132638
 30
0.0
 11
-152.26764090383631
 21
104.7272768132638
 31
0.0
 12
-152.14528219457421
 22
103.95473432732641
 32
0.0
 13
-152.14528219457421
 23
103.95473432732641
 33
0.0
210
0.0
220
0.0
230
-1.0
  0
SOLID
  5
395
  8
0
  6
CONTINUOUS
 10
147.38999961309841
 20
103.95473432732641
 30
0.0
 11
147.74509841789899
 21
103.2578136825326
 31
0.0
 12
151.7901833897736
 22
103.2578136825326
 32
0.0
 13
151.7901833897736
 23
103.2578136825326
 33
0.0
  0
SOLID
  5
396
  8
0
  6
CONTINUOUS
 10
-147.38999961309841
 20
103.95473432732641
 30
0.0
 11
-152.14528219457421
 21
103.95473432732641
 31
0.0
 12
-151.7901833897736
 22
103.2578136825326
 32
0.0
 13
-151.7901833897736
 23
103.2578136825326
 33
0.0
210
0.0
220
0.0
230
-1.0
  0
SOLID
  5
397
  8
0
  6
CONTINUOUS
 10
147.74509841789899
 20
103.2578136825326
 30
0.0
 11
148.29817777310521
 21
102.70473432732641
 31
0.0
 12
151.23710403456749
 22
102.70473432732641
 32
0.0
 13
151.23710403456749
 23
102.70473432732641
 33
0.0
210
0.0
220
0.0
230
1.0
  0
SOLID
  5
398
  8
0
  6
CONTINUOUS
 10
-147.74509841789899
 20
103.2578136825326
 30
0.0
 11
-151.7901833897736
 21
103.2578136825326
 31
0.0
 12
-151.23710403456749
 22
102.70473432732641
 32
0.0
 13
-151.23710403456749
 23
102.70473432732641
 33
0.0
210
0.0
220
0.0
230
-1.0
  0
SOLID
  5
399
  8
0
  6
CONTINUOUS
 10
-148.99509841789899
 20
102.3496355225259
 30
0.0
 11
-150.54018338977369
 21
102.3496355225259
 31
0.0
 12
-149.76764090383631
 22
102.2272768132638
 32
0.0
 13
-149.76764090383631
 23
102.2272768132638
 33
0.0
210
0.0
220
0.0
230
-1.0
  0
SOLID
  5
39A
  8
0
  6
CONTINUOUS
 10
148.29817777310521
 20
102.70473432732641
 30
0.0
 11
148.99509841789899
 21
102.3496355225259
 31
0.0
 12
150.54018338977369
 22
102.3496355225259
 32
0.0
 13
150.54018338977369
 23
102.3496355225259
 33
0.0
210
0.0
220
0.0
230
1.0
  0
SOLID
  5
39B
  8
0
  6
CONTINUOUS
 10
-148.29817777310521
 20
102.70473432732641
 30
0.0
 11
-151.23710403456749
 21
102.70473432732641
 31
0.0
 12
-150.54018338977369
 22
102.3496355225259
 32
0.0
 13
-150.54018338977369
 23
102.3496355225259
 33
0.0
210
0.0
220
0.0
230
-1.0
  0
LINE
  5
39C
  8
0
  6
CONTINUOUS
 10
149.76764090383631
 20
107.2272768132638
 30
0.0
 11
148.99509841789899
 21
107.1049181040016
 31
0.0
  0
LINE
  5
39D
  8
0
  6
CONTINUOUS
 10
150.54018338977369
 20
107.1049181040016
 30
0.0
 11
149.76764090383631
 21
107.2272768132638
 31
0.0
  0
LINE
  5
39E
  8
0
  6
CONTINUOUS
 10
148.99509841789899
 20
107.1049181040016
 30
0.0
 11
148.29817777310521
 21
106.74981929920111
 31
0.0
  0
LINE
  5
39F
  8
0
  6
CONTINUOUS
 10
150.54018338977369
 20
107.1049181040016
 30
0.0
 11
151.23710403456749
 21
106.74981929920111
 31
0.0
  0
LINE
  5
3A0
  8
0
  6
CONTINUOUS
 10
148.29817777310521
 20
106.74981929920111
 30
0.0
 11
147.74509841789899
 21
106.1967399439949
 31
0.0
  0
LINE
  5
3A1
  8
0
  6
CONTINUOUS
 10
151.23710403456749
 20
106.74981929920111
 30
0.0
 11
151.7901833897736
 21
106.1967399439949
 31
0.0
  0
LINE
  5
3A2
  8
0
  6
CONTINUOUS
 10
147.74509841789899
 20
106.1967399439949
 30
0.0
 11
147.38999961309841
 21
105.49981929920111
 31
0.0
  0
LINE
  5
3A3
  8
0
  6
CONTINUOUS
 10
151.7901833897736
 20
106.1967399439949
 30
0.0
 11
152.14528219457421
 21
105.49981929920111
 31
0.0
  0
LINE
  5
3A4
  8
0
  6
CONTINUOUS
 10
147.38999961309841
 20
105.49981929920111
 30
0.0
 11
147.26764090383631
 21
104.7272768132638
 31
0.0
  0
LINE
  5
3A5
  8
0
  6
CONTINUOUS
 10
152.14528219457421
 20
105.49981929920111
 30
0.0
 11
152.26764090383631
 21
104.7272768132638
 31
0.0
  0
LINE
  5
3A6
  8
0
  6
CONTINUOUS
 10
147.26764090383631
 20
104.7272768132638
 30
0.0
 11
147.38999961309841
 21
103.95473432732641
 31
0.0
  0
LINE
  5
3A7
  8
0
  6
CONTINUOUS
 10
152.26764090383631
 20
104.7272768132638
 30
0.0
 11
152.14528219457421
 21
103.95473432732641
 31
0.0
  0
LINE
  5
3A8
  8
0
  6
CONTINUOUS
 10
147.38999961309841
 20
103.95473432732641
 30
0.0
 11
147.74509841789899
 21
103.2578136825326
 31
0.0
  0
LINE
  5
3A9
  8
0
  6
CONTINUOUS
 10
152.14528219457421
 20
103.95473432732641
 30
0.0
 11
151.7901833897736
 21
103.2578136825326
 31
0.0
  0
LINE
  5
3AA
  8
0
  6
CONTINUOUS
 10
147.74509841789899
 20
103.2578136825326
 30
0.0
 11
148.29817777310521
 21
102.70473432732641
 31
0.0
  0
LINE
  5
3AB
  8
0
  6
CONTINUOUS
 10
151.7901833897736
 20
103.2578136825326
 30
0.0
 11
151.23710403456749
 21
102.70473432732641
 31
0.0
  0
LINE
  5
3AC
  8
0
  6
CONTINUOUS
 10
150.54018338977369
 20
102.3496355225259
 30
0.0
 11
149.76764090383631
 21
102.2272768132638
 31
0.0
  0
LINE
  5
3AD
  8
0
  6
CONTINUOUS
 10
149.76764090383631
 20
102.2272768132638
 30
0.0
 11
148.99509841789899
 21
102.3496355225259
 31
0.0
  0
LINE
  5
3AE
  8
0
  6
CONTINUOUS
 10
148.29817777310521
 20
102.70473432732641
 30
0.0
 11
148.99509841789899
 21
102.3496355225259
 31
0.0
  0
LINE
  5
3AF
  8
0
  6
CONTINUOUS
 10
151.23710403456749
 20
102.70473432732641
 30
0.0
 11
150.54018338977369
 21
102.3496355225259
 31
0.0
  0
ENDBLK
  5
3B1
  8
0
  0
BLOCK
  8
0
  2
*U24
 70
     1
 10
0.0
 20
0.0
 30
0.0
  3
*U24
  1

  0
TEXT
  5
3B3
  8
0
 10
320.88330396864882
 20
215.0897143225483
 30
0.0
 40
12.5
  1
CF Shake Panel
  7
ARIAL
  0
ENDBLK
  5
3B5
  8
0
  0
ENDSEC
  0
SECTION
  2
ENTITIES
  0
LINE
  5
D4
  8
0
 10
0.0000000000000081
 20
75.0
 30
0.0
 11
0.0000000000000669
 21
111.4177772475913
 31
0.0
1001
REVIT
1002
{
1070
     1
1000
577021
1002
}
1002
{
1070
     2
1000
-2000051
1002
}
1002
{
1070
     3
1000
-2000042
1002
}
  0
CIRCLE
  5
14B
  8
0
 10
62.970946004010891
 20
127.0837341496708
 30
0.0
 40
2.4999999999999858
1001
REVIT
1002
{
1070
     1
1000
576868
1002
}
1002
{
1070
     5
1000
233013
1002
}
1002
{
1070
     2
1000
-2005028
1002
}
  0
INSERT
  5
14C
  8
0
  6
CONTINUOUS
  2
*U17
 10
0.0
 20
0.0
 30
0.0
1001
REVIT
1002
{
1070
     1
1000
576868
1002
}
1002
{
1070
     5
1000
233013
1002
}
1002
{
1070
     2
1000
-2005028
1002
}
1001
ACAD
1002
{
1000
R14_HATCH_DATA
1000
14C
1011
1.0
1021
0.0
1031
0.0
1021
0.0
1031
0.0
1011
0.0
1021
0.0
1031
0.0
1021
1.0
1031
0.0
1011
0.0
1021
0.0
1031
0.0
1021
0.0
1031
1.0
1040
0.0
1010
0.0
1020
0.0
1030
1.0
1000
SOLID
1070
     1
1070
     0
1071
        1
1071
        0
1071
        1
1070
     2
1040
62.970946004010891
1040
127.0837341496708
1040
2.4999999999999858
1040
0.0
1040
6.2831853071795862
1070
     1
1071
        0
1070
     0
1070
     1
1071
        1
1040
0.0
1040
0.0
1040
0.0
1002
}
  0
LINE
  5
14D
  8
0
 10
163.9511531246761
 20
270.91137712639238
 30
0.0
 11
319.60654744709922
 21
270.91741919381047
 31
0.0
1001
REVIT
1002
{
1070
     1
1000
576868
1002
}
1002
{
1070
     5
1000
233013
1002
}
1002
{
1070
     2
1000
-2005028
1002
}
  0
LINE
  5
14E
  8
0
 10
62.970946004010891
 20
127.0837341496708
 30
0.0
 11
163.9511531246761
 21
270.91137712639238
 31
0.0
1001
REVIT
1002
{
1070
     1
1000
576868
1002
}
1002
{
1070
     5
1000
233013
1002
}
1002
{
1070
     2
1000
-2005028
1002
}
  0
INSERT
  5
150
  8
0
  2
*U18
 10
0.0
 20
0.0
 30
0.0
  0
CIRCLE
  5
151
  8
0
 10
32.612466975838068
 20
162.85064763269011
 30
0.0
 40
2.4999999999999991
1001
REVIT
1002
{
1070
     1
1000
577023
1002
}
1002
{
1070
     5
1000
233013
1002
}
1002
{
1070
     2
1000
-2005028
1002
}
  0
INSERT
  5
152
  8
0
  6
CONTINUOUS
  2
*U19
 10
0.0
 20
0.0
 30
0.0
1001
REVIT
1002
{
1070
     1
1000
577023
1002
}
1002
{
1070
     5
1000
233013
1002
}
1002
{
1070
     2
1000
-2005028
1002
}
1001
ACAD
1002
{
1000
R14_HATCH_DATA
1000
152
1011
1.0
1021
0.0
1031
0.0
1021
0.0
1031
0.0
1011
0.0
1021
0.0
1031
0.0
1021
1.0
1031
0.0
1011
0.0
1021
0.0
1031
0.0
1021
0.0
1031
1.0
1040
0.0
1010
0.0
1020
0.0
1030
1.0
1000
SOLID
1070
     1
1070
     0
1071
        1
1071
        0
1071
        1
1070
     2
1040
32.612466975838068
1040
162.85064763269011
1040
2.4999999999999991
1040
0.0
1040
6.2831853071795862
1070
     1
1071
        0
1070
     0
1070
     1
1071
        1
1040
0.0
1040
0.0
1040
0.0
1002
}
  0
LINE
  5
153
  8
0
 10
126.7427094571712
 20
312.01213815015228
 30
0.0
 11
319.60654744709922
 21
312.01818021757038
 31
0.0
1001
REVIT
1002
{
1070
     1
1000
577023
1002
}
1002
{
1070
     5
1000
233013
1002
}
1002
{
1070
     2
1000
-2005028
1002
}
  0
LINE
  5
154
  8
0
 10
32.612466975838068
 20
162.85064763269011
 30
0.0
 11
126.7427094571712
 21
312.01213815015228
 31
0.0
1001
REVIT
1002
{
1070
     1
1000
577023
1002
}
1002
{
1070
     5
1000
233013
1002
}
1002
{
1070
     2
1000
-2005028
1002
}
  0
INSERT
  5
155
  8
0
  2
*U20
 10
0.0
 20
0.0
 30
0.0
  0
CIRCLE
  5
156
  8
0
 10
245.78891043682609
 20
54.946859834176962
 30
0.0
 40
2.4999999999999911
1001
REVIT
1002
{
1070
     1
1000
577024
1002
}
1002
{
1070
     5
1000
233013
1002
}
1002
{
1070
     2
1000
-2005028
1002
}
  0
INSERT
  5
157
  8
0
  6
CONTINUOUS
  2
*U21
 10
0.0
 20
0.0
 30
0.0
1001
REVIT
1002
{
1070
     1
1000
577024
1002
}
1002
{
1070
     5
1000
233013
1002
}
1002
{
1070
     2
1000
-2005028
1002
}
1001
ACAD
1002
{
1000
R14_HATCH_DATA
1000
157
1011
1.0
1021
0.0
1031
0.0
1021
0.0
1031
0.0
1011
0.0
1021
0.0
1031
0.0
1021
1.0
1031
0.0
1011
0.0
1021
0.0
1031
0.0
1021
0.0
1031
1.0
1040
0.0
1010
0.0
1020
0.0
1030
1.0
1000
SOLID
1070
     1
1070
     0
1071
        1
1071
        0
1071
        1
1070
     2
1040
245.78891043682609
1040
54.946859834176962
1040
2.4999999999999911
1040
0.0
1040
6.2831853071795862
1070
     1
1071
        0
1070
     0
1070
     1
1071
        1
1040
0.0
1040
0.0
1040
0.0
1002
}
  0
LINE
  5
158
  8
0
 10
288.26212820914111
 20
132.32324784253029
 30
0.0
 11
319.60654744709922
 21
132.32928990994839
 31
0.0
1001
REVIT
1002
{
1070
     1
1000
577024
1002
}
1002
{
1070
     5
1000
233013
1002
}
1002
{
1070
     2
1000
-2005028
1002
}
  0
LINE
  5
159
  8
0
 10
245.78891043682609
 20
54.946859834176962
 30
0.0
 11
288.26212820914111
 21
132.32324784253029
 31
0.0
1001
REVIT
1002
{
1070
     1
1000
577024
1002
}
1002
{
1070
     5
1000
233013
1002
}
1002
{
1070
     2
1000
-2005028
1002
}
  0
INSERT
  5
15A
  8
0
  2
*U22
 10
0.0
 20
0.0
 30
0.0
  0
CIRCLE
  5
15B
  8
0
 10
149.76764090383631
 20
104.7272768132638
 30
0.0
 40
2.4999999999999791
1001
REVIT
1002
{
1070
     1
1000
577025
1002
}
1002
{
1070
     5
1000
233013
1002
}
1002
{
1070
     2
1000
-2005028
1002
}
  0
INSERT
  5
15C
  8
0
  6
CONTINUOUS
  2
*U23
 10
0.0
 20
0.0
 30
0.0
1001
REVIT
1002
{
1070
     1
1000
577025
1002
}
1002
{
1070
     5
1000
233013
1002
}
1002
{
1070
     2
1000
-2005028
1002
}
1001
ACAD
1002
{
1000
R14_HATCH_DATA
1000
15C
1011
1.0
1021
0.0
1031
0.0
1021
0.0
1031
0.0
1011
0.0
1021
0.0
1031
0.0
1021
1.0
1031
0.0
1011
0.0
1021
0.0
1031
0.0
1021
0.0
1031
1.0
1040
0.0
1010
0.0
1020
0.0
1030
1.0
1000
SOLID
1070
     1
1070
     0
1071
        1
1071
        0
1071
        1
1070
     2
1040
149.76764090383631
1040
104.7272768132638
1040
2.4999999999999791
1040
0.0
1040
6.2831853071795862
1070
     1
1071
        0
1070
     0
1070
     1
1071
        1
1040
0.0
1040
0.0
1040
0.0
1002
}
  0
LINE
  5
15D
  8
0
 10
211.61809597619279
 20
220.8716823125784
 30
0.0
 11
319.38663422028691
 21
220.87772437999649
 31
0.0
1001
REVIT
1002
{
1070
     1
1000
577025
1002
}
1002
{
1070
     5
1000
233013
1002
}
1002
{
1070
     2
1000
-2005028
1002
}
  0
LINE
  5
15E
  8
0
 10
149.76764090383631
 20
104.7272768132638
 30
0.0
 11
211.61809597619279
 21
220.8716823125784
 31
0.0
1001
REVIT
1002
{
1070
     1
1000
577025
1002
}
1002
{
1070
     5
1000
233013
1002
}
1002
{
1070
     2
1000
-2005028
1002
}
  0
INSERT
  5
15F
  8
0
  2
*U24
 10
0.0
 20
0.0
 30
0.0
  0
LINE
  5
1C3
  8
0
 10
529.1785286527238
 20
-141.2635891837887
 30
0.0
 11
529.1785286527238
 21
-64.817582325388841
 31
0.0
  0
LINE
  5
1C4
  8
0
 10
529.1785286527238
 20
18.736410816211251
 30
0.0
 11
529.1785286527238
 21
-57.709596042188643
 31
0.0
  0
LINE
  5
1C5
  8
0
 10
529.1785286527238
 20
18.736410816211251
 30
0.0
 11
529.1785286527238
 21
-57.709596042188643
 31
0.0
  0
LINE
  5
1C6
  8
0
 10
529.1785286527238
 20
-57.709596042188643
 30
0.0
 11
539.48614781360448
 21
-59.527107407119431
 31
0.0
  0
LINE
  5
1C7
  8
0
 10
539.48614781360448
 20
-59.527107407119431
 30
0.0
 11
518.87090949184278
 21
-63.000070960458054
 31
0.0
  0
LINE
  5
1C8
  8
0
 10
518.87090949184278
 20
-63.000070960458054
 30
0.0
 11
529.1785286527238
 21
-64.817582325388841
 31
0.0
  0
LINE
  5
1C9
  8
0
 10
529.1785286527238
 20
-64.817582325388841
 30
0.0
 11
529.1785286527238
 21
-141.2635891837887
 31
0.0
  0
LINE
  5
1CA
  8
0
 10
-529.17852865272346
 20
-141.2635891837887
 30
0.0
 11
-529.17852865272346
 21
-64.817582325388841
 31
0.0
  0
LINE
  5
1CB
  8
0
 10
-529.17852865272346
 20
18.736410816211251
 30
0.0
 11
-529.17852865272346
 21
-57.709596042188643
 31
0.0
  0
LINE
  5
1CC
  8
0
 10
-529.17852865272346
 20
-141.2635891837887
 30
0.0
 11
-529.17852865272346
 21
-64.817582325388841
 31
0.0
  0
LINE
  5
1CD
  8
0
 10
-529.17852865272346
 20
-64.817582325388841
 30
0.0
 11
-518.87090949184267
 21
-63.000070960458061
 31
0.0
  0
LINE
  5
1CE
  8
0
 10
-518.87090949184267
 20
-63.000070960458061
 30
0.0
 11
-539.48614781360425
 21
-59.527107407119431
 31
0.0
  0
LINE
  5
1CF
  8
0
 10
-539.48614781360425
 20
-59.527107407119431
 30
0.0
 11
-529.17852865272346
 21
-57.709596042188643
 31
0.0
  0
LINE
  5
1D0
  8
0
 10
-529.17852865272346
 20
-57.709596042188643
 30
0.0
 11
-529.17852865272346
 21
18.736410816211251
 31
0.0
  0
LINE
  5
1D1
  8
0
 10
-1.1723855295214769
 20
157.59703830612941
 30
0.0
 11
-0.9290573187622044
 21
152.60296267776249
 31
0.0
1001
REVIT
1002
{
1070
     3
1000
578788
1002
}
  0
LINE
  5
1D2
  8
0
 10
-4.7541919526002507
 20
150.99585382712871
 30
0.0
 11
-0.9290573187621475
 21
152.60296267776249
 31
0.0
1001
REVIT
1002
{
1070
     3
1000
578788
1002
}
  0
LINE
  5
1D3
  8
0
 10
-249.92171790921239
 20
70.468763681047065
 30
0.0
 11
-4.7541919525940548
 21
150.99585382713079
 31
0.0
1001
REVIT
1002
{
1070
     3
1000
578788
1002
}
  0
LINE
  5
1D4
  8
0
 10
-251.07964007386281
 20
67.75865840308623
 30
0.0
 11
-250.9018977299443
 21
69.250855023558685
 31
0.0
1001
REVIT
1002
{
1070
     3
1000
578788
1002
}
  0
LINE
  5
1D5
  8
0
 10
-251.04113709996349
 20
67.203336667343578
 30
0.0
 11
-251.07964007386281
 21
67.75865840308623
 31
0.0
1001
REVIT
1002
{
1070
     3
1000
578788
1002
}
  0
LINE
  5
1D6
  8
0
 10
-249.35132916293111
 20
60.963285320080082
 30
0.0
 11
-251.04113709996349
 21
67.203336667343592
 31
0.0
1001
REVIT
1002
{
1070
     3
1000
578788
1002
}
  0
LINE
  5
1D7
  8
0
 10
-237.7569312959275
 20
62.687883107547528
 30
0.0
 11
-247.6760998848857
 21
60.001995979844082
 31
0.0
1001
REVIT
1002
{
1070
     3
1000
578788
1002
}
  0
ARC
  5
1D8
  8
0
 10
-249.4997996514752
 20
69.125819986827082
 30
0.0
 40
1.4076621690083111
 50
107.441373194118
 51
174.90400888400021
1001
REVIT
1002
{
1070
     3
1000
578788
1002
}
  0
ARC
  5
1D9
  8
0
 10
-248.0330596075552
 20
61.320273144995859
 30
0.0
 40
1.3657506828732919
 50
195.1523060767118
 51
285.15108467593473
1001
REVIT
1002
{
1070
     3
1000
578788
1002
}
  0
LINE
  5
1DA
  8
0
 10
1.1308121337495429
 20
157.60971191320681
 30
0.0
 11
0.9372600765515244
 21
152.6134595575752
 31
0.0
1001
REVIT
1002
{
1070
     3
1000
578788
1002
}
  0
LINE
  5
1DB
  8
0
 10
4.7782190310441592
 20
151.04454651515499
 30
0.0
 11
0.9372600765515244
 21
152.6134595575752
 31
0.0
1001
REVIT
1002
{
1070
     3
1000
578788
1002
}
  0
LINE
  5
1DC
  8
0
 10
250.73599485687009
 20
72.964455954923196
 30
0.0
 11
4.7782190310379056
 21
151.04454651515701
 31
0.0
1001
REVIT
1002
{
1070
     3
1000
578788
1002
}
  0
LINE
  5
1DD
  8
0
 10
251.92086470591491
 20
70.266023484423982
 30
0.0
 11
251.7282620122121
 21
71.756374885050548
 31
0.0
1001
REVIT
1002
{
1070
     3
1000
578788
1002
}
  0
LINE
  5
1DE
  8
0
 10
251.88789721445531
 20
69.71034565177797
 30
0.0
 11
251.92086470591491
 21
70.266023484423982
 31
0.0
1001
REVIT
1002
{
1070
     3
1000
578788
1002
}
  0
LINE
  5
1DF
  8
0
 10
250.2603529222026
 20
63.453765814734538
 30
0.0
 11
251.88789721445531
 21
69.71034565177797
 31
0.0
1001
REVIT
1002
{
1070
     3
1000
578788
1002
}
  0
LINE
  5
1E0
  8
0
 10
238.64934573071369
 20
65.0627441943614
 30
0.0
 11
248.5947857003743
 21
62.475831175178939
 31
0.0
1001
REVIT
1002
{
1070
     3
1000
578788
1002
}
  0
ARC
  5
1E1
  8
0
 10
250.3274794720098
 20
71.617374679576471
 30
0.0
 40
1.4076621690083111
 50
5.666931314301018
 51
73.129567004183627
1001
REVIT
1002
{
1070
     3
1000
578788
1002
}
  0
ARC
  5
1E2
  8
0
 10
248.93859156785581
 20
63.79759985889563
 30
0.0
 40
1.3657506828732919
 50
255.4198555223669
 51
345.41863412158949
1001
REVIT
1002
{
1070
     3
1000
578788
1002
}
  0
ARC
  5
1E3
  8
0
 10
597.14194179338665
 20
-68.276987309951409
 30
0.0
 40
1.999816468760713
 50
255.2530573675709
 51
345.2518359667925
1001
REVIT
1002
{
1070
     3
1000
578788
1002
}
  0
ARC
  5
1E4
  8
0
 10
599.20896209539762
 20
-56.83275919804241
 30
0.0
 40
2.0611858542965171
 50
5.5001331594965519
 51
72.962768849426567
1001
REVIT
1002
{
1070
     3
1000
578788
1002
}
  0
ARC
  5
1E5
  8
0
 10
234.0582401568949
 20
65.808346011178742
 30
0.0
 40
2.6309694047366419
 50
74.321744651333489
 51
246.97770938843999
1001
REVIT
1002
{
1070
     3
1000
578788
1002
}
  0
ARC
  5
1E6
  8
0
 10
246.36425161202041
 20
68.058770245136444
 30
0.0
 40
3.0000413488272741
 50
254.44716671571979
 51
72.782241969917052
1001
REVIT
1002
{
1070
     3
1000
578788
1002
}
  0
LINE
  5
1E7
  8
0
 10
582.08124959707413
 20
-66.380632551953994
 30
0.0
 11
596.63288782097004
 21
-70.210928871088555
 31
0.0
1001
REVIT
1002
{
1070
     3
1000
578788
1002
}
  0
LINE
  5
1E8
  8
0
 10
599.07587250234405
 20
-68.786082508984066
 30
0.0
 11
601.48568328015836
 21
-59.631788626726099
 31
0.0
1001
REVIT
1002
{
1070
     3
1000
578788
1002
}
  0
LINE
  5
1E9
  8
0
 10
601.48568328015836
 20
-59.631788626726099
 30
0.0
 11
601.53632481043462
 21
-58.818274816660548
 31
0.0
1001
REVIT
1002
{
1070
     3
1000
578788
1002
}
  0
LINE
  5
1EA
  8
0
 10
601.53632481043462
 20
-58.818274816660569
 30
0.0
 11
601.26065819975304
 21
-56.635198520464201
 31
0.0
1001
REVIT
1002
{
1070
     3
1000
578788
1002
}
  0
LINE
  5
1EB
  8
0
 10
599.81287523716276
 20
-54.86202937303969
 30
0.0
 11
240.0006745000934
 21
60.51562417299013
 31
0.0
1001
REVIT
1002
{
1070
     3
1000
578788
1002
}
  0
LINE
  5
1EC
  8
0
 10
240.00067450010121
 20
60.515624172987607
 30
0.0
 11
233.02929639423459
 21
63.386926026553368
 31
0.0
1001
REVIT
1002
{
1070
     3
1000
578788
1002
}
  0
LINE
  5
1ED
  8
0
 10
234.7692203576436
 20
68.341428552827125
 30
0.0
 11
245.55986000467269
 21
65.168579553036395
 31
0.0
1001
REVIT
1002
{
1070
     3
1000
578788
1002
}
  0
LINE
  5
1EE
  8
0
 10
247.25227618468401
 20
70.924369737916095
 30
0.0
 11
201.12290777254239
 21
84.488118062077248
 31
0.0
1001
REVIT
1002
{
1070
     3
1000
578788
1002
}
  0
ARC
  5
1EF
  8
0
 10
-594.91495485966743
 20
-73.867942696357488
 30
0.0
 40
1.999816468760713
 50
195.3191042315085
 51
285.3178828307307
1001
REVIT
1002
{
1070
     3
1000
578788
1002
}
  0
ARC
  5
1F0
  8
0
 10
-597.09590993823815
 20
-62.44487984300725
 30
0.0
 40
2.0611858542965171
 50
107.60817134887461
 51
175.07080703880439
1001
REVIT
1002
{
1070
     3
1000
578788
1002
}
  0
ARC
  5
1F1
  8
0
 10
-233.18538920826151
 20
63.828725162893399
 30
0.0
 40
2.6309694047366419
 50
293.59323080986007
 51
106.2491955469678
1001
REVIT
1002
{
1070
     3
1000
578788
1002
}
  0
ARC
  5
1F2
  8
0
 10
-245.5132143190811
 20
65.956412922766049
 30
0.0
 40
3.0000413488272728
 50
107.78869822838359
 51
286.12377348258008
1001
REVIT
1002
{
1070
     3
1000
578788
1002
}
  0
LINE
  5
1F3
  8
0
 10
-579.87390685485423
 20
-71.821607993245891
 30
0.0
 11
-594.38665516536935
 21
-75.796715710926946
 31
0.0
1001
REVIT
1002
{
1070
     3
1000
578788
1002
}
  0
LINE
  5
1F4
  8
0
 10
-596.84371661178818
 20
-74.396283507086821
 30
0.0
 11
-599.34462681969023
 21
-65.266456969872294
 31
0.0
1001
REVIT
1002
{
1070
     3
1000
578788
1002
}
  0
LINE
  5
1F5
  8
0
 10
-599.34462681969023
 20
-65.266456969872294
 30
0.0
 11
-599.40337219281764
 21
-64.453488172874387
 31
0.0
1001
REVIT
1002
{
1070
     3
1000
578788
1002
}
  0
LINE
  5
1F6
  8
0
 10
-599.40337219281764
 20
-64.453488172874415
 30
0.0
 11
-599.14947279718911
 21
-62.267773348804567
 31
0.0
1001
REVIT
1002
{
1070
     3
1000
578788
1002
}
  0
LINE
  5
1F7
  8
0
 10
-597.71943067343045
 20
-60.480265626745663
 30
0.0
 11
-239.07478855185889
 21
58.47705198982883
 31
0.0
1001
REVIT
1002
{
1070
     3
1000
578788
1002
}
  0
LINE
  5
1F8
  8
0
 10
-239.07478855186659
 20
58.477051989826251
 30
0.0
 11
-232.1323679973242
 21
61.417678432119267
 31
0.0
1001
REVIT
1002
{
1070
     3
1000
578788
1002
}
  0
LINE
  5
1F9
  8
0
 10
-233.9215753186682
 20
66.354597293367306
 30
0.0
 11
-244.6800629922603
 21
63.0743811808711
 31
0.0
1001
REVIT
1002
{
1070
     3
1000
578788
1002
}
  0
LINE
  5
1FA
  8
0
 10
-246.42974941701181
 20
68.813021315411845
 30
0.0
 11
-200.4378288556363
 21
82.835757916389568
 31
0.0
1001
REVIT
1002
{
1070
     3
1000
578788
1002
}
  0
LINE
  5
1FB
  8
0
 10
-56.010589418843033
 20
159.73464138671511
 30
0.0
 11
-52.206363353661118
 21
160.97070936421531
 31
0.0
1001
REVIT
1002
{
1070
     3
1000
211597
1002
}
  0
LINE
  5
1FC
  8
0
 10
-39.519426168621941
 20
113.8341617088886
 30
0.0
 11
-54.352241898619511
 21
159.48487449105599
 31
0.0
1001
REVIT
1002
{
1070
     3
1000
211597
1002
}
  0
LINE
  5
1FD
  8
0
 10
-38.425863921723391
 20
112.0865571734862
 30
0.0
 11
-39.519426168621941
 21
113.8341617088886
 31
0.0
1001
REVIT
1002
{
1070
     3
1000
211597
1002
}
  0
LINE
  5
1FE
  8
0
 10
-38.568369652326787
 20
114.1431787032636
 30
0.0
 11
-38.425863921723391
 21
112.0865571734862
 31
0.0
1001
REVIT
1002
{
1070
     3
1000
211597
1002
}
  0
LINE
  5
1FF
  8
0
 10
-53.401185382324357
 20
159.79389148543089
 30
0.0
 11
-38.568369652326787
 21
114.1431787032636
 31
0.0
1001
REVIT
1002
{
1070
     3
1000
211597
1002
}
  0
LINE
  5
200
  8
0
 10
-52.260047342885372
 20
160.16466971056531
 30
0.0
 11
-53.401185382324357
 21
159.79389148543089
 31
0.0
1001
REVIT
1002
{
1070
     3
1000
211597
1002
}
  0
LINE
  5
201
  8
0
 10
-54.352241898619511
 20
159.48487449105599
 30
0.0
 11
-55.493379938058077
 21
159.1140962659218
 31
0.0
1001
REVIT
1002
{
1070
     3
1000
211597
1002
}
  0
LINE
  5
202
  8
0
 10
-56.010589418843033
 20
159.73464138671511
 30
0.0
 11
-55.493379938058077
 21
159.1140962659218
 31
0.0
1001
REVIT
1002
{
1070
     3
1000
211597
1002
}
  0
LINE
  5
203
  8
0
 10
-52.206363353661118
 20
160.97070936421531
 30
0.0
 11
-52.260047342885372
 21
160.16466971056531
 31
0.0
1001
REVIT
1002
{
1070
     3
1000
211597
1002
}
  0
LINE
  5
204
  8
0
 10
56.01058941884304
 20
159.73464138671511
 30
0.0
 11
52.206363353661139
 21
160.97070936421531
 31
0.0
1001
REVIT
1002
{
1070
     3
1000
211597
1002
}
  0
LINE
  5
205
  8
0
 10
39.519426168621919
 20
113.8341617088886
 30
0.0
 11
54.352241898619539
 21
159.48487449105599
 31
0.0
1001
REVIT
1002
{
1070
     3
1000
211597
1002
}
  0
LINE
  5
206
  8
0
 10
38.425863921723383
 20
112.0865571734862
 30
0.0
 11
39.519426168621919
 21
113.8341617088886
 31
0.0
1001
REVIT
1002
{
1070
     3
1000
211597
1002
}
  0
LINE
  5
207
  8
0
 10
38.568369652326773
 20
114.1431787032636
 30
0.0
 11
38.425863921723383
 21
112.0865571734862
 31
0.0
1001
REVIT
1002
{
1070
     3
1000
211597
1002
}
  0
LINE
  5
208
  8
0
 10
53.401185382324392
 20
159.79389148543089
 30
0.0
 11
38.568369652326773
 21
114.1431787032636
 31
0.0
1001
REVIT
1002
{
1070
     3
1000
211597
1002
}
  0
LINE
  5
209
  8
0
 10
52.260047342885379
 20
160.16466971056531
 30
0.0
 11
53.401185382324378
 21
159.79389148543089
 31
0.0
1001
REVIT
1002
{
1070
     3
1000
211597
1002
}
  0
LINE
  5
20A
  8
0
 10
54.352241898619539
 20
159.48487449105599
 30
0.0
 11
55.493379938058098
 21
159.1140962659218
 31
0.0
1001
REVIT
1002
{
1070
     3
1000
211597
1002
}
  0
LINE
  5
20B
  8
0
 10
56.01058941884304
 20
159.73464138671511
 30
0.0
 11
55.493379938058098
 21
159.1140962659218
 31
0.0
1001
REVIT
1002
{
1070
     3
1000
211597
1002
}
  0
LINE
  5
20C
  8
0
 10
52.206363353661139
 20
160.97070936421531
 30
0.0
 11
52.260047342885379
 21
160.16466971056531
 31
0.0
1001
REVIT
1002
{
1070
     3
1000
211597
1002
}
  0
LINE
  5
20D
  8
0
 10
0.0000000000000069
 20
173.83326101064401
 30
0.0
 11
52.427893117398
 21
156.79840590480779
 31
0.0
1001
REVIT
1002
{
1070
     3
1000
224528
1002
}
  0
LINE
  5
20E
  8
0
 10
53.378949633693132
 20
156.48938891043281
 30
0.0
 11
133.96432665277459
 21
130.30561268857869
 31
0.0
1001
REVIT
1002
{
1070
     3
1000
224528
1002
}
  0
LINE
  5
20F
  8
0
 10
133.96432665277459
 20
130.30561268857869
 30
0.0
 11
137.92730022360189
 21
114.4109938505979
 31
0.0
1001
REVIT
1002
{
1070
     3
1000
224528
1002
}
  0
LINE
  5
210
  8
0
 10
-0.0000000000000056
 20
173.83326101064401
 30
0.0
 11
-52.427893117398497
 21
156.79840590480759
 31
0.0
1001
REVIT
1002
{
1070
     3
1000
224528
1002
}
  0
LINE
  5
211
  8
0
 10
-53.378949633693622
 20
156.48938891043269
 30
0.0
 11
-133.96432665277459
 21
130.30561268857869
 31
0.0
1001
REVIT
1002
{
1070
     3
1000
224528
1002
}
  0
LINE
  5
212
  8
0
 10
-133.96432665277459
 20
130.30561268857869
 30
0.0
 11
-137.92730022360189
 21
114.4109938505979
 31
0.0
1001
REVIT
1002
{
1070
     3
1000
224528
1002
}
  0
LINE
  5
213
  8
0
 10
0.0
 20
147.64386601453731
 30
0.0
 11
-23.492315519647651
 21
139.0933624313956
 31
0.0
1001
REVIT
1002
{
1070
     3
1000
578786
1002
}
  0
LINE
  5
214
  8
0
 10
-30.07016386514875
 20
136.699221428116
 30
0.0
 11
-44.223484915563951
 21
131.54783384975161
 31
0.0
1001
REVIT
1002
{
1070
     3
1000
578786
1002
}
  0
LINE
  5
215
  8
0
 10
-45.163750320629468
 20
131.2056052299975
 30
0.0
 11
-59.200635109512227
 21
126.0965969850202
 31
0.0
1001
REVIT
1002
{
1070
     3
1000
578786
1002
}
  0
LINE
  5
216
  8
0
 10
-65.778483455013514
 20
123.7024559817405
 30
0.0
 11
-84.572335870731806
 21
116.8620531152271
 31
0.0
1001
REVIT
1002
{
1070
     3
1000
578786
1002
}
  0
LINE
  5
217
  8
0
 10
-84.572335870731777
 20
116.8620531152271
 30
0.0
 11
-78.144459773866387
 21
124.5224975464169
 31
0.0
1001
REVIT
1002
{
1070
     3
1000
578786
1002
}
  0
LINE
  5
218
  8
0
 10
0.0
 20
147.64386601453731
 30
0.0
 11
23.492315519647629
 21
139.0933624313956
 31
0.0
1001
REVIT
1002
{
1070
     3
1000
578786
1002
}
  0
LINE
  5
219
  8
0
 10
65.778483455013472
 20
123.7024559817404
 30
0.0
 11
84.572335870731735
 21
116.862053115227
 31
0.0
1001
REVIT
1002
{
1070
     3
1000
578786
1002
}
  0
LINE
  5
21A
  8
0
 10
84.572335870731735
 20
116.862053115227
 30
0.0
 11
78.144459773866359
 21
124.5224975464168
 31
0.0
1001
REVIT
1002
{
1070
     3
1000
578786
1002
}
  0
LINE
  5
21B
  8
0
 10
-65.778483455013514
 20
123.7024559817405
 30
0.0
 11
-59.35060735814821
 21
131.3629004129302
 31
0.0
1001
REVIT
1002
{
1070
     3
1000
578786
1002
}
  0
LINE
  5
21C
  8
0
 10
-59.350607358148217
 20
131.3629004129302
 30
0.0
 11
-59.200635109512227
 21
126.0965969850202
 31
0.0
1001
REVIT
1002
{
1070
     3
1000
578786
1002
}
  0
LINE
  5
21D
  8
0
 10
-30.07016386514875
 20
136.699221428116
 30
0.0
 11
-23.642287768283619
 21
144.35966585930549
 31
0.0
1001
REVIT
1002
{
1070
     3
1000
578786
1002
}
  0
LINE
  5
21E
  8
0
 10
-23.642287768283619
 20
144.35966585930549
 30
0.0
 11
-23.49231551964764
 21
139.0933624313956
 31
0.0
1001
REVIT
1002
{
1070
     3
1000
578786
1002
}
  0
LINE
  5
21F
  8
0
 10
30.070163865148729
 20
136.699221428116
 30
0.0
 11
44.22348491556091
 21
131.54783384975269
 31
0.0
1001
REVIT
1002
{
1070
     3
1000
578786
1002
}
  0
LINE
  5
220
  8
0
 10
45.163750320626427
 20
131.20560522999861
 30
0.0
 11
59.200635109512199
 21
126.0965969850201
 31
0.0
1001
REVIT
1002
{
1070
     3
1000
578786
1002
}
  0
LINE
  5
221
  8
0
 10
65.778483455013472
 20
123.7024559817404
 30
0.0
 11
59.350607358148189
 21
131.36290041293009
 31
0.0
1001
REVIT
1002
{
1070
     3
1000
578786
1002
}
  0
LINE
  5
222
  8
0
 10
59.350607358148189
 20
131.36290041293009
 30
0.0
 11
59.200635109512199
 21
126.0965969850201
 31
0.0
1001
REVIT
1002
{
1070
     3
1000
578786
1002
}
  0
LINE
  5
223
  8
0
 10
30.070163865148729
 20
136.699221428116
 30
0.0
 11
23.642287768283609
 21
144.35966585930549
 31
0.0
1001
REVIT
1002
{
1070
     3
1000
578786
1002
}
  0
LINE
  5
224
  8
0
 10
23.642287768283609
 20
144.35966585930549
 30
0.0
 11
23.492315519647619
 21
139.0933624313956
 31
0.0
1001
REVIT
1002
{
1070
     3
1000
578786
1002
}
  0
LINE
  5
225
  8
0
 10
-529.72003662195596
 20
-69.442015259775559
 30
0.0
 11
-0.0000000000027187
 21
123.36031056477449
 31
0.0
  0
LINE
  5
226
  8
0
 10
-0.0000000000027187
 20
123.36031056477449
 30
0.0
 11
-5.1303021498820822
 21
137.4556998765654
 31
0.0
  0
LINE
  5
227
  8
0
 10
-5.1303021498820822
 20
137.4556998765654
 30
0.0
 11
-41.805784177721641
 21
124.1069160910836
 31
0.0
  0
LINE
  5
228
  8
0
 10
-42.746049582787393
 20
123.76468747132979
 30
0.0
 11
-534.85033877183525
 21
-55.346625947984698
 31
0.0
  0
LINE
  5
229
  8
0
 10
-2.5651510749425679
 20
130.40800522067039
 30
0.0
 11
-39.486744023306102
 21
116.9696443857901
 31
0.0
1001
REVIT
1002
{
1070
     3
1000
456193
1002
}
  0
LINE
  5
22A
  8
0
 10
-40.427009428371697
 20
116.62741576603641
 30
0.0
 11
-532.28518769689583
 21
-62.394320603879663
 31
0.0
1001
REVIT
1002
{
1070
     3
1000
456193
1002
}
  0
LINE
  5
22B
  8
0
 10
-1.710100716629154
 20
128.0587736687047
 30
0.0
 11
-38.722938502061567
 21
114.587202429101
 31
0.0
1001
REVIT
1002
{
1070
     3
1000
456193
1002
}
  0
LINE
  5
22C
  8
0
 10
-39.653996043566281
 20
114.2483251976046
 30
0.0
 11
-531.43013733858231
 21
-64.743552155845322
 31
0.0
1001
REVIT
1002
{
1070
     3
1000
456193
1002
}
  0
LINE
  5
22D
  8
0
 10
-3.4202014332555049
 20
132.7572367726348
 30
0.0
 11
-40.259757408111021
 21
119.3487349542206
 31
0.0
1001
REVIT
1002
{
1070
     3
1000
456193
1002
}
  0
LINE
  5
22E
  8
0
 10
-41.200022813176659
 20
119.00650633446691
 30
0.0
 11
-533.1402380552081
 21
-60.045089051915078
 31
0.0
1001
REVIT
1002
{
1070
     3
1000
456193
1002
}
  0
LINE
  5
22F
  8
0
 10
-4.2752517915687234
 20
135.10646832459989
 30
0.0
 11
-41.03277079291626
 21
121.7278255226519
 31
0.0
1001
REVIT
1002
{
1070
     3
1000
456193
1002
}
  0
LINE
  5
230
  8
0
 10
-41.97303619798199
 20
121.3855969028982
 30
0.0
 11
-533.99528841352128
 21
-57.695857499949959
 31
0.0
1001
REVIT
1002
{
1070
     3
1000
456193
1002
}
  0
LINE
  5
231
  8
0
 10
-0.8550503583159361
 20
125.7095421167396
 30
0.0
 11
-530.57508698026902
 21
-67.092783707810412
 31
0.0
1001
REVIT
1002
{
1070
     3
1000
456193
1002
}
  0
LINE
  5
232
  8
0
 10
534.63962253424404
 20
-55.269931509625017
 30
0.0
 11
42.746049582789361
 21
123.7646874713359
 31
0.0
  0
LINE
  5
233
  8
0
 10
41.805784177723631
 20
124.1069160910897
 30
0.0
 11
5.1303021498850399
 21
137.45569987657171
 31
0.0
  0
LINE
  5
234
  8
0
 10
5.130302149885039
 20
137.45569987657171
 30
0.0
 11
0.0000000000055027
 21
123.3603105647809
 31
0.0
  0
LINE
  5
235
  8
0
 10
0.0000000000055036
 20
123.3603105647809
 30
0.0
 11
529.50932038436451
 21
-69.365320821415821
 31
0.0
  0
LINE
  5
236
  8
0
 10
2.5651510749454389
 20
130.4080052206767
 30
0.0
 11
39.486744023308013
 21
116.9696443857963
 31
0.0
1001
REVIT
1002
{
1070
     3
1000
456193
1002
}
  0
LINE
  5
237
  8
0
 10
40.427009428373736
 20
116.6274157660425
 30
0.0
 11
532.0744714593045
 21
-62.317626165519947
 31
0.0
1001
REVIT
1002
{
1070
     3
1000
456193
1002
}
  0
LINE
  5
238
  8
0
 10
1.7101007166319959
 20
128.0587736687111
 30
0.0
 11
38.722938502063663
 21
114.58720242910709
 31
0.0
1001
REVIT
1002
{
1070
     3
1000
456193
1002
}
  0
LINE
  5
239
  8
0
 10
39.65399604356827
 20
114.2483251976107
 30
0.0
 11
531.21942110099087
 21
-64.666857717485584
 31
0.0
1001
REVIT
1002
{
1070
     3
1000
456193
1002
}
  0
LINE
  5
23A
  8
0
 10
3.4202014332584052
 20
132.75723677264111
 30
0.0
 11
40.259757408113103
 21
119.3487349542267
 31
0.0
1001
REVIT
1002
{
1070
     3
1000
456193
1002
}
  0
LINE
  5
23B
  8
0
 10
41.200022813178727
 20
119.006506334473
 30
0.0
 11
532.92952181761666
 21
-59.968394613555382
 31
0.0
1001
REVIT
1002
{
1070
     3
1000
456193
1002
}
  0
LINE
  5
23C
  8
0
 10
4.2752517915716526
 20
135.1064683246062
 30
0.0
 11
41.032770792918271
 21
121.72782552265799
 31
0.0
1001
REVIT
1002
{
1070
     3
1000
456193
1002
}
  0
LINE
  5
23D
  8
0
 10
41.973036197983902
 20
121.3855969029043
 30
0.0
 11
533.78457217592995
 21
-57.619163061590292
 31
0.0
1001
REVIT
1002
{
1070
     3
1000
456193
1002
}
  0
LINE
  5
23E
  8
0
 10
0.8550503583187495
 20
125.70954211674599
 30
0.0
 11
530.36437074267758
 21
-67.016089269450674
 31
0.0
1001
REVIT
1002
{
1070
     3
1000
456193
1002
}
  0
LINE
  5
23F
  8
0
  6
DASH
 10
0.0
 20
144.64386601453739
 30
0.0
 11
-43.351810947400061
 21
128.8650972281481
 31
0.0
1001
REVIT
1002
{
1070
     3
1000
217411
1002
}
  0
LINE
  5
240
  8
0
  6
DASH
 10
-44.292076352465592
 20
128.52286860839399
 30
0.0
 11
-152.2738242114263
 21
89.220726543694155
 31
0.0
1001
REVIT
1002
{
1070
     3
1000
217411
1002
}
  0
LINE
  5
241
  8
0
  6
DASH
 10
538.12857768950391
 20
-51.218918472450483
 30
0.0
 11
44.292076352463774
 21
128.5228686083951
 31
0.0
1001
REVIT
1002
{
1070
     3
1000
217411
1002
}
  0
LINE
  5
242
  8
0
  6
DASH
 10
43.351810947398178
 20
128.86509722814921
 30
0.0
 11
0.00000000000216
 21
144.6438660145372
 31
0.0
1001
REVIT
1002
{
1070
     3
1000
217411
1002
}
  0
LINE
  5
243
  8
0
  6
DASH
 10
-5.8143424366106133
 20
139.3350851183518
 30
0.0
 11
-42.424194885631557
 21
126.01018854603051
 31
0.0
1001
REVIT
1002
{
1070
     3
1000
217411
1002
}
  0
LINE
  5
244
  8
0
  6
DASH
 10
-43.364460290697068
 20
125.6679599262764
 30
0.0
 11
-529.17852865272459
 21
-51.15390034526726
 31
0.0
1001
REVIT
1002
{
1070
     3
1000
217411
1002
}
  0
VIEWPORT
  5
1B2
 67
     1
  8
0
 10
128.5
 20
97.5
 30
0.0
 40
620.98982300884961
 41
222.18000000000001
 68
     1
 69
     1
1001
ACAD
1000
MVIEW
1002
{
1070
    16
1010
0.0
1020
0.0
1030
0.0
1010
0.0
1020
0.0
1030
1.0
1040
0.0
1040
222.18000000000001
1040
128.5
1040
97.5
1040
50.0
1040
0.0
1040
0.0
1070
     0
1070
   100
1070
     1
1070
     1
1070
     0
1070
     0
1070
     0
1070
     0
1040
0.0
1040
0.0
1040
0.0
1040
10.0
1040
10.0
1040
10.0
1040
10.0
1070
     0
1002
{
1002
}
1002
}
  0
VIEWPORT
  5
1B6
 67
     1
  8
0
 10
128.5
 20
97.5
 30
0.0
 40
205.59999999999999
 41
156.0
 68
     2
 69
     2
1001
ACAD
1000
MVIEW
1002
{
1070
    16
1010
0.0
1020
0.0
1030
0.0
1010
0.0
1020
0.0
1030
1.0
1040
0.0
1040
923.76282032935615
1040
1.046650504155763
1040
88.733290488166716
1040
50.0
1040
0.0
1040
0.0
1070
     0
1070
  1000
1070
     1
1070
     1
1070
     0
1070
     0
1070
     0
1070
     0
1040
0.0
1040
0.0
1040
0.0
1040
1.0
1040
1.0
1040
0.0
1040
0.0
1070
     0
1002
{
1002
}
1002
}
  0
ENDSEC
  0
EOF
