  0
SECTION
  2
HEADER
  9
$ACADVER
  1
AC1009
  9
$INSBASE
 10
0.0
 20
0.0
 30
0.0
  9
$EXTMIN
 10
-717.97784598581336
 20
-199.4675550490681
 30
0.0
  9
$EXTMAX
 10
717.97784598581575
 20
363.5361179209487
 30
0.0
  9
$LIMMIN
 10
0.0
 20
0.0
  9
$LIMMAX
 10
12.0
 20
9.0
  9
$ORTHOMODE
 70
     0
  9
$REGENMODE
 70
     1
  9
$FILLMODE
 70
     1
  9
$QTEXTMODE
 70
     0
  9
$MIRRTEXT
 70
     0
  9
$DRAGMODE
 70
     2
  9
$LTSCALE
 40
1.0
  9
$OSMODE
 70
     0
  9
$ATTMODE
 70
     1
  9
$TEXTSIZE
 40
0.2
  9
$TRACEWID
 40
0.05
  9
$TEXTSTYLE
  7
STANDARD
  9
$CLAYER
  8
0
  9
$CELTYPE
  6
CONTINUOUS
  9
$CECOLOR
 62
   256
  9
$DIMSCALE
 40
1.0
  9
$DIMASZ
 40
0.18
  9
$DIMEXO
 40
0.0625
  9
$DIMDLI
 40
0.38
  9
$DIMRND
 40
0.0
  9
$DIMDLE
 40
0.0
  9
$DIMEXE
 40
0.18
  9
$DIMTP
 40
0.0
  9
$DIMTM
 40
0.0
  9
$DIMTXT
 40
0.18
  9
$DIMCEN
 40
0.09
  9
$DIMTSZ
 40
0.0
  9
$DIMTOL
 70
     0
  9
$DIMLIM
 70
     0
  9
$DIMTIH
 70
     1
  9
$DIMTOH
 70
     1
  9
$DIMSE1
 70
     0
  9
$DIMSE2
 70
     0
  9
$DIMTAD
 70
     0
  9
$DIMZIN
 70
     0
  9
$DIMBLK
  1

  9
$DIMASO
 70
     1
  9
$DIMSHO
 70
     1
  9
$DIMPOST
  1

  9
$DIMAPOST
  1

  9
$DIMALT
 70
     0
  9
$DIMALTD
 70
     2
  9
$DIMALTF
 40
25.399999999999999
  9
$DIMLFAC
 40
1.0
  9
$DIMTOFL
 70
     0
  9
$DIMTVP
 40
0.0
  9
$DIMTIX
 70
     0
  9
$DIMSOXD
 70
     0
  9
$DIMSAH
 70
     0
  9
$DIMBLK1
  1

  9
$DIMBLK2
  1

  9
$DIMSTYLE
  2
STANDARD
  9
$DIMCLRD
 70
     0
  9
$DIMCLRE
 70
     0
  9
$DIMCLRT
 70
     0
  9
$DIMTFAC
 40
1.0
  9
$DIMGAP
 40
0.09
  9
$LUNITS
 70
     2
  9
$LUPREC
 70
     4
  9
$SKETCHINC
 40
0.1
  9
$FILLETRAD
 40
0.0
  9
$AUNITS
 70
     0
  9
$AUPREC
 70
     0
  9
$MENU
  1
.
  9
$ELEVATION
 40
0.0
  9
$PELEVATION
 40
0.0
  9
$THICKNESS
 40
0.0
  9
$LIMCHECK
 70
     0
  9
$BLIPMODE
 70
     0
  9
$CHAMFERA
 40
0.0
  9
$CHAMFERB
 40
0.0
  9
$SKPOLY
 70
     0
  9
$TDCREATE
 40
2458069.9974796758
  9
$TDUPDATE
 40
2458070.0814798148
  9
$TDINDWG
 40
0.0015362269
  9
$TDUSRTIMER
 40
0.0015362269
  9
$USRTIMER
 70
     1
  9
$ANGBASE
 50
0.0
  9
$ANGDIR
 70
     0
  9
$PDMODE
 70
     0
  9
$PDSIZE
 40
0.0
  9
$PLINEWID
 40
0.0
  9
$COORDS
 70
     2
  9
$SPLFRAME
 70
     0
  9
$SPLINETYPE
 70
     6
  9
$SPLINESEGS
 70
     8
  9
$ATTDIA
 70
     1
  9
$ATTREQ
 70
     0
  9
$HANDLING
 70
     1
  9
$HANDSEED
  5
6AD
  9
$SURFTAB1
 70
     6
  9
$SURFTAB2
 70
     6
  9
$SURFTYPE
 70
     6
  9
$SURFU
 70
     6
  9
$SURFV
 70
     6
  9
$UCSNAME
  2

  9
$UCSORG
 10
0.0
 20
0.0
 30
0.0
  9
$UCSXDIR
 10
1.0
 20
0.0
 30
0.0
  9
$UCSYDIR
 10
0.0
 20
1.0
 30
0.0
  9
$PUCSNAME
  2

  9
$PUCSORG
 10
0.0
 20
0.0
 30
0.0
  9
$PUCSXDIR
 10
1.0
 20
0.0
 30
0.0
  9
$PUCSYDIR
 10
0.0
 20
1.0
 30
0.0
  9
$USERI1
 70
     0
  9
$USERI2
 70
     0
  9
$USERI3
 70
     0
  9
$USERI4
 70
     0
  9
$USERI5
 70
     0
  9
$USERR1
 40
0.0
  9
$USERR2
 40
0.0
  9
$USERR3
 40
0.0
  9
$USERR4
 40
0.0
  9
$USERR5
 40
0.0
  9
$WORLDVIEW
 70
     1
  9
$SHADEDGE
 70
     3
  9
$SHADEDIF
 70
    70
  9
$TILEMODE
 70
     1
  9
$MAXACTVP
 70
    64
  9
$PLIMCHECK
 70
     0
  9
$PEXTMIN
 10
25.699999999999989
 20
19.5
 30
0.0
  9
$PEXTMAX
 10
231.30000000000001
 20
175.5
 30
0.0
  9
$PLIMMIN
 10
-20.0
 20
-7.5
  9
$PLIMMAX
 10
277.0
 20
202.5
  9
$UNITMODE
 70
     0
  9
$VISRETAIN
 70
     1
  9
$PLINEGEN
 70
     0
  9
$PSLTSCALE
 70
     1
  0
ENDSEC
  0
SECTION
  2
TABLES
  0
TABLE
  2
VPORT
 70
     1
  0
VPORT
  2
*ACTIVE
 70
     0
 10
0.0
 20
0.0
 11
1.0
 21
1.0
 12
13.11706476906147
 22
80.732743992409894
 13
0.0
 23
0.0
 14
1.0
 24
1.0
 15
0.0
 25
0.0
 16
0.0
 26
0.0
 36
1.0
 17
0.0
 27
0.0
 37
0.0
 40
560.40059808295609
 41
2.6232876712328759
 42
50.0
 43
0.0
 44
0.0
 50
0.0
 51
0.0
 71
     0
 72
  1000
 73
     1
 74
     1
 75
     0
 76
     0
 77
     0
 78
     0
  0
ENDTAB
  0
TABLE
  2
LTYPE
 70
     2
  0
LTYPE
  2
CONTINUOUS
 70
     0
  3
Solid line
 72
    65
 73
     0
 40
0.0
  0
LTYPE
  2
DASH
 70
     0
  3

 72
    65
 73
     2
 40
6.3499999999999988
 49
3.1749999999999989
 49
-3.1749999999999989
  0
ENDTAB
  0
TABLE
  2
LAYER
 70
     7
  0
LAYER
  2
0
 70
     0
 62
     7
  6
CONTINUOUS
  0
ENDTAB
  0
TABLE
  2
STYLE
 70
     2
  0
STYLE
  2
STANDARD
 70
     0
 40
0.0
 41
1.0
 50
0.0
 71
     0
 42
0.2
  3
txt
  4

  0
STYLE
  2
ARIAL
 70
     0
 40
9.8353293413173617
 41
1.0
 50
0.0
 71
     0
 42
0.2
  3
txt
  4

  0
ENDTAB
  0
TABLE
  2
VIEW
 70
     1
  0
ENDTAB
  0
TABLE
  2
UCS
 70
     0
  0
ENDTAB
  0
TABLE
  2
APPID
 70
     6
  0
APPID
  2
ACAD
 70
     0
  0
APPID
  2
ACADANNOTATIVE
 70
     0
  0
APPID
  2
REVIT
 70
     0
  0
APPID
  2
ACAD_PSEXT
 70
     0
  0
APPID
  2
ACAD_MLEADERVER
 70
     0
  0
APPID
  2
ACAD_NAV_VCDISPLAY
 70
     0
  0
ENDTAB
  0
TABLE
  2
DIMSTYLE
 70
     1
  0
DIMSTYLE
  2
STANDARD
 70
     0
  3

  4

  5

  6

  7

 40
1.0
 41
0.18
 42
0.0625
 43
0.38
 44
0.18
 45
0.0
 46
0.0
 47
0.0
 48
0.0
140
0.18
141
0.09
142
0.0
143
25.399999999999999
144
1.0
145
0.0
146
1.0
147
0.09
 71
     0
 72
     0
 73
     1
 74
     1
 75
     0
 76
     0
 77
     0
 78
     0
170
     0
171
     2
172
     0
173
     0
174
     0
175
     0
176
     0
177
     0
178
     0
  0
ENDTAB
  0
ENDSEC
  0
SECTION
  2
BLOCKS
  0
BLOCK
  8
0
  2
$MODEL_SPACE
 70
     0
 10
0.0
 20
0.0
 30
0.0
  3
$MODEL_SPACE
  1

  0
ENDBLK
  5
72
  8
0
  0
BLOCK
 67
     1
  8
0
  2
$PAPER_SPACE
 70
     0
 10
0.0
 20
0.0
 30
0.0
  3
$PAPER_SPACE
  1

  0
ENDBLK
  5
3A0
 67
     1
  8
0
  0
BLOCK
  8
0
  2
*U27
 70
     1
 10
0.0
 20
0.0
 30
0.0
  3
*U27
  1

  0
SOLID
  5
59D
  8
0
  6
CONTINUOUS
 10
16.449667196628649
 20
169.39826979712359
 30
0.0
 11
15.68430033189847
 21
169.2460288621462
 31
0.0
 12
17.215034061358828
 22
169.2460288621462
 32
0.0
 13
17.215034061358828
 23
169.2460288621462
 33
0.0
210
0.0
220
0.0
230
1.0
  0
SOLID
  5
59E
  8
0
  6
CONTINUOUS
 10
15.68430033189847
 20
169.2460288621462
 30
0.0
 11
15.03545363425556
 21
168.8124833594967
 31
0.0
 12
17.863880759001781
 22
168.8124833594967
 32
0.0
 13
17.863880759001781
 23
168.8124833594967
 33
0.0
210
0.0
220
0.0
230
1.0
  0
SOLID
  5
59F
  8
0
  6
CONTINUOUS
 10
-15.68430033189847
 20
169.2460288621462
 30
0.0
 11
-17.215034061358828
 21
169.2460288621462
 31
0.0
 12
-17.863880759001781
 22
168.8124833594967
 32
0.0
 13
-17.863880759001781
 23
168.8124833594967
 33
0.0
210
0.0
220
0.0
230
-1.0
  0
SOLID
  5
5A0
  8
0
  6
CONTINUOUS
 10
15.03545363425556
 20
168.8124833594967
 30
0.0
 11
14.601908131606081
 21
168.16363666185379
 31
0.0
 12
18.297426261651221
 22
168.16363666185379
 32
0.0
 13
18.297426261651221
 23
168.16363666185379
 33
0.0
210
0.0
220
0.0
230
1.0
  0
SOLID
  5
5A1
  8
0
  6
CONTINUOUS
 10
-15.03545363425556
 20
168.8124833594967
 30
0.0
 11
-17.863880759001759
 21
168.8124833594967
 31
0.0
 12
-18.297426261651221
 22
168.16363666185379
 32
0.0
 13
-18.297426261651221
 23
168.16363666185379
 33
0.0
210
0.0
220
0.0
230
-1.0
  0
SOLID
  5
5A2
  8
0
  6
CONTINUOUS
 10
14.601908131606081
 20
168.16363666185379
 30
0.0
 11
14.449667196628649
 21
167.3982697971237
 31
0.0
 12
18.449667196628639
 22
167.3982697971237
 32
0.0
 13
18.449667196628639
 23
167.3982697971237
 33
0.0
210
0.0
220
0.0
230
1.0
  0
SOLID
  5
5A3
  8
0
  6
CONTINUOUS
 10
-14.601908131606081
 20
168.16363666185379
 30
0.0
 11
-18.297426261651221
 21
168.16363666185379
 31
0.0
 12
-18.449667196628639
 22
167.3982697971237
 32
0.0
 13
-18.449667196628639
 23
167.3982697971237
 33
0.0
210
0.0
220
0.0
230
-1.0
  0
SOLID
  5
5A4
  8
0
  6
CONTINUOUS
 10
14.449667196628649
 20
167.3982697971237
 30
0.0
 11
14.601908131606081
 21
166.63290293239351
 31
0.0
 12
18.297426261651221
 22
166.63290293239351
 32
0.0
 13
18.297426261651221
 23
166.63290293239351
 33
0.0
210
0.0
220
0.0
230
1.0
  0
SOLID
  5
5A5
  8
0
  6
CONTINUOUS
 10
-14.449667196628649
 20
167.3982697971237
 30
0.0
 11
-18.449667196628639
 21
167.3982697971237
 31
0.0
 12
-18.297426261651221
 22
166.63290293239351
 32
0.0
 13
-18.297426261651221
 23
166.63290293239351
 33
0.0
210
0.0
220
0.0
230
-1.0
  0
SOLID
  5
5A6
  8
0
  6
CONTINUOUS
 10
14.601908131606081
 20
166.63290293239351
 30
0.0
 11
15.03545363425556
 21
165.98405623475051
 31
0.0
 12
17.86388075900172
 22
165.98405623475051
 32
0.0
 13
17.86388075900172
 23
165.98405623475051
 33
0.0
210
0.0
220
0.0
230
1.0
  0
SOLID
  5
5A7
  8
0
  6
CONTINUOUS
 10
-14.601908131606081
 20
166.63290293239351
 30
0.0
 11
-18.297426261651221
 21
166.63290293239351
 31
0.0
 12
-17.86388075900172
 22
165.98405623475051
 32
0.0
 13
-17.86388075900172
 23
165.98405623475051
 33
0.0
210
0.0
220
0.0
230
-1.0
  0
SOLID
  5
5A8
  8
0
  6
CONTINUOUS
 10
-15.68430033189847
 20
165.55051073210109
 30
0.0
 11
-17.215034061358828
 21
165.55051073210109
 31
0.0
 12
-16.449667196628649
 22
165.3982697971237
 32
0.0
 13
-16.449667196628649
 23
165.3982697971237
 33
0.0
210
0.0
220
0.0
230
-1.0
  0
SOLID
  5
5A9
  8
0
  6
CONTINUOUS
 10
15.03545363425556
 20
165.98405623475051
 30
0.0
 11
15.68430033189847
 21
165.55051073210109
 31
0.0
 12
17.215034061358828
 22
165.55051073210109
 32
0.0
 13
17.215034061358828
 23
165.55051073210109
 33
0.0
210
0.0
220
0.0
230
1.0
  0
SOLID
  5
5AA
  8
0
  6
CONTINUOUS
 10
-15.03545363425556
 20
165.98405623475051
 30
0.0
 11
-17.863880759001699
 21
165.98405623475051
 31
0.0
 12
-17.215034061358828
 22
165.55051073210109
 32
0.0
 13
-17.215034061358828
 23
165.55051073210109
 33
0.0
210
0.0
220
0.0
230
-1.0
  0
LINE
  5
5AB
  8
0
  6
CONTINUOUS
 10
16.449667196628649
 20
169.39826979712359
 30
0.0
 11
15.68430033189847
 21
169.2460288621462
 31
0.0
  0
LINE
  5
5AC
  8
0
  6
CONTINUOUS
 10
17.215034061358828
 20
169.2460288621462
 30
0.0
 11
16.449667196628649
 21
169.39826979712359
 31
0.0
  0
LINE
  5
5AD
  8
0
  6
CONTINUOUS
 10
15.68430033189847
 20
169.2460288621462
 30
0.0
 11
15.03545363425556
 21
168.8124833594967
 31
0.0
  0
LINE
  5
5AE
  8
0
  6
CONTINUOUS
 10
17.215034061358828
 20
169.2460288621462
 30
0.0
 11
17.863880759001781
 21
168.8124833594967
 31
0.0
  0
LINE
  5
5AF
  8
0
  6
CONTINUOUS
 10
15.03545363425556
 20
168.8124833594967
 30
0.0
 11
14.601908131606081
 21
168.16363666185379
 31
0.0
  0
LINE
  5
5B0
  8
0
  6
CONTINUOUS
 10
17.863880759001759
 20
168.8124833594967
 30
0.0
 11
18.297426261651221
 21
168.16363666185379
 31
0.0
  0
LINE
  5
5B1
  8
0
  6
CONTINUOUS
 10
14.601908131606081
 20
168.16363666185379
 30
0.0
 11
14.449667196628649
 21
167.3982697971237
 31
0.0
  0
LINE
  5
5B2
  8
0
  6
CONTINUOUS
 10
18.297426261651221
 20
168.16363666185379
 30
0.0
 11
18.449667196628639
 21
167.3982697971237
 31
0.0
  0
LINE
  5
5B3
  8
0
  6
CONTINUOUS
 10
14.449667196628649
 20
167.3982697971237
 30
0.0
 11
14.601908131606081
 21
166.63290293239351
 31
0.0
  0
LINE
  5
5B4
  8
0
  6
CONTINUOUS
 10
18.449667196628639
 20
167.3982697971237
 30
0.0
 11
18.297426261651221
 21
166.63290293239351
 31
0.0
  0
LINE
  5
5B5
  8
0
  6
CONTINUOUS
 10
14.601908131606081
 20
166.63290293239351
 30
0.0
 11
15.03545363425556
 21
165.98405623475051
 31
0.0
  0
LINE
  5
5B6
  8
0
  6
CONTINUOUS
 10
18.297426261651221
 20
166.63290293239351
 30
0.0
 11
17.86388075900172
 21
165.98405623475051
 31
0.0
  0
LINE
  5
5B7
  8
0
  6
CONTINUOUS
 10
17.215034061358828
 20
165.55051073210109
 30
0.0
 11
16.449667196628649
 21
165.3982697971237
 31
0.0
  0
LINE
  5
5B8
  8
0
  6
CONTINUOUS
 10
16.449667196628649
 20
165.3982697971237
 30
0.0
 11
15.68430033189847
 21
165.55051073210109
 31
0.0
  0
LINE
  5
5B9
  8
0
  6
CONTINUOUS
 10
15.03545363425556
 20
165.98405623475051
 30
0.0
 11
15.68430033189847
 21
165.55051073210109
 31
0.0
  0
LINE
  5
5BA
  8
0
  6
CONTINUOUS
 10
17.863880759001699
 20
165.98405623475051
 30
0.0
 11
17.215034061358828
 21
165.55051073210109
 31
0.0
  0
ENDBLK
  5
5BC
  8
0
  0
BLOCK
  8
0
  2
*U28
 70
     1
 10
0.0
 20
0.0
 30
0.0
  3
*U28
  1

  0
TEXT
  5
5BE
  8
0
  6
CONTINUOUS
 10
320.81534054946252
 20
351.09771369257049
 30
0.0
 40
9.8353293413173617
  1
CF Trim 400
  7
ARIAL
  0
ENDBLK
  5
5C0
  8
0
  0
BLOCK
  8
0
  2
*U29
 70
     1
 10
0.0
 20
0.0
 30
0.0
  3
*U29
  1

  0
SOLID
  5
5C2
  8
0
  6
CONTINUOUS
 10
66.979319876752072
 20
138.09463497106
 30
0.0
 11
66.213953012021889
 21
137.94239403608259
 31
0.0
 12
67.744686741482255
 22
137.94239403608259
 32
0.0
 13
67.744686741482255
 23
137.94239403608259
 33
0.0
210
0.0
220
0.0
230
1.0
  0
SOLID
  5
5C3
  8
0
  6
CONTINUOUS
 10
66.213953012021889
 20
137.94239403608259
 30
0.0
 11
65.56510631437898
 21
137.50884853343311
 31
0.0
 12
68.393533439125164
 22
137.50884853343311
 32
0.0
 13
68.393533439125164
 23
137.50884853343311
 33
0.0
210
0.0
220
0.0
230
1.0
  0
SOLID
  5
5C4
  8
0
  6
CONTINUOUS
 10
-66.213953012021889
 20
137.94239403608259
 30
0.0
 11
-67.744686741482255
 21
137.94239403608259
 31
0.0
 12
-68.393533439125164
 22
137.50884853343311
 32
0.0
 13
-68.393533439125164
 23
137.50884853343311
 33
0.0
210
0.0
220
0.0
230
-1.0
  0
SOLID
  5
5C5
  8
0
  6
CONTINUOUS
 10
65.56510631437898
 20
137.50884853343311
 30
0.0
 11
65.1315608117295
 21
136.8600018357902
 31
0.0
 12
68.827078941774644
 22
136.8600018357902
 32
0.0
 13
68.827078941774644
 23
136.8600018357902
 33
0.0
210
0.0
220
0.0
230
1.0
  0
SOLID
  5
5C6
  8
0
  6
CONTINUOUS
 10
-65.56510631437898
 20
137.50884853343311
 30
0.0
 11
-68.393533439125164
 21
137.50884853343311
 31
0.0
 12
-68.827078941774644
 22
136.8600018357902
 32
0.0
 13
-68.827078941774644
 23
136.8600018357902
 33
0.0
210
0.0
220
0.0
230
-1.0
  0
SOLID
  5
5C7
  8
0
  6
CONTINUOUS
 10
65.1315608117295
 20
136.8600018357902
 30
0.0
 11
64.979319876752072
 21
136.09463497106
 31
0.0
 12
68.979319876752072
 22
136.09463497106
 32
0.0
 13
68.979319876752072
 23
136.09463497106
 33
0.0
210
0.0
220
0.0
230
1.0
  0
SOLID
  5
5C8
  8
0
  6
CONTINUOUS
 10
-65.1315608117295
 20
136.8600018357902
 30
0.0
 11
-68.827078941774644
 21
136.8600018357902
 31
0.0
 12
-68.979319876752072
 22
136.09463497106
 32
0.0
 13
-68.979319876752072
 23
136.09463497106
 33
0.0
210
0.0
220
0.0
230
-1.0
  0
SOLID
  5
5C9
  8
0
  6
CONTINUOUS
 10
64.979319876752072
 20
136.09463497106
 30
0.0
 11
65.1315608117295
 21
135.32926810632981
 31
0.0
 12
68.827078941774644
 22
135.32926810632981
 32
0.0
 13
68.827078941774644
 23
135.32926810632981
 33
0.0
  0
SOLID
  5
5CA
  8
0
  6
CONTINUOUS
 10
-64.979319876752072
 20
136.09463497106
 30
0.0
 11
-68.979319876752072
 21
136.09463497106
 31
0.0
 12
-68.827078941774644
 22
135.32926810632981
 32
0.0
 13
-68.827078941774644
 23
135.32926810632981
 33
0.0
210
0.0
220
0.0
230
-1.0
  0
SOLID
  5
5CB
  8
0
  6
CONTINUOUS
 10
65.1315608117295
 20
135.32926810632981
 30
0.0
 11
65.56510631437898
 21
134.6804214086869
 31
0.0
 12
68.393533439125164
 22
134.6804214086869
 32
0.0
 13
68.393533439125164
 23
134.6804214086869
 33
0.0
210
0.0
220
0.0
230
1.0
  0
SOLID
  5
5CC
  8
0
  6
CONTINUOUS
 10
-65.1315608117295
 20
135.32926810632981
 30
0.0
 11
-68.827078941774644
 21
135.32926810632981
 31
0.0
 12
-68.393533439125164
 22
134.6804214086869
 32
0.0
 13
-68.393533439125164
 23
134.6804214086869
 33
0.0
210
0.0
220
0.0
230
-1.0
  0
SOLID
  5
5CD
  8
0
  6
CONTINUOUS
 10
-66.213953012021889
 20
134.24687590603739
 30
0.0
 11
-67.744686741482255
 21
134.24687590603739
 31
0.0
 12
-66.979319876752072
 22
134.09463497106
 32
0.0
 13
-66.979319876752072
 23
134.09463497106
 33
0.0
210
0.0
220
0.0
230
-1.0
  0
SOLID
  5
5CE
  8
0
  6
CONTINUOUS
 10
65.56510631437898
 20
134.6804214086869
 30
0.0
 11
66.213953012021889
 21
134.24687590603739
 31
0.0
 12
67.744686741482255
 22
134.24687590603739
 32
0.0
 13
67.744686741482255
 23
134.24687590603739
 33
0.0
210
0.0
220
0.0
230
1.0
  0
SOLID
  5
5CF
  8
0
  6
CONTINUOUS
 10
-65.56510631437898
 20
134.6804214086869
 30
0.0
 11
-68.393533439125164
 21
134.6804214086869
 31
0.0
 12
-67.744686741482255
 22
134.24687590603739
 32
0.0
 13
-67.744686741482255
 23
134.24687590603739
 33
0.0
210
0.0
220
0.0
230
-1.0
  0
LINE
  5
5D0
  8
0
  6
CONTINUOUS
 10
66.979319876752072
 20
138.09463497106
 30
0.0
 11
66.213953012021889
 21
137.94239403608259
 31
0.0
  0
LINE
  5
5D1
  8
0
  6
CONTINUOUS
 10
67.744686741482255
 20
137.94239403608259
 30
0.0
 11
66.979319876752072
 21
138.09463497106
 31
0.0
  0
LINE
  5
5D2
  8
0
  6
CONTINUOUS
 10
66.213953012021889
 20
137.94239403608259
 30
0.0
 11
65.56510631437898
 21
137.50884853343311
 31
0.0
  0
LINE
  5
5D3
  8
0
  6
CONTINUOUS
 10
67.744686741482255
 20
137.94239403608259
 30
0.0
 11
68.393533439125164
 21
137.50884853343311
 31
0.0
  0
LINE
  5
5D4
  8
0
  6
CONTINUOUS
 10
65.56510631437898
 20
137.50884853343311
 30
0.0
 11
65.1315608117295
 21
136.8600018357902
 31
0.0
  0
LINE
  5
5D5
  8
0
  6
CONTINUOUS
 10
68.393533439125164
 20
137.50884853343311
 30
0.0
 11
68.827078941774644
 21
136.8600018357902
 31
0.0
  0
LINE
  5
5D6
  8
0
  6
CONTINUOUS
 10
65.1315608117295
 20
136.8600018357902
 30
0.0
 11
64.979319876752072
 21
136.09463497106
 31
0.0
  0
LINE
  5
5D7
  8
0
  6
CONTINUOUS
 10
68.827078941774644
 20
136.8600018357902
 30
0.0
 11
68.979319876752072
 21
136.09463497106
 31
0.0
  0
LINE
  5
5D8
  8
0
  6
CONTINUOUS
 10
64.979319876752072
 20
136.09463497106
 30
0.0
 11
65.1315608117295
 21
135.32926810632981
 31
0.0
  0
LINE
  5
5D9
  8
0
  6
CONTINUOUS
 10
68.979319876752072
 20
136.09463497106
 30
0.0
 11
68.827078941774644
 21
135.32926810632981
 31
0.0
  0
LINE
  5
5DA
  8
0
  6
CONTINUOUS
 10
65.1315608117295
 20
135.32926810632981
 30
0.0
 11
65.56510631437898
 21
134.6804214086869
 31
0.0
  0
LINE
  5
5DB
  8
0
  6
CONTINUOUS
 10
68.827078941774644
 20
135.32926810632981
 30
0.0
 11
68.393533439125164
 21
134.6804214086869
 31
0.0
  0
LINE
  5
5DC
  8
0
  6
CONTINUOUS
 10
67.744686741482255
 20
134.24687590603739
 30
0.0
 11
66.979319876752072
 21
134.09463497106
 31
0.0
  0
LINE
  5
5DD
  8
0
  6
CONTINUOUS
 10
66.979319876752072
 20
134.09463497106
 30
0.0
 11
66.213953012021889
 21
134.24687590603739
 31
0.0
  0
LINE
  5
5DE
  8
0
  6
CONTINUOUS
 10
65.56510631437898
 20
134.6804214086869
 30
0.0
 11
66.213953012021889
 21
134.24687590603739
 31
0.0
  0
LINE
  5
5DF
  8
0
  6
CONTINUOUS
 10
68.393533439125164
 20
134.6804214086869
 30
0.0
 11
67.744686741482255
 21
134.24687590603739
 31
0.0
  0
ENDBLK
  5
5E1
  8
0
  0
BLOCK
  8
0
  2
*U30
 70
     1
 10
0.0
 20
0.0
 30
0.0
  3
*U30
  1

  0
TEXT
  5
5E3
  8
0
  6
CONTINUOUS
 10
320.8824301084075
 20
302.84920690183162
 30
0.0
 40
9.8353293413173617
  1
Self Adhesive Membrane
  7
ARIAL
  0
ENDBLK
  5
5E5
  8
0
  0
BLOCK
  8
0
  2
*U31
 70
     1
 10
0.0
 20
0.0
 30
0.0
  3
*U31
  1

  0
SOLID
  5
5E7
  8
0
  6
CONTINUOUS
 10
198.7279316067569
 20
70.92876492418165
 30
0.0
 11
197.9625647420267
 21
70.776523989204222
 31
0.0
 12
199.49329847148701
 22
70.776523989204222
 32
0.0
 13
199.49329847148701
 23
70.776523989204222
 33
0.0
210
0.0
220
0.0
230
1.0
  0
SOLID
  5
5E8
  8
0
  6
CONTINUOUS
 10
197.9625647420267
 20
70.776523989204222
 30
0.0
 11
197.31371804438379
 21
70.342978486554756
 31
0.0
 12
200.14214516913
 22
70.342978486554756
 32
0.0
 13
200.14214516913
 23
70.342978486554756
 33
0.0
210
0.0
220
0.0
230
1.0
  0
SOLID
  5
5E9
  8
0
  6
CONTINUOUS
 10
-197.9625647420267
 20
70.776523989204222
 30
0.0
 11
-199.49329847148701
 21
70.776523989204222
 31
0.0
 12
-200.14214516913
 22
70.342978486554756
 32
0.0
 13
-200.14214516913
 23
70.342978486554756
 33
0.0
210
0.0
220
0.0
230
-1.0
  0
SOLID
  5
5EA
  8
0
  6
CONTINUOUS
 10
197.31371804438379
 20
70.342978486554756
 30
0.0
 11
196.88017254173431
 21
69.694131788911832
 31
0.0
 12
200.5756906717794
 22
69.694131788911832
 32
0.0
 13
200.5756906717794
 23
69.694131788911832
 33
0.0
210
0.0
220
0.0
230
1.0
  0
SOLID
  5
5EB
  8
0
  6
CONTINUOUS
 10
-197.31371804438379
 20
70.342978486554756
 30
0.0
 11
-200.14214516913
 21
70.342978486554756
 31
0.0
 12
-200.5756906717794
 22
69.694131788911832
 32
0.0
 13
-200.5756906717794
 23
69.694131788911832
 33
0.0
210
0.0
220
0.0
230
-1.0
  0
SOLID
  5
5EC
  8
0
  6
CONTINUOUS
 10
196.88017254173431
 20
69.694131788911832
 30
0.0
 11
196.7279316067569
 21
68.928764924181664
 31
0.0
 12
200.7279316067569
 22
68.928764924181664
 32
0.0
 13
200.7279316067569
 23
68.928764924181664
 33
0.0
210
0.0
220
0.0
230
1.0
  0
SOLID
  5
5ED
  8
0
  6
CONTINUOUS
 10
-196.88017254173431
 20
69.694131788911832
 30
0.0
 11
-200.5756906717794
 21
69.694131788911832
 31
0.0
 12
-200.7279316067569
 22
68.928764924181664
 32
0.0
 13
-200.7279316067569
 23
68.928764924181664
 33
0.0
210
0.0
220
0.0
230
-1.0
  0
SOLID
  5
5EE
  8
0
  6
CONTINUOUS
 10
196.7279316067569
 20
68.928764924181664
 30
0.0
 11
196.88017254173431
 21
68.163398059451495
 31
0.0
 12
200.5756906717794
 22
68.163398059451495
 32
0.0
 13
200.5756906717794
 23
68.163398059451495
 33
0.0
210
0.0
220
0.0
230
1.0
  0
SOLID
  5
5EF
  8
0
  6
CONTINUOUS
 10
-196.7279316067569
 20
68.928764924181664
 30
0.0
 11
-200.7279316067569
 21
68.928764924181664
 31
0.0
 12
-200.5756906717794
 22
68.163398059451495
 32
0.0
 13
-200.5756906717794
 23
68.163398059451495
 33
0.0
210
0.0
220
0.0
230
-1.0
  0
SOLID
  5
5F0
  8
0
  6
CONTINUOUS
 10
196.88017254173431
 20
68.163398059451495
 30
0.0
 11
197.31371804438379
 21
67.514551361808572
 31
0.0
 12
200.14214516913
 22
67.514551361808572
 32
0.0
 13
200.14214516913
 23
67.514551361808572
 33
0.0
210
0.0
220
0.0
230
1.0
  0
SOLID
  5
5F1
  8
0
  6
CONTINUOUS
 10
-196.88017254173431
 20
68.163398059451495
 30
0.0
 11
-200.5756906717794
 21
68.163398059451495
 31
0.0
 12
-200.14214516913
 22
67.514551361808572
 32
0.0
 13
-200.14214516913
 23
67.514551361808572
 33
0.0
210
0.0
220
0.0
230
-1.0
  0
SOLID
  5
5F2
  8
0
  6
CONTINUOUS
 10
-197.9625647420267
 20
67.081005859159106
 30
0.0
 11
-199.49329847148701
 21
67.081005859159106
 31
0.0
 12
-198.7279316067569
 22
66.928764924181678
 32
0.0
 13
-198.7279316067569
 23
66.928764924181678
 33
0.0
210
0.0
220
0.0
230
-1.0
  0
SOLID
  5
5F3
  8
0
  6
CONTINUOUS
 10
197.31371804438379
 20
67.514551361808572
 30
0.0
 11
197.9625647420267
 21
67.081005859159106
 31
0.0
 12
199.49329847148701
 22
67.081005859159106
 32
0.0
 13
199.49329847148701
 23
67.081005859159106
 33
0.0
210
0.0
220
0.0
230
1.0
  0
SOLID
  5
5F4
  8
0
  6
CONTINUOUS
 10
-197.31371804438379
 20
67.514551361808572
 30
0.0
 11
-200.14214516913
 21
67.514551361808572
 31
0.0
 12
-199.49329847148701
 22
67.081005859159106
 32
0.0
 13
-199.49329847148701
 23
67.081005859159106
 33
0.0
210
0.0
220
0.0
230
-1.0
  0
LINE
  5
5F5
  8
0
  6
CONTINUOUS
 10
198.7279316067569
 20
70.92876492418165
 30
0.0
 11
197.9625647420267
 21
70.776523989204222
 31
0.0
  0
LINE
  5
5F6
  8
0
  6
CONTINUOUS
 10
199.49329847148701
 20
70.776523989204222
 30
0.0
 11
198.7279316067569
 21
70.92876492418165
 31
0.0
  0
LINE
  5
5F7
  8
0
  6
CONTINUOUS
 10
197.9625647420267
 20
70.776523989204222
 30
0.0
 11
197.31371804438379
 21
70.342978486554756
 31
0.0
  0
LINE
  5
5F8
  8
0
  6
CONTINUOUS
 10
199.49329847148701
 20
70.776523989204222
 30
0.0
 11
200.14214516913
 21
70.342978486554756
 31
0.0
  0
LINE
  5
5F9
  8
0
  6
CONTINUOUS
 10
197.31371804438379
 20
70.342978486554756
 30
0.0
 11
196.88017254173431
 21
69.694131788911832
 31
0.0
  0
LINE
  5
5FA
  8
0
  6
CONTINUOUS
 10
200.14214516913
 20
70.342978486554756
 30
0.0
 11
200.5756906717794
 21
69.694131788911832
 31
0.0
  0
LINE
  5
5FB
  8
0
  6
CONTINUOUS
 10
196.88017254173431
 20
69.694131788911832
 30
0.0
 11
196.7279316067569
 21
68.928764924181664
 31
0.0
  0
LINE
  5
5FC
  8
0
  6
CONTINUOUS
 10
200.5756906717794
 20
69.694131788911832
 30
0.0
 11
200.7279316067569
 21
68.928764924181664
 31
0.0
  0
LINE
  5
5FD
  8
0
  6
CONTINUOUS
 10
196.7279316067569
 20
68.928764924181664
 30
0.0
 11
196.88017254173431
 21
68.163398059451495
 31
0.0
  0
LINE
  5
5FE
  8
0
  6
CONTINUOUS
 10
200.7279316067569
 20
68.928764924181664
 30
0.0
 11
200.5756906717794
 21
68.163398059451495
 31
0.0
  0
LINE
  5
5FF
  8
0
  6
CONTINUOUS
 10
196.88017254173431
 20
68.163398059451495
 30
0.0
 11
197.31371804438379
 21
67.514551361808572
 31
0.0
  0
LINE
  5
600
  8
0
  6
CONTINUOUS
 10
200.5756906717794
 20
68.163398059451495
 30
0.0
 11
200.14214516913
 21
67.514551361808572
 31
0.0
  0
LINE
  5
601
  8
0
  6
CONTINUOUS
 10
199.49329847148701
 20
67.081005859159106
 30
0.0
 11
198.7279316067569
 21
66.928764924181678
 31
0.0
  0
LINE
  5
602
  8
0
  6
CONTINUOUS
 10
198.7279316067569
 20
66.928764924181678
 30
0.0
 11
197.9625647420267
 21
67.081005859159106
 31
0.0
  0
LINE
  5
603
  8
0
  6
CONTINUOUS
 10
197.31371804438379
 20
67.514551361808572
 30
0.0
 11
197.9625647420267
 21
67.081005859159106
 31
0.0
  0
LINE
  5
604
  8
0
  6
CONTINUOUS
 10
200.14214516913
 20
67.514551361808572
 30
0.0
 11
199.49329847148701
 21
67.081005859159106
 31
0.0
  0
ENDBLK
  5
606
  8
0
  0
BLOCK
  8
0
  2
*U32
 70
     1
 10
0.0
 20
0.0
 30
0.0
  3
*U32
  1

  0
TEXT
  5
608
  8
0
  6
CONTINUOUS
 10
320.88243010840739
 20
131.53104510097791
 30
0.0
 40
9.8353293413173617
  1
Substrate
  7
ARIAL
  0
ENDBLK
  5
60A
  8
0
  0
BLOCK
  8
0
  2
*U33
 70
     1
 10
0.0
 20
0.0
 30
0.0
  3
*U33
  1

  0
SOLID
  5
60C
  8
0
  6
CONTINUOUS
 10
143.91349115220191
 20
109.67536879827441
 30
0.0
 11
143.14812428747169
 21
109.52312786329701
 31
0.0
 12
144.67885801693211
 22
109.52312786329701
 32
0.0
 13
144.67885801693211
 23
109.52312786329701
 33
0.0
210
0.0
220
0.0
230
1.0
  0
SOLID
  5
60D
  8
0
  6
CONTINUOUS
 10
143.14812428747169
 20
109.52312786329701
 30
0.0
 11
142.49927758982881
 21
109.0895823606475
 31
0.0
 12
145.32770471457499
 22
109.0895823606475
 32
0.0
 13
145.32770471457499
 23
109.0895823606475
 33
0.0
210
0.0
220
0.0
230
1.0
  0
SOLID
  5
60E
  8
0
  6
CONTINUOUS
 10
-143.14812428747169
 20
109.52312786329701
 30
0.0
 11
-144.67885801693211
 21
109.52312786329701
 31
0.0
 12
-145.32770471457499
 22
109.0895823606475
 32
0.0
 13
-145.32770471457499
 23
109.0895823606475
 33
0.0
210
0.0
220
0.0
230
-1.0
  0
SOLID
  5
60F
  8
0
  6
CONTINUOUS
 10
142.49927758982881
 20
109.0895823606475
 30
0.0
 11
142.0657320871793
 21
108.4407356630046
 31
0.0
 12
145.7612502172245
 22
108.4407356630046
 32
0.0
 13
145.7612502172245
 23
108.4407356630046
 33
0.0
210
0.0
220
0.0
230
1.0
  0
SOLID
  5
610
  8
0
  6
CONTINUOUS
 10
-142.49927758982881
 20
109.0895823606475
 30
0.0
 11
-145.32770471457499
 21
109.0895823606475
 31
0.0
 12
-145.7612502172245
 22
108.4407356630046
 32
0.0
 13
-145.7612502172245
 23
108.4407356630046
 33
0.0
210
0.0
220
0.0
230
-1.0
  0
SOLID
  5
611
  8
0
  6
CONTINUOUS
 10
142.0657320871793
 20
108.4407356630046
 30
0.0
 11
141.91349115220191
 21
107.6753687982745
 31
0.0
 12
145.91349115220191
 22
107.6753687982745
 32
0.0
 13
145.91349115220191
 23
107.6753687982745
 33
0.0
210
0.0
220
0.0
230
1.0
  0
SOLID
  5
612
  8
0
  6
CONTINUOUS
 10
-142.0657320871793
 20
108.4407356630046
 30
0.0
 11
-145.7612502172245
 21
108.4407356630046
 31
0.0
 12
-145.91349115220191
 22
107.6753687982745
 32
0.0
 13
-145.91349115220191
 23
107.6753687982745
 33
0.0
210
0.0
220
0.0
230
-1.0
  0
SOLID
  5
613
  8
0
  6
CONTINUOUS
 10
141.91349115220191
 20
107.6753687982745
 30
0.0
 11
142.0657320871793
 21
106.91000193354429
 31
0.0
 12
145.7612502172245
 22
106.91000193354429
 32
0.0
 13
145.7612502172245
 23
106.91000193354429
 33
0.0
  0
SOLID
  5
614
  8
0
  6
CONTINUOUS
 10
-141.91349115220191
 20
107.6753687982745
 30
0.0
 11
-145.91349115220191
 21
107.6753687982745
 31
0.0
 12
-145.7612502172245
 22
106.91000193354429
 32
0.0
 13
-145.7612502172245
 23
106.91000193354429
 33
0.0
210
0.0
220
0.0
230
-1.0
  0
SOLID
  5
615
  8
0
  6
CONTINUOUS
 10
142.0657320871793
 20
106.91000193354429
 30
0.0
 11
142.49927758982881
 21
106.2611552359014
 31
0.0
 12
145.32770471457499
 22
106.2611552359014
 32
0.0
 13
145.32770471457499
 23
106.2611552359014
 33
0.0
210
0.0
220
0.0
230
1.0
  0
SOLID
  5
616
  8
0
  6
CONTINUOUS
 10
-142.0657320871793
 20
106.91000193354429
 30
0.0
 11
-145.7612502172245
 21
106.91000193354429
 31
0.0
 12
-145.32770471457499
 22
106.2611552359014
 32
0.0
 13
-145.32770471457499
 23
106.2611552359014
 33
0.0
210
0.0
220
0.0
230
-1.0
  0
SOLID
  5
617
  8
0
  6
CONTINUOUS
 10
-143.14812428747169
 20
105.8276097332519
 30
0.0
 11
-144.67885801693211
 21
105.8276097332519
 31
0.0
 12
-143.91349115220191
 22
105.6753687982745
 32
0.0
 13
-143.91349115220191
 23
105.6753687982745
 33
0.0
210
0.0
220
0.0
230
-1.0
  0
SOLID
  5
618
  8
0
  6
CONTINUOUS
 10
142.49927758982881
 20
106.2611552359014
 30
0.0
 11
143.14812428747169
 21
105.8276097332519
 31
0.0
 12
144.67885801693211
 22
105.8276097332519
 32
0.0
 13
144.67885801693211
 23
105.8276097332519
 33
0.0
210
0.0
220
0.0
230
1.0
  0
SOLID
  5
619
  8
0
  6
CONTINUOUS
 10
-142.49927758982881
 20
106.2611552359014
 30
0.0
 11
-145.32770471457491
 21
106.2611552359014
 31
0.0
 12
-144.67885801693211
 22
105.8276097332519
 32
0.0
 13
-144.67885801693211
 23
105.8276097332519
 33
0.0
210
0.0
220
0.0
230
-1.0
  0
LINE
  5
61A
  8
0
  6
CONTINUOUS
 10
143.91349115220191
 20
109.67536879827441
 30
0.0
 11
143.14812428747169
 21
109.52312786329701
 31
0.0
  0
LINE
  5
61B
  8
0
  6
CONTINUOUS
 10
144.67885801693211
 20
109.52312786329701
 30
0.0
 11
143.91349115220191
 21
109.67536879827441
 31
0.0
  0
LINE
  5
61C
  8
0
  6
CONTINUOUS
 10
143.14812428747169
 20
109.52312786329701
 30
0.0
 11
142.49927758982881
 21
109.0895823606475
 31
0.0
  0
LINE
  5
61D
  8
0
  6
CONTINUOUS
 10
144.67885801693211
 20
109.52312786329701
 30
0.0
 11
145.32770471457499
 21
109.0895823606475
 31
0.0
  0
LINE
  5
61E
  8
0
  6
CONTINUOUS
 10
142.49927758982881
 20
109.0895823606475
 30
0.0
 11
142.0657320871793
 21
108.4407356630046
 31
0.0
  0
LINE
  5
61F
  8
0
  6
CONTINUOUS
 10
145.32770471457499
 20
109.0895823606475
 30
0.0
 11
145.7612502172245
 21
108.4407356630046
 31
0.0
  0
LINE
  5
620
  8
0
  6
CONTINUOUS
 10
142.0657320871793
 20
108.4407356630046
 30
0.0
 11
141.91349115220191
 21
107.6753687982745
 31
0.0
  0
LINE
  5
621
  8
0
  6
CONTINUOUS
 10
145.7612502172245
 20
108.4407356630046
 30
0.0
 11
145.91349115220191
 21
107.6753687982745
 31
0.0
  0
LINE
  5
622
  8
0
  6
CONTINUOUS
 10
141.91349115220191
 20
107.6753687982745
 30
0.0
 11
142.0657320871793
 21
106.91000193354429
 31
0.0
  0
LINE
  5
623
  8
0
  6
CONTINUOUS
 10
145.91349115220191
 20
107.6753687982745
 30
0.0
 11
145.7612502172245
 21
106.91000193354429
 31
0.0
  0
LINE
  5
624
  8
0
  6
CONTINUOUS
 10
142.0657320871793
 20
106.91000193354429
 30
0.0
 11
142.49927758982881
 21
106.2611552359014
 31
0.0
  0
LINE
  5
625
  8
0
  6
CONTINUOUS
 10
145.7612502172245
 20
106.91000193354429
 30
0.0
 11
145.32770471457499
 21
106.2611552359014
 31
0.0
  0
LINE
  5
626
  8
0
  6
CONTINUOUS
 10
144.67885801693211
 20
105.8276097332519
 30
0.0
 11
143.91349115220191
 21
105.6753687982745
 31
0.0
  0
LINE
  5
627
  8
0
  6
CONTINUOUS
 10
143.91349115220191
 20
105.6753687982745
 30
0.0
 11
143.14812428747169
 21
105.8276097332519
 31
0.0
  0
LINE
  5
628
  8
0
  6
CONTINUOUS
 10
142.49927758982881
 20
106.2611552359014
 30
0.0
 11
143.14812428747169
 21
105.8276097332519
 31
0.0
  0
LINE
  5
629
  8
0
  6
CONTINUOUS
 10
145.32770471457491
 20
106.2611552359014
 30
0.0
 11
144.67885801693211
 21
105.8276097332519
 31
0.0
  0
ENDBLK
  5
62B
  8
0
  0
BLOCK
  8
0
  2
*U34
 70
     1
 10
0.0
 20
0.0
 30
0.0
  3
*U34
  1

  0
TEXT
  5
62D
  8
0
  6
CONTINUOUS
 10
321.02719282311341
 20
259.95733480820121
 30
0.0
 40
9.8353293413173617
  1
CF Shingle Panel
  7
ARIAL
  0
ENDBLK
  5
62F
  8
0
  0
BLOCK
  8
0
  2
*U35
 70
     1
 10
0.0
 20
0.0
 30
0.0
  3
*U35
  1

  0
SOLID
  5
631
  8
0
  6
CONTINUOUS
 10
159.54131791644861
 20
103.60864297682529
 30
0.0
 11
158.77595105171841
 21
103.4564020418478
 31
0.0
 12
160.30668478117869
 22
103.4564020418478
 32
0.0
 13
160.30668478117869
 23
103.4564020418478
 33
0.0
210
0.0
220
0.0
230
1.0
  0
SOLID
  5
632
  8
0
  6
CONTINUOUS
 10
158.77595105171841
 20
103.4564020418478
 30
0.0
 11
158.1271043540755
 21
103.0228565391984
 31
0.0
 12
160.95553147882171
 22
103.0228565391984
 32
0.0
 13
160.95553147882171
 23
103.0228565391984
 33
0.0
210
0.0
220
0.0
230
1.0
  0
SOLID
  5
633
  8
0
  6
CONTINUOUS
 10
-158.77595105171841
 20
103.4564020418478
 30
0.0
 11
-160.30668478117869
 21
103.4564020418478
 31
0.0
 12
-160.95553147882171
 22
103.0228565391984
 32
0.0
 13
-160.95553147882171
 23
103.0228565391984
 33
0.0
210
0.0
220
0.0
230
-1.0
  0
SOLID
  5
634
  8
0
  6
CONTINUOUS
 10
158.1271043540755
 20
103.0228565391984
 30
0.0
 11
157.69355885142599
 21
102.37400984155541
 31
0.0
 12
161.38907698147111
 22
102.37400984155541
 32
0.0
 13
161.38907698147111
 23
102.37400984155541
 33
0.0
210
0.0
220
0.0
230
1.0
  0
SOLID
  5
635
  8
0
  6
CONTINUOUS
 10
-158.1271043540755
 20
103.0228565391984
 30
0.0
 11
-160.95553147882171
 21
103.0228565391984
 31
0.0
 12
-161.38907698147111
 22
102.37400984155541
 32
0.0
 13
-161.38907698147111
 23
102.37400984155541
 33
0.0
210
0.0
220
0.0
230
-1.0
  0
SOLID
  5
636
  8
0
  6
CONTINUOUS
 10
157.69355885142599
 20
102.37400984155541
 30
0.0
 11
157.54131791644861
 21
101.60864297682529
 31
0.0
 12
161.54131791644861
 22
101.60864297682529
 32
0.0
 13
161.54131791644861
 23
101.60864297682529
 33
0.0
210
0.0
220
0.0
230
1.0
  0
SOLID
  5
637
  8
0
  6
CONTINUOUS
 10
-157.69355885142599
 20
102.37400984155541
 30
0.0
 11
-161.38907698147111
 21
102.37400984155541
 31
0.0
 12
-161.54131791644861
 22
101.60864297682529
 32
0.0
 13
-161.54131791644861
 23
101.60864297682529
 33
0.0
210
0.0
220
0.0
230
-1.0
  0
SOLID
  5
638
  8
0
  6
CONTINUOUS
 10
157.54131791644861
 20
101.60864297682529
 30
0.0
 11
157.69355885142599
 21
100.8432761120951
 31
0.0
 12
161.38907698147111
 22
100.8432761120951
 32
0.0
 13
161.38907698147111
 23
100.8432761120951
 33
0.0
  0
SOLID
  5
639
  8
0
  6
CONTINUOUS
 10
-157.54131791644861
 20
101.60864297682529
 30
0.0
 11
-161.54131791644861
 21
101.60864297682529
 31
0.0
 12
-161.38907698147111
 22
100.8432761120951
 32
0.0
 13
-161.38907698147111
 23
100.8432761120951
 33
0.0
210
0.0
220
0.0
230
-1.0
  0
SOLID
  5
63A
  8
0
  6
CONTINUOUS
 10
157.69355885142599
 20
100.8432761120951
 30
0.0
 11
158.1271043540755
 21
100.1944294144522
 31
0.0
 12
160.95553147882171
 22
100.1944294144522
 32
0.0
 13
160.95553147882171
 23
100.1944294144522
 33
0.0
210
0.0
220
0.0
230
1.0
  0
SOLID
  5
63B
  8
0
  6
CONTINUOUS
 10
-157.69355885142599
 20
100.8432761120951
 30
0.0
 11
-161.38907698147111
 21
100.8432761120951
 31
0.0
 12
-160.95553147882171
 22
100.1944294144522
 32
0.0
 13
-160.95553147882171
 23
100.1944294144522
 33
0.0
210
0.0
220
0.0
230
-1.0
  0
SOLID
  5
63C
  8
0
  6
CONTINUOUS
 10
-158.77595105171841
 20
99.760883911802765
 30
0.0
 11
-160.30668478117869
 21
99.760883911802765
 31
0.0
 12
-159.54131791644861
 22
99.608642976825337
 32
0.0
 13
-159.54131791644861
 23
99.608642976825337
 33
0.0
210
0.0
220
0.0
230
-1.0
  0
SOLID
  5
63D
  8
0
  6
CONTINUOUS
 10
158.1271043540755
 20
100.1944294144522
 30
0.0
 11
158.77595105171841
 21
99.760883911802765
 31
0.0
 12
160.30668478117869
 22
99.760883911802765
 32
0.0
 13
160.30668478117869
 23
99.760883911802765
 33
0.0
210
0.0
220
0.0
230
1.0
  0
SOLID
  5
63E
  8
0
  6
CONTINUOUS
 10
-158.1271043540755
 20
100.1944294144522
 30
0.0
 11
-160.95553147882171
 21
100.1944294144522
 31
0.0
 12
-160.30668478117869
 22
99.760883911802765
 32
0.0
 13
-160.30668478117869
 23
99.760883911802765
 33
0.0
210
0.0
220
0.0
230
-1.0
  0
LINE
  5
63F
  8
0
  6
CONTINUOUS
 10
159.54131791644861
 20
103.60864297682529
 30
0.0
 11
158.77595105171841
 21
103.4564020418478
 31
0.0
  0
LINE
  5
640
  8
0
  6
CONTINUOUS
 10
160.30668478117869
 20
103.4564020418478
 30
0.0
 11
159.54131791644861
 21
103.60864297682529
 31
0.0
  0
LINE
  5
641
  8
0
  6
CONTINUOUS
 10
158.77595105171841
 20
103.4564020418478
 30
0.0
 11
158.1271043540755
 21
103.0228565391984
 31
0.0
  0
LINE
  5
642
  8
0
  6
CONTINUOUS
 10
160.30668478117869
 20
103.4564020418478
 30
0.0
 11
160.95553147882171
 21
103.0228565391984
 31
0.0
  0
LINE
  5
643
  8
0
  6
CONTINUOUS
 10
158.1271043540755
 20
103.0228565391984
 30
0.0
 11
157.69355885142599
 21
102.37400984155541
 31
0.0
  0
LINE
  5
644
  8
0
  6
CONTINUOUS
 10
160.95553147882171
 20
103.0228565391984
 30
0.0
 11
161.38907698147111
 21
102.37400984155541
 31
0.0
  0
LINE
  5
645
  8
0
  6
CONTINUOUS
 10
157.69355885142599
 20
102.37400984155541
 30
0.0
 11
157.54131791644861
 21
101.60864297682529
 31
0.0
  0
LINE
  5
646
  8
0
  6
CONTINUOUS
 10
161.38907698147111
 20
102.37400984155541
 30
0.0
 11
161.54131791644861
 21
101.60864297682529
 31
0.0
  0
LINE
  5
647
  8
0
  6
CONTINUOUS
 10
157.54131791644861
 20
101.60864297682529
 30
0.0
 11
157.69355885142599
 21
100.8432761120951
 31
0.0
  0
LINE
  5
648
  8
0
  6
CONTINUOUS
 10
161.54131791644861
 20
101.60864297682529
 30
0.0
 11
161.38907698147111
 21
100.8432761120951
 31
0.0
  0
LINE
  5
649
  8
0
  6
CONTINUOUS
 10
157.69355885142599
 20
100.8432761120951
 30
0.0
 11
158.1271043540755
 21
100.1944294144522
 31
0.0
  0
LINE
  5
64A
  8
0
  6
CONTINUOUS
 10
161.38907698147111
 20
100.8432761120951
 30
0.0
 11
160.95553147882171
 21
100.1944294144522
 31
0.0
  0
LINE
  5
64B
  8
0
  6
CONTINUOUS
 10
160.30668478117869
 20
99.760883911802765
 30
0.0
 11
159.54131791644861
 21
99.608642976825337
 31
0.0
  0
LINE
  5
64C
  8
0
  6
CONTINUOUS
 10
159.54131791644861
 20
99.608642976825337
 30
0.0
 11
158.77595105171841
 21
99.760883911802765
 31
0.0
  0
LINE
  5
64D
  8
0
  6
CONTINUOUS
 10
158.1271043540755
 20
100.1944294144522
 30
0.0
 11
158.77595105171841
 21
99.760883911802765
 31
0.0
  0
LINE
  5
64E
  8
0
  6
CONTINUOUS
 10
160.95553147882171
 20
100.1944294144522
 30
0.0
 11
160.30668478117869
 21
99.760883911802765
 31
0.0
  0
ENDBLK
  5
650
  8
0
  0
BLOCK
  8
0
  2
*U36
 70
     1
 10
0.0
 20
0.0
 30
0.0
  3
*U36
  1

  0
TEXT
  5
652
  8
0
  6
CONTINUOUS
 10
320.45305693116018
 20
207.30841436112331
 30
0.0
 40
9.8353293413173617
  1
Nails/Staples inside bitumen
  7
ARIAL
  0
TEXT
  5
653
  8
0
  6
CONTINUOUS
 10
321.37218388870491
 20
191.9237989765079
 30
0.0
 40
9.8353293413173617
  1
foam
  7
ARIAL
  0
ENDBLK
  5
655
  8
0
  0
BLOCK
  8
0
  2
*U37
 70
     1
 10
0.0
 20
0.0
 30
0.0
  3
*U37
  1

  0
SOLID
  5
657
  8
0
  6
CONTINUOUS
 10
300.09574461265782
 20
39.240464093000568
 30
0.0
 11
299.33037774792763
 21
39.088223158023148
 31
0.0
 12
300.86111147738802
 22
39.088223158023148
 32
0.0
 13
300.86111147738802
 23
39.088223158023148
 33
0.0
210
0.0
220
0.0
230
1.0
  0
SOLID
  5
658
  8
0
  6
CONTINUOUS
 10
299.33037774792763
 20
39.088223158023148
 30
0.0
 11
298.68153105028472
 21
38.654677655373668
 31
0.0
 12
301.50995817503087
 22
38.654677655373668
 32
0.0
 13
301.50995817503087
 23
38.654677655373668
 33
0.0
210
0.0
220
0.0
230
1.0
  0
SOLID
  5
659
  8
0
  6
CONTINUOUS
 10
-299.33037774792763
 20
39.088223158023148
 30
0.0
 11
-300.86111147738802
 21
39.088223158023148
 31
0.0
 12
-301.50995817503087
 22
38.654677655373668
 32
0.0
 13
-301.50995817503087
 23
38.654677655373668
 33
0.0
210
0.0
220
0.0
230
-1.0
  0
SOLID
  5
65A
  8
0
  6
CONTINUOUS
 10
298.68153105028472
 20
38.654677655373668
 30
0.0
 11
298.24798554763521
 21
38.005830957730758
 31
0.0
 12
301.94350367768038
 22
38.005830957730758
 32
0.0
 13
301.94350367768038
 23
38.005830957730758
 33
0.0
210
0.0
220
0.0
230
1.0
  0
SOLID
  5
65B
  8
0
  6
CONTINUOUS
 10
-298.68153105028472
 20
38.654677655373668
 30
0.0
 11
-301.50995817503087
 21
38.654677655373668
 31
0.0
 12
-301.94350367768038
 22
38.005830957730758
 32
0.0
 13
-301.94350367768038
 23
38.005830957730758
 33
0.0
210
0.0
220
0.0
230
-1.0
  0
SOLID
  5
65C
  8
0
  6
CONTINUOUS
 10
298.24798554763521
 20
38.005830957730758
 30
0.0
 11
298.09574461265782
 21
37.240464093000583
 31
0.0
 12
302.09574461265782
 22
37.240464093000583
 32
0.0
 13
302.09574461265782
 23
37.240464093000583
 33
0.0
210
0.0
220
0.0
230
1.0
  0
SOLID
  5
65D
  8
0
  6
CONTINUOUS
 10
-298.24798554763521
 20
38.005830957730758
 30
0.0
 11
-301.94350367768038
 21
38.005830957730758
 31
0.0
 12
-302.09574461265782
 22
37.240464093000583
 32
0.0
 13
-302.09574461265782
 23
37.240464093000583
 33
0.0
210
0.0
220
0.0
230
-1.0
  0
SOLID
  5
65E
  8
0
  6
CONTINUOUS
 10
298.09574461265782
 20
37.240464093000583
 30
0.0
 11
298.24798554763521
 21
36.475097228270393
 31
0.0
 12
301.94350367768038
 22
36.475097228270393
 32
0.0
 13
301.94350367768038
 23
36.475097228270393
 33
0.0
210
0.0
220
0.0
230
1.0
  0
SOLID
  5
65F
  8
0
  6
CONTINUOUS
 10
-298.09574461265782
 20
37.240464093000583
 30
0.0
 11
-302.09574461265782
 21
37.240464093000583
 31
0.0
 12
-301.94350367768038
 22
36.475097228270393
 32
0.0
 13
-301.94350367768038
 23
36.475097228270393
 33
0.0
210
0.0
220
0.0
230
-1.0
  0
SOLID
  5
660
  8
0
  6
CONTINUOUS
 10
298.24798554763521
 20
36.475097228270393
 30
0.0
 11
298.68153105028472
 21
35.826250530627483
 31
0.0
 12
301.50995817503087
 22
35.826250530627483
 32
0.0
 13
301.50995817503087
 23
35.826250530627483
 33
0.0
210
0.0
220
0.0
230
1.0
  0
SOLID
  5
661
  8
0
  6
CONTINUOUS
 10
-298.24798554763521
 20
36.475097228270393
 30
0.0
 11
-301.94350367768038
 21
36.475097228270393
 31
0.0
 12
-301.50995817503087
 22
35.826250530627483
 32
0.0
 13
-301.50995817503087
 23
35.826250530627483
 33
0.0
210
0.0
220
0.0
230
-1.0
  0
SOLID
  5
662
  8
0
  6
CONTINUOUS
 10
-299.33037774792763
 20
35.392705027978003
 30
0.0
 11
-300.86111147738802
 21
35.392705027978003
 31
0.0
 12
-300.09574461265782
 22
35.240464093000583
 32
0.0
 13
-300.09574461265782
 23
35.240464093000583
 33
0.0
210
0.0
220
0.0
230
-1.0
  0
SOLID
  5
663
  8
0
  6
CONTINUOUS
 10
298.68153105028472
 20
35.826250530627483
 30
0.0
 11
299.33037774792763
 21
35.392705027978003
 31
0.0
 12
300.86111147738802
 22
35.392705027978003
 32
0.0
 13
300.86111147738802
 23
35.392705027978003
 33
0.0
210
0.0
220
0.0
230
1.0
  0
SOLID
  5
664
  8
0
  6
CONTINUOUS
 10
-298.68153105028472
 20
35.826250530627483
 30
0.0
 11
-301.50995817503087
 21
35.826250530627483
 31
0.0
 12
-300.86111147738802
 22
35.392705027978003
 32
0.0
 13
-300.86111147738802
 23
35.392705027978003
 33
0.0
210
0.0
220
0.0
230
-1.0
  0
LINE
  5
665
  8
0
  6
CONTINUOUS
 10
300.09574461265782
 20
39.240464093000568
 30
0.0
 11
299.33037774792763
 21
39.088223158023148
 31
0.0
  0
LINE
  5
666
  8
0
  6
CONTINUOUS
 10
300.86111147738802
 20
39.088223158023148
 30
0.0
 11
300.09574461265782
 21
39.240464093000568
 31
0.0
  0
LINE
  5
667
  8
0
  6
CONTINUOUS
 10
299.33037774792763
 20
39.088223158023148
 30
0.0
 11
298.68153105028472
 21
38.654677655373668
 31
0.0
  0
LINE
  5
668
  8
0
  6
CONTINUOUS
 10
300.86111147738802
 20
39.088223158023148
 30
0.0
 11
301.50995817503087
 21
38.654677655373668
 31
0.0
  0
LINE
  5
669
  8
0
  6
CONTINUOUS
 10
298.68153105028472
 20
38.654677655373668
 30
0.0
 11
298.24798554763521
 21
38.005830957730758
 31
0.0
  0
LINE
  5
66A
  8
0
  6
CONTINUOUS
 10
301.50995817503087
 20
38.654677655373668
 30
0.0
 11
301.94350367768038
 21
38.005830957730758
 31
0.0
  0
LINE
  5
66B
  8
0
  6
CONTINUOUS
 10
298.24798554763521
 20
38.005830957730758
 30
0.0
 11
298.09574461265782
 21
37.240464093000583
 31
0.0
  0
LINE
  5
66C
  8
0
  6
CONTINUOUS
 10
301.94350367768038
 20
38.005830957730758
 30
0.0
 11
302.09574461265782
 21
37.240464093000583
 31
0.0
  0
LINE
  5
66D
  8
0
  6
CONTINUOUS
 10
298.09574461265782
 20
37.240464093000583
 30
0.0
 11
298.24798554763521
 21
36.475097228270393
 31
0.0
  0
LINE
  5
66E
  8
0
  6
CONTINUOUS
 10
302.09574461265782
 20
37.240464093000583
 30
0.0
 11
301.94350367768038
 21
36.475097228270393
 31
0.0
  0
LINE
  5
66F
  8
0
  6
CONTINUOUS
 10
298.24798554763521
 20
36.475097228270393
 30
0.0
 11
298.68153105028472
 21
35.826250530627483
 31
0.0
  0
LINE
  5
670
  8
0
  6
CONTINUOUS
 10
301.94350367768038
 20
36.475097228270393
 30
0.0
 11
301.50995817503087
 21
35.826250530627483
 31
0.0
  0
LINE
  5
671
  8
0
  6
CONTINUOUS
 10
300.86111147738802
 20
35.392705027978003
 30
0.0
 11
300.09574461265782
 21
35.240464093000583
 31
0.0
  0
LINE
  5
672
  8
0
  6
CONTINUOUS
 10
300.09574461265782
 20
35.240464093000583
 30
0.0
 11
299.33037774792763
 21
35.392705027978003
 31
0.0
  0
LINE
  5
673
  8
0
  6
CONTINUOUS
 10
298.68153105028472
 20
35.826250530627483
 30
0.0
 11
299.33037774792763
 21
35.392705027978003
 31
0.0
  0
LINE
  5
674
  8
0
  6
CONTINUOUS
 10
301.50995817503087
 20
35.826250530627483
 30
0.0
 11
300.86111147738802
 21
35.392705027978003
 31
0.0
  0
ENDBLK
  5
676
  8
0
  0
BLOCK
  8
0
  2
*U38
 70
     1
 10
0.0
 20
0.0
 30
0.0
  3
*U38
  1

  0
TEXT
  5
678
  8
0
  6
CONTINUOUS
 10
385.17212387037171
 20
86.611952139344808
 30
0.0
 40
9.8353293413173617
  1
Breather underlay over
  7
ARIAL
  0
TEXT
  5
679
  8
0
  6
CONTINUOUS
 10
385.2727582087889
 20
71.227336754729436
 30
0.0
 40
9.8353293413173617
  1
plywood
  7
ARIAL
  0
ENDBLK
  5
67B
  8
0
  0
BLOCK
  8
0
  2
*U39
 70
     1
 10
0.0
 20
0.0
 30
0.0
  3
*U39
  1

  0
SOLID
  5
67D
  8
0
  6
CONTINUOUS
 10
-192.10519320626361
 20
90.584335293311284
 30
0.0
 11
-192.8705600709938
 21
90.432094358333856
 31
0.0
 12
-191.33982634153341
 22
90.432094358333856
 32
0.0
 13
-191.33982634153341
 23
90.432094358333856
 33
0.0
210
0.0
220
0.0
230
1.0
  0
SOLID
  5
67E
  8
0
  6
CONTINUOUS
 10
-192.8705600709938
 20
90.432094358333856
 30
0.0
 11
-193.51940676863671
 21
89.998548855684376
 31
0.0
 12
-190.6909796438905
 22
89.998548855684376
 32
0.0
 13
-190.6909796438905
 23
89.998548855684376
 33
0.0
210
0.0
220
0.0
230
1.0
  0
SOLID
  5
67F
  8
0
  6
CONTINUOUS
 10
192.8705600709938
 20
90.432094358333856
 30
0.0
 11
191.33982634153341
 21
90.432094358333856
 31
0.0
 12
190.6909796438905
 22
89.998548855684376
 32
0.0
 13
190.6909796438905
 23
89.998548855684376
 33
0.0
210
0.0
220
0.0
230
-1.0
  0
SOLID
  5
680
  8
0
  6
CONTINUOUS
 10
-193.51940676863671
 20
89.998548855684376
 30
0.0
 11
-193.95295227128619
 21
89.349702158041467
 31
0.0
 12
-190.25743414124099
 22
89.349702158041467
 32
0.0
 13
-190.25743414124099
 23
89.349702158041467
 33
0.0
  0
SOLID
  5
681
  8
0
  6
CONTINUOUS
 10
193.51940676863671
 20
89.998548855684376
 30
0.0
 11
190.6909796438905
 21
89.998548855684376
 31
0.0
 12
190.25743414124099
 22
89.349702158041467
 32
0.0
 13
190.25743414124099
 23
89.349702158041467
 33
0.0
210
0.0
220
0.0
230
-1.0
  0
SOLID
  5
682
  8
0
  6
CONTINUOUS
 10
-193.95295227128619
 20
89.349702158041467
 30
0.0
 11
-194.10519320626361
 21
88.584335293311284
 31
0.0
 12
-190.10519320626361
 22
88.584335293311284
 32
0.0
 13
-190.10519320626361
 23
88.584335293311284
 33
0.0
210
0.0
220
0.0
230
1.0
  0
SOLID
  5
683
  8
0
  6
CONTINUOUS
 10
193.95295227128619
 20
89.349702158041467
 30
0.0
 11
190.25743414124099
 21
89.349702158041467
 31
0.0
 12
190.10519320626361
 22
88.584335293311284
 32
0.0
 13
190.10519320626361
 23
88.584335293311284
 33
0.0
210
0.0
220
0.0
230
-1.0
  0
SOLID
  5
684
  8
0
  6
CONTINUOUS
 10
-194.10519320626361
 20
88.584335293311284
 30
0.0
 11
-193.95295227128619
 21
87.818968428581101
 31
0.0
 12
-190.25743414124099
 22
87.818968428581101
 32
0.0
 13
-190.25743414124099
 23
87.818968428581101
 33
0.0
210
0.0
220
0.0
230
1.0
  0
SOLID
  5
685
  8
0
  6
CONTINUOUS
 10
194.10519320626361
 20
88.584335293311284
 30
0.0
 11
190.10519320626361
 21
88.584335293311284
 31
0.0
 12
190.25743414124099
 22
87.818968428581101
 32
0.0
 13
190.25743414124099
 23
87.818968428581101
 33
0.0
210
0.0
220
0.0
230
-1.0
  0
SOLID
  5
686
  8
0
  6
CONTINUOUS
 10
-193.95295227128619
 20
87.818968428581101
 30
0.0
 11
-193.51940676863671
 21
87.170121730938178
 31
0.0
 12
-190.6909796438905
 22
87.170121730938178
 32
0.0
 13
-190.6909796438905
 23
87.170121730938178
 33
0.0
210
0.0
220
0.0
230
1.0
  0
SOLID
  5
687
  8
0
  6
CONTINUOUS
 10
193.95295227128619
 20
87.818968428581101
 30
0.0
 11
190.25743414124099
 21
87.818968428581101
 31
0.0
 12
190.6909796438905
 22
87.170121730938178
 32
0.0
 13
190.6909796438905
 23
87.170121730938178
 33
0.0
210
0.0
220
0.0
230
-1.0
  0
SOLID
  5
688
  8
0
  6
CONTINUOUS
 10
192.8705600709938
 20
86.736576228288712
 30
0.0
 11
191.33982634153341
 21
86.736576228288712
 31
0.0
 12
192.10519320626361
 22
86.584335293311284
 32
0.0
 13
192.10519320626361
 23
86.584335293311284
 33
0.0
210
0.0
220
0.0
230
-1.0
  0
SOLID
  5
689
  8
0
  6
CONTINUOUS
 10
-193.51940676863671
 20
87.170121730938178
 30
0.0
 11
-192.8705600709938
 21
86.736576228288712
 31
0.0
 12
-191.33982634153341
 22
86.736576228288712
 32
0.0
 13
-191.33982634153341
 23
86.736576228288712
 33
0.0
210
0.0
220
0.0
230
1.0
  0
SOLID
  5
68A
  8
0
  6
CONTINUOUS
 10
193.51940676863671
 20
87.170121730938178
 30
0.0
 11
190.6909796438905
 21
87.170121730938178
 31
0.0
 12
191.33982634153341
 22
86.736576228288712
 32
0.0
 13
191.33982634153341
 23
86.736576228288712
 33
0.0
210
0.0
220
0.0
230
-1.0
  0
LINE
  5
68B
  8
0
  6
CONTINUOUS
 10
-192.10519320626361
 20
90.584335293311284
 30
0.0
 11
-192.8705600709938
 21
90.432094358333856
 31
0.0
  0
LINE
  5
68C
  8
0
  6
CONTINUOUS
 10
-191.33982634153341
 20
90.432094358333856
 30
0.0
 11
-192.10519320626361
 21
90.584335293311284
 31
0.0
  0
LINE
  5
68D
  8
0
  6
CONTINUOUS
 10
-192.8705600709938
 20
90.432094358333856
 30
0.0
 11
-193.51940676863671
 21
89.998548855684376
 31
0.0
  0
LINE
  5
68E
  8
0
  6
CONTINUOUS
 10
-191.33982634153341
 20
90.432094358333856
 30
0.0
 11
-190.6909796438905
 21
89.998548855684376
 31
0.0
  0
LINE
  5
68F
  8
0
  6
CONTINUOUS
 10
-193.51940676863671
 20
89.998548855684376
 30
0.0
 11
-193.95295227128619
 21
89.349702158041467
 31
0.0
  0
LINE
  5
690
  8
0
  6
CONTINUOUS
 10
-190.6909796438905
 20
89.998548855684376
 30
0.0
 11
-190.25743414124099
 21
89.349702158041467
 31
0.0
  0
LINE
  5
691
  8
0
  6
CONTINUOUS
 10
-193.95295227128619
 20
89.349702158041467
 30
0.0
 11
-194.10519320626361
 21
88.584335293311284
 31
0.0
  0
LINE
  5
692
  8
0
  6
CONTINUOUS
 10
-190.25743414124099
 20
89.349702158041467
 30
0.0
 11
-190.10519320626361
 21
88.584335293311284
 31
0.0
  0
LINE
  5
693
  8
0
  6
CONTINUOUS
 10
-194.10519320626361
 20
88.584335293311284
 30
0.0
 11
-193.95295227128619
 21
87.818968428581101
 31
0.0
  0
LINE
  5
694
  8
0
  6
CONTINUOUS
 10
-190.10519320626361
 20
88.584335293311284
 30
0.0
 11
-190.25743414124099
 21
87.818968428581101
 31
0.0
  0
LINE
  5
695
  8
0
  6
CONTINUOUS
 10
-193.95295227128619
 20
87.818968428581101
 30
0.0
 11
-193.51940676863671
 21
87.170121730938178
 31
0.0
  0
LINE
  5
696
  8
0
  6
CONTINUOUS
 10
-190.25743414124099
 20
87.818968428581101
 30
0.0
 11
-190.6909796438905
 21
87.170121730938178
 31
0.0
  0
LINE
  5
697
  8
0
  6
CONTINUOUS
 10
-191.33982634153341
 20
86.736576228288712
 30
0.0
 11
-192.10519320626361
 21
86.584335293311284
 31
0.0
  0
LINE
  5
698
  8
0
  6
CONTINUOUS
 10
-192.10519320626361
 20
86.584335293311284
 30
0.0
 11
-192.8705600709938
 21
86.736576228288712
 31
0.0
  0
LINE
  5
699
  8
0
  6
CONTINUOUS
 10
-193.51940676863671
 20
87.170121730938178
 30
0.0
 11
-192.8705600709938
 21
86.736576228288712
 31
0.0
  0
LINE
  5
69A
  8
0
  6
CONTINUOUS
 10
-190.6909796438905
 20
87.170121730938178
 30
0.0
 11
-191.33982634153341
 21
86.736576228288712
 31
0.0
  0
ENDBLK
  5
69C
  8
0
  0
BLOCK
  8
0
  2
*U40
 70
     1
 10
0.0
 20
0.0
 30
0.0
  3
*U40
  1

  0
TEXT
  5
69E
  8
0
  6
CONTINUOUS
 10
-431.82757097619128
 20
139.5701181227935
 30
0.0
 40
9.8353293413173617
  1
CF Shingle lapped together
  7
ARIAL
  0
ENDBLK
  5
6A0
  8
0
  0
ENDSEC
  0
SECTION
  2
ENTITIES
  0
LINE
  5
11F
  8
0
 10
0.0000000000012098
 20
120.1677772475895
 30
0.0
 11
0.0000000000011509
 21
83.75
 31
0.0
1001
REVIT
1002
{
1070
     1
1000
757107
1002
}
1002
{
1070
     2
1000
-2000051
1002
}
1002
{
1070
     3
1000
-2000042
1002
}
  0
LINE
  5
120
  8
0
 10
0.000000000001054
 20
23.750000000000028
 30
0.0
 11
0.0000000000010378
 21
13.750000000000091
 31
0.0
1001
REVIT
1002
{
1070
     1
1000
757107
1002
}
1002
{
1070
     2
1000
-2000051
1002
}
1002
{
1070
     3
1000
-2000042
1002
}
  0
CIRCLE
  5
224
  8
0
 10
16.449667196628649
 20
167.3982697971237
 30
0.0
 40
1.999999999999996
1001
REVIT
1002
{
1070
     1
1000
757091
1002
}
1002
{
1070
     5
1000
233013
1002
}
1002
{
1070
     2
1000
-2005028
1002
}
  0
INSERT
  5
225
  8
0
  6
CONTINUOUS
  2
*U27
 10
0.0
 20
0.0
 30
0.0
1001
REVIT
1002
{
1070
     1
1000
757091
1002
}
1002
{
1070
     5
1000
233013
1002
}
1002
{
1070
     2
1000
-2005028
1002
}
1001
ACAD
1002
{
1000
R14_HATCH_DATA
1000
225
1011
1.0
1021
0.0
1031
0.0
1021
0.0
1031
0.0
1011
0.0
1021
0.0
1031
0.0
1021
1.0
1031
0.0
1011
0.0
1021
0.0
1031
0.0
1021
0.0
1031
1.0
1040
0.0
1010
0.0
1020
0.0
1030
1.0
1000
SOLID
1070
     1
1070
     0
1071
        1
1071
        0
1071
        1
1070
     2
1040
16.449667196628649
1040
167.3982697971237
1040
1.999999999999996
1040
0.0
1040
6.2831853071795862
1070
     1
1071
        0
1070
     0
1070
     1
1071
        1
1040
0.0
1040
0.0
1040
0.0
1002
}
  0
LINE
  5
226
  8
0
 10
153.9392967566535
 20
355.6361752310321
 30
0.0
 11
319.60654744709927
 21
355.6361752310321
 31
0.0
1001
REVIT
1002
{
1070
     1
1000
757091
1002
}
1002
{
1070
     5
1000
233013
1002
}
1002
{
1070
     2
1000
-2005028
1002
}
  0
LINE
  5
227
  8
0
 10
16.449667196628649
 20
167.3982697971237
 30
0.0
 11
153.9392967566535
 21
355.6361752310321
 31
0.0
1001
REVIT
1002
{
1070
     1
1000
757091
1002
}
1002
{
1070
     5
1000
233013
1002
}
1002
{
1070
     2
1000
-2005028
1002
}
  0
INSERT
  5
229
  8
0
  6
CONTINUOUS
  2
*U28
 10
0.0
 20
0.0
 30
0.0
  0
CIRCLE
  5
22A
  8
0
 10
66.979319876752072
 20
136.09463497106
 30
0.0
 40
1.999999999999998
1001
REVIT
1002
{
1070
     1
1000
757092
1002
}
1002
{
1070
     5
1000
233013
1002
}
1002
{
1070
     2
1000
-2005028
1002
}
  0
INSERT
  5
22B
  8
0
  6
CONTINUOUS
  2
*U29
 10
0.0
 20
0.0
 30
0.0
1001
REVIT
1002
{
1070
     1
1000
757092
1002
}
1002
{
1070
     5
1000
233013
1002
}
1002
{
1070
     2
1000
-2005028
1002
}
1001
ACAD
1002
{
1000
R14_HATCH_DATA
1000
22B
1011
1.0
1021
0.0
1031
0.0
1021
0.0
1031
0.0
1011
0.0
1021
0.0
1031
0.0
1021
1.0
1031
0.0
1011
0.0
1021
0.0
1031
0.0
1021
0.0
1031
1.0
1040
0.0
1010
0.0
1020
0.0
1030
1.0
1000
SOLID
1070
     1
1070
     0
1071
        1
1071
        0
1071
        1
1070
     2
1040
66.979319876752072
1040
136.09463497106
1040
1.999999999999998
1040
0.0
1040
6.2831853071795862
1070
     1
1071
        0
1070
     0
1070
     1
1071
        1
1040
0.0
1040
0.0
1040
0.0
1002
}
  0
LINE
  5
22C
  8
0
 10
180.11268731459339
 20
307.38766844029311
 30
0.0
 11
319.60654744709939
 21
307.38766844029311
 31
0.0
1001
REVIT
1002
{
1070
     1
1000
757092
1002
}
1002
{
1070
     5
1000
233013
1002
}
1002
{
1070
     2
1000
-2005028
1002
}
  0
LINE
  5
22D
  8
0
 10
66.979319876752072
 20
136.09463497106
 30
0.0
 11
180.11268731459339
 21
307.38766844029311
 31
0.0
1001
REVIT
1002
{
1070
     1
1000
757092
1002
}
1002
{
1070
     5
1000
233013
1002
}
1002
{
1070
     2
1000
-2005028
1002
}
  0
INSERT
  5
22E
  8
0
  6
CONTINUOUS
  2
*U30
 10
0.0
 20
0.0
 30
0.0
  0
CIRCLE
  5
22F
  8
0
 10
198.7279316067569
 20
68.928764924181664
 30
0.0
 40
1.9999999999999889
1001
REVIT
1002
{
1070
     1
1000
757093
1002
}
1002
{
1070
     5
1000
233013
1002
}
1002
{
1070
     2
1000
-2005028
1002
}
  0
INSERT
  5
230
  8
0
  6
CONTINUOUS
  2
*U31
 10
0.0
 20
0.0
 30
0.0
1001
REVIT
1002
{
1070
     1
1000
757093
1002
}
1002
{
1070
     5
1000
233013
1002
}
1002
{
1070
     2
1000
-2005028
1002
}
1001
ACAD
1002
{
1000
R14_HATCH_DATA
1000
230
1011
1.0
1021
0.0
1031
0.0
1021
0.0
1031
0.0
1011
0.0
1021
0.0
1031
0.0
1021
1.0
1031
0.0
1011
0.0
1021
0.0
1031
0.0
1021
0.0
1031
1.0
1040
0.0
1010
0.0
1020
0.0
1030
1.0
1000
SOLID
1070
     1
1070
     0
1071
        1
1071
        0
1071
        1
1070
     2
1040
198.7279316067569
1040
68.928764924181664
1040
1.9999999999999889
1040
0.0
1040
6.2831853071795862
1070
     1
1071
        0
1070
     0
1070
     1
1071
        1
1040
0.0
1040
0.0
1040
0.0
1002
}
  0
LINE
  5
231
  8
0
 10
254.32425916414891
 20
136.0695066394394
 30
0.0
 11
319.60654744709927
 21
136.0695066394394
 31
0.0
1001
REVIT
1002
{
1070
     1
1000
757093
1002
}
1002
{
1070
     5
1000
233013
1002
}
1002
{
1070
     2
1000
-2005028
1002
}
  0
LINE
  5
232
  8
0
 10
198.7279316067569
 20
68.928764924181664
 30
0.0
 11
254.32425916414891
 21
136.0695066394394
 31
0.0
1001
REVIT
1002
{
1070
     1
1000
757093
1002
}
1002
{
1070
     5
1000
233013
1002
}
1002
{
1070
     2
1000
-2005028
1002
}
  0
INSERT
  5
233
  8
0
  6
CONTINUOUS
  2
*U32
 10
0.0
 20
0.0
 30
0.0
  0
CIRCLE
  5
234
  8
0
 10
143.91349115220191
 20
107.6753687982745
 30
0.0
 40
1.9999999999999849
1001
REVIT
1002
{
1070
     1
1000
757094
1002
}
1002
{
1070
     5
1000
233013
1002
}
1002
{
1070
     2
1000
-2005028
1002
}
  0
INSERT
  5
235
  8
0
  6
CONTINUOUS
  2
*U33
 10
0.0
 20
0.0
 30
0.0
1001
REVIT
1002
{
1070
     1
1000
757094
1002
}
1002
{
1070
     5
1000
233013
1002
}
1002
{
1070
     2
1000
-2005028
1002
}
1001
ACAD
1002
{
1000
R14_HATCH_DATA
1000
235
1011
1.0
1021
0.0
1031
0.0
1021
0.0
1031
0.0
1011
0.0
1021
0.0
1031
0.0
1021
1.0
1031
0.0
1011
0.0
1021
0.0
1031
0.0
1021
0.0
1031
1.0
1040
0.0
1010
0.0
1020
0.0
1030
1.0
1000
SOLID
1070
     1
1070
     0
1071
        1
1071
        0
1071
        1
1070
     2
1040
143.91349115220191
1040
107.6753687982745
1040
1.9999999999999849
1040
0.0
1040
6.2831853071795862
1070
     1
1071
        0
1070
     0
1070
     1
1071
        1
1040
0.0
1040
0.0
1040
0.0
1002
}
  0
LINE
  5
236
  8
0
 10
212.0498614766561
 20
264.50183841408079
 30
0.0
 11
319.81839972075028
 21
264.4957963466627
 31
0.0
1001
REVIT
1002
{
1070
     1
1000
757094
1002
}
1002
{
1070
     5
1000
233013
1002
}
1002
{
1070
     2
1000
-2005028
1002
}
  0
LINE
  5
237
  8
0
 10
143.91349115220191
 20
107.6753687982745
 30
0.0
 11
212.0498614766561
 21
264.50183841408079
 31
0.0
1001
REVIT
1002
{
1070
     1
1000
757094
1002
}
1002
{
1070
     5
1000
233013
1002
}
1002
{
1070
     2
1000
-2005028
1002
}
  0
INSERT
  5
238
  8
0
  6
CONTINUOUS
  2
*U34
 10
0.0
 20
0.0
 30
0.0
  0
CIRCLE
  5
239
  8
0
 10
159.54131791644861
 20
101.60864297682529
 30
0.0
 40
1.999999999999974
1001
REVIT
1002
{
1070
     1
1000
757095
1002
}
1002
{
1070
     5
1000
233011
1002
}
1002
{
1070
     2
1000
-2005028
1002
}
  0
INSERT
  5
23A
  8
0
  6
CONTINUOUS
  2
*U35
 10
0.0
 20
0.0
 30
0.0
1001
REVIT
1002
{
1070
     1
1000
757095
1002
}
1002
{
1070
     5
1000
233011
1002
}
1002
{
1070
     2
1000
-2005028
1002
}
1001
ACAD
1002
{
1000
R14_HATCH_DATA
1000
23A
1011
1.0
1021
0.0
1031
0.0
1021
0.0
1031
0.0
1011
0.0
1021
0.0
1031
0.0
1021
1.0
1031
0.0
1011
0.0
1021
0.0
1031
0.0
1021
0.0
1031
1.0
1040
0.0
1010
0.0
1020
0.0
1030
1.0
1000
SOLID
1070
     1
1070
     0
1071
        1
1071
        0
1071
        1
1070
     2
1040
159.54131791644861
1040
101.60864297682529
1040
1.999999999999974
1040
0.0
1040
6.2831853071795862
1070
     1
1071
        0
1070
     0
1070
     1
1071
        1
1040
0.0
1040
0.0
1040
0.0
1002
}
  0
LINE
  5
23B
  8
0
 10
235.495125658642
 20
203.9237989765079
 30
0.0
 11
319.60654744709927
 21
203.9237989765079
 31
0.0
1001
REVIT
1002
{
1070
     1
1000
757095
1002
}
1002
{
1070
     5
1000
233011
1002
}
1002
{
1070
     2
1000
-2005028
1002
}
  0
LINE
  5
23C
  8
0
 10
159.54131791644861
 20
101.60864297682529
 30
0.0
 11
235.495125658642
 21
203.9237989765079
 31
0.0
1001
REVIT
1002
{
1070
     1
1000
757095
1002
}
1002
{
1070
     5
1000
233011
1002
}
1002
{
1070
     2
1000
-2005028
1002
}
  0
INSERT
  5
23D
  8
0
  6
CONTINUOUS
  2
*U36
 10
0.0
 20
0.0
 30
0.0
  0
CIRCLE
  5
23E
  8
0
 10
300.09574461265782
 20
37.240464093000583
 30
0.0
 40
2.0
1001
REVIT
1002
{
1070
     1
1000
757106
1002
}
1002
{
1070
     5
1000
233011
1002
}
1002
{
1070
     2
1000
-2005028
1002
}
  0
INSERT
  5
23F
  8
0
  6
CONTINUOUS
  2
*U37
 10
0.0
 20
0.0
 30
0.0
1001
REVIT
1002
{
1070
     1
1000
757106
1002
}
1002
{
1070
     5
1000
233011
1002
}
1002
{
1070
     2
1000
-2005028
1002
}
1001
ACAD
1002
{
1000
R14_HATCH_DATA
1000
23F
1011
1.0
1021
0.0
1031
0.0
1021
0.0
1031
0.0
1011
0.0
1021
0.0
1031
0.0
1021
1.0
1031
0.0
1011
0.0
1021
0.0
1031
0.0
1021
0.0
1031
1.0
1040
0.0
1010
0.0
1020
0.0
1030
1.0
1000
SOLID
1070
     1
1070
     0
1071
        1
1071
        0
1071
        1
1070
     2
1040
300.09574461265782
1040
37.240464093000583
1040
2.0
1040
0.0
1040
6.2831853071795862
1070
     1
1071
        0
1070
     0
1070
     1
1071
        1
1040
0.0
1040
0.0
1040
0.0
1002
}
  0
LINE
  5
240
  8
0
 10
335.34795506569571
 20
83.233378822147614
 30
0.0
 11
384.2853606509438
 21
83.227336754729421
 31
0.0
1001
REVIT
1002
{
1070
     1
1000
757106
1002
}
1002
{
1070
     5
1000
233011
1002
}
1002
{
1070
     2
1000
-2005028
1002
}
  0
LINE
  5
241
  8
0
 10
300.09574461265782
 20
37.240464093000583
 30
0.0
 11
335.34795506569571
 21
83.233378822147614
 31
0.0
1001
REVIT
1002
{
1070
     1
1000
757106
1002
}
1002
{
1070
     5
1000
233011
1002
}
1002
{
1070
     2
1000
-2005028
1002
}
  0
INSERT
  5
242
  8
0
  6
CONTINUOUS
  2
*U38
 10
0.0
 20
0.0
 30
0.0
  0
CIRCLE
  5
259
  8
0
 10
-192.10519320626361
 20
88.584335293311284
 30
0.0
 40
1.9999999999999989
1001
REVIT
1002
{
1070
     1
1000
803034
1002
}
1002
{
1070
     5
1000
515858
1002
}
1002
{
1070
     2
1000
-2005028
1002
}
  0
INSERT
  5
25A
  8
0
  6
CONTINUOUS
  2
*U39
 10
0.0
 20
0.0
 30
0.0
1001
REVIT
1002
{
1070
     1
1000
803034
1002
}
1002
{
1070
     5
1000
515858
1002
}
1002
{
1070
     2
1000
-2005028
1002
}
1001
ACAD
1002
{
1000
R14_HATCH_DATA
1000
25A
1011
1.0
1021
0.0
1031
0.0
1021
0.0
1031
0.0
1011
0.0
1021
0.0
1031
0.0
1021
1.0
1031
0.0
1011
0.0
1021
0.0
1031
0.0
1021
0.0
1031
1.0
1040
0.0
1010
0.0
1020
0.0
1030
1.0
1000
SOLID
1070
     1
1070
     0
1071
        1
1071
        0
1071
        1
1070
     2
1040
-192.10519320626361
1040
88.584335293311284
1040
1.9999999999999989
1040
0.0
1040
6.2831853071795862
1070
     1
1071
        0
1070
     0
1070
     1
1071
        1
1040
0.0
1040
0.0
1040
0.0
1002
}
  0
LINE
  5
25B
  8
0
 10
-214.8257202212385
 20
144.10857966125511
 30
0.0
 11
-265.04325747495358
 21
144.10857966125511
 31
0.0
1001
REVIT
1002
{
1070
     1
1000
803034
1002
}
1002
{
1070
     5
1000
515858
1002
}
1002
{
1070
     2
1000
-2005028
1002
}
  0
LINE
  5
25C
  8
0
 10
-192.10519320626361
 20
88.584335293311284
 30
0.0
 11
-214.8257202212385
 21
144.10857966125511
 31
0.0
1001
REVIT
1002
{
1070
     1
1000
803034
1002
}
1002
{
1070
     5
1000
515858
1002
}
1002
{
1070
     2
1000
-2005028
1002
}
  0
INSERT
  5
25D
  8
0
  6
CONTINUOUS
  2
*U40
 10
0.0
 20
0.0
 30
0.0
  0
LINE
  5
3B5
  8
0
 10
529.17852865272619
 20
-199.4675550490681
 30
0.0
 11
529.17852865272562
 21
-102.31074956234821
 31
0.0
  0
LINE
  5
3B6
  8
0
 10
529.17852865272516
 20
0.5324449509318754
 30
0.0
 11
529.17852865272562
 21
-96.624360535788043
 31
0.0
  0
LINE
  5
3B7
  8
0
 10
529.17852865272516
 20
0.5324449509318754
 30
0.0
 11
529.17852865272562
 21
-96.624360535788043
 31
0.0
  0
LINE
  5
3B8
  8
0
 10
529.17852865272562
 20
-96.624360535788043
 30
0.0
 11
537.42462398143027
 21
-98.078369627732656
 31
0.0
  0
LINE
  5
3B9
  8
0
 10
537.42462398143027
 20
-98.078369627732656
 30
0.0
 11
520.93243332402096
 21
-100.85674047040359
 31
0.0
  0
LINE
  5
3BA
  8
0
 10
520.93243332402108
 20
-100.85674047040359
 30
0.0
 11
529.17852865272562
 21
-102.31074956234821
 31
0.0
  0
LINE
  5
3BB
  8
0
 10
529.17852865272562
 20
-102.31074956234821
 30
0.0
 11
529.17852865272619
 21
-199.4675550490681
 31
0.0
  0
LINE
  5
3BC
  8
0
 10
-529.17852865272357
 20
-199.4675550490681
 30
0.0
 11
-529.17852865272312
 21
-102.31074956234821
 31
0.0
  0
LINE
  5
3BD
  8
0
 10
-529.17852865272255
 20
0.5324449509318754
 30
0.0
 11
-529.17852865272312
 21
-96.624360535788043
 31
0.0
  0
LINE
  5
3BE
  8
0
 10
-529.17852865272357
 20
-199.4675550490681
 30
0.0
 11
-529.17852865272312
 21
-102.31074956234821
 31
0.0
  0
LINE
  5
3BF
  8
0
 10
-529.17852865272312
 20
-102.31074956234821
 30
0.0
 11
-520.93243332401835
 21
-100.85674047040359
 31
0.0
  0
LINE
  5
3C0
  8
0
 10
-520.93243332401835
 20
-100.85674047040359
 30
0.0
 11
-537.42462398142777
 21
-98.078369627732627
 31
0.0
  0
LINE
  5
3C1
  8
0
 10
-537.42462398142777
 20
-98.078369627732627
 30
0.0
 11
-529.17852865272312
 21
-96.624360535788043
 31
0.0
  0
LINE
  5
3C2
  8
0
 10
-529.17852865272312
 20
-96.624360535788043
 30
0.0
 11
-529.17852865272255
 21
0.5324449509318754
 31
0.0
  0
LINE
  5
3C3
  8
0
 10
200.0
 20
-166.89078604315341
 30
0.0
 11
2.8431945132800802
 21
-166.89078604315341
 31
0.0
  0
LINE
  5
3C4
  8
0
 10
-200.0
 20
-166.89078604315341
 30
0.0
 11
-2.8431945132800802
 21
-166.89078604315341
 31
0.0
  0
LINE
  5
3C5
  8
0
 10
200.0
 20
-166.89078604315341
 30
0.0
 11
2.8431945132800802
 21
-166.89078604315341
 31
0.0
  0
LINE
  5
3C6
  8
0
 10
2.8431945132800802
 20
-166.89078604315341
 30
0.0
 11
1.3891854213354491
 21
-158.6446907144487
 31
0.0
  0
LINE
  5
3C7
  8
0
 10
1.3891854213354491
 20
-158.64469071444859
 30
0.0
 11
-1.3891854213354491
 21
-175.13688137185801
 31
0.0
  0
LINE
  5
3C8
  8
0
 10
-1.3891854213354491
 20
-175.13688137185801
 30
0.0
 11
-2.8431945132800802
 21
-166.89078604315341
 31
0.0
  0
LINE
  5
3C9
  8
0
 10
-2.8431945132800802
 20
-166.89078604315341
 30
0.0
 11
-200.0
 21
-166.89078604315341
 31
0.0
  0
ARC
  5
3CA
  8
0
 10
713.56875804127958
 20
-105.8472618620678
 30
0.0
 40
2.000426076871288
 50
261.99999999999272
 51
345.9999999999751
1001
REVIT
1002
{
1070
     3
1000
773559
1002
}
  0
ARC
  5
3CB
  8
0
 10
715.55274466626236
 20
-97.889926134214306
 30
0.0
 40
2.000426076870601
 50
345.9999999999751
 51
83.130359038351486
1001
REVIT
1002
{
1070
     3
1000
773559
1002
}
  0
ARC
  5
3CC
  8
0
 10
524.62182457385222
 20
-40.27934525950127
 30
0.0
 40
2.6326198929475821
 50
77.698049474927458
 51
248.47161995817211
1001
REVIT
1002
{
1070
     3
1000
773559
1002
}
  0
ARC
  5
3CD
  8
0
 10
536.82267106849417
 20
-37.516835892474973
 30
0.0
 40
3.001085603400742
 50
256.9883454356239
 51
75.011654564352554
1001
REVIT
1002
{
1070
     3
1000
773559
1002
}
  0
LINE
  5
3CE
  8
0
 10
715.50976291439883
 20
-106.33120873059239
 30
0.0
 11
717.49374953938093
 21
-98.373873002738705
 31
0.0
1001
REVIT
1002
{
1070
     3
1000
773559
1002
}
  0
LINE
  5
3CF
  8
0
 10
715.79201721855532
 20
-95.903861398425661
 30
0.0
 11
569.59788816148262
 21
-59.437627431573397
 31
0.0
1001
REVIT
1002
{
1070
     3
1000
773559
1002
}
  0
LINE
  5
3D0
  8
0
 10
569.59788816148318
 20
-59.43762743157356
 30
0.0
 11
569.38763409563967
 21
-59.373346312667522
 31
0.0
1001
REVIT
1002
{
1070
     3
1000
773559
1002
}
  0
LINE
  5
3D1
  8
0
 10
569.38763409563364
 20
-59.373346312665291
 30
0.0
 11
523.65575300479247
 21
-42.728302838594473
 31
0.0
1001
REVIT
1002
{
1070
     3
1000
773559
1002
}
  0
LINE
  5
3D2
  8
0
 10
525.182740171506
 20
-37.707174737733339
 30
0.0
 11
536.14697890527202
 21
-40.440866483884562
 31
0.0
1001
REVIT
1002
{
1070
     3
1000
773559
1002
}
  0
LINE
  5
3D3
  8
0
 10
537.59881951084719
 20
-34.617851864514108
 30
0.0
 11
490.92759532297077
 21
-22.981408747505011
 31
0.0
1001
REVIT
1002
{
1070
     3
1000
773559
1002
}
  0
LINE
  5
3D4
  8
0
 10
700.86919802292141
 20
-104.7312782808575
 30
0.0
 11
713.29035254091991
 21
-107.82821992987139
 31
0.0
1001
REVIT
1002
{
1070
     3
1000
773559
1002
}
  0
ARC
  5
3D5
  8
0
 10
189.2289647498369
 20
84.989883062748078
 30
0.0
 40
2.000426076871288
 50
261.99999999999261
 51
345.9999999999747
1001
REVIT
1002
{
1070
     3
1000
773559
1002
}
  0
ARC
  5
3D6
  8
0
 10
191.21295137481971
 20
92.947218790601625
 30
0.0
 40
2.0004260768706161
 50
345.9999999999747
 51
83.130359038354712
1001
REVIT
1002
{
1070
     3
1000
773559
1002
}
  0
LINE
  5
3D7
  8
0
 10
191.1699696229561
 20
84.505936194223523
 30
0.0
 11
193.1539562479382
 21
92.463271922077197
 31
0.0
1001
REVIT
1002
{
1070
     3
1000
773559
1002
}
  0
LINE
  5
3D8
  8
0
 10
191.4522239271125
 20
94.933283526390255
 30
0.0
 11
45.25809487003982
 21
131.39951749324251
 31
0.0
1001
REVIT
1002
{
1070
     3
1000
773559
1002
}
  0
LINE
  5
3D9
  8
0
 10
45.258094870040587
 20
131.39951749324231
 30
0.0
 11
45.047840804197101
 21
131.46379861214839
 31
0.0
1001
REVIT
1002
{
1070
     3
1000
773559
1002
}
  0
LINE
  5
3DA
  8
0
 10
45.047840804189313
 20
131.46379861215121
 30
0.0
 11
1.1557798813568629
 21
147.43920230866411
 31
0.0
1001
REVIT
1002
{
1070
     3
1000
773559
1002
}
  0
LINE
  5
3DB
  8
0
 10
176.52940473147871
 20
86.105866643958365
 30
0.0
 11
188.9505592494771
 21
83.008924994944522
 31
0.0
1001
REVIT
1002
{
1070
     3
1000
773559
1002
}
  0
LINE
  5
3DC
  8
0
 10
45.047840804189313
 20
131.46379861215121
 30
0.0
 11
1.1557798813568629
 21
147.43920230866411
 31
0.0
1001
REVIT
1002
{
1070
     3
1000
773559
1002
}
  0
LINE
  5
3DD
  8
0
 10
1.1557798813572611
 20
152.43920230866399
 30
0.0
 11
1.15577988135692
 21
147.43920230866399
 31
0.0
1001
REVIT
1002
{
1070
     3
1000
773559
1002
}
  0
LINE
  5
3DE
  8
0
 10
188.07446062886549
 20
92.603345190867515
 30
0.0
 11
141.36194039061229
 21
104.2500845696423
 31
0.0
1001
REVIT
1002
{
1070
     3
1000
773559
1002
}
  0
LINE
  5
3DF
  8
0
 10
175.64739518305771
 20
89.511288795328539
 30
0.0
 11
186.62133539268791
 21
86.775178199575436
 31
0.0
1001
REVIT
1002
{
1070
     3
1000
773559
1002
}
  0
LINE
  5
3E0
  8
0
 10
219.89140287714551
 20
67.825946364510656
 30
0.0
 11
174.11905689388939
 21
84.485717854953293
 31
0.0
1001
REVIT
1002
{
1070
     3
1000
773559
1002
}
  0
LINE
  5
3E1
  8
0
 10
220.10184298187269
 20
67.761608367809856
 30
0.0
 11
219.89140287714551
 21
67.825946364510656
 31
0.0
1001
REVIT
1002
{
1070
     3
1000
773559
1002
}
  0
LINE
  5
3E2
  8
0
 10
366.42532883691518
 20
31.26310802138136
 30
0.0
 11
220.10184298187281
 21
67.761608367809771
 31
0.0
1001
REVIT
1002
{
1070
     3
1000
773559
1002
}
  0
LINE
  5
3E3
  8
0
 10
366.1428247859788
 20
20.826534270404881
 30
0.0
 11
368.12856689976661
 21
28.790910879289608
 31
0.0
1001
REVIT
1002
{
1070
     3
1000
773559
1002
}
  0
LINE
  5
3E4
  8
0
 10
358.62846289241952
 20
20.072079384728632
 30
0.0
 11
363.92145061394569
 21
19.32819847227556
 31
0.0
1001
REVIT
1002
{
1070
     3
1000
773559
1002
}
  0
LINE
  5
3E5
  8
0
 10
394.02895650786638
 20
4.4450601748990053
 30
0.0
 11
358.00155061270482
 21
17.557963538567101
 31
0.0
1001
REVIT
1002
{
1070
     3
1000
773559
1002
}
  0
LINE
  5
3E6
  8
0
 10
540.70445104070654
 20
-32.125247943018941
 30
0.0
 11
394.0289565078657
 21
4.4450601748992113
 31
0.0
1001
REVIT
1002
{
1070
     3
1000
773559
1002
}
  0
LINE
  5
3E7
  8
0
 10
540.16747224153426
 20
-42.513599429784357
 30
0.0
 11
542.16275803860731
 21
-34.552506772775963
 31
0.0
1001
REVIT
1002
{
1070
     3
1000
773559
1002
}
  0
LINE
  5
3E8
  8
0
 10
525.36588979754322
 20
-40.681858710338588
 30
0.0
 11
537.79803491267387
 21
-43.781540622985467
 31
0.0
1001
REVIT
1002
{
1070
     3
1000
773559
1002
}
  0
ARC
  5
3E9
  8
0
 10
187.2976254278997
 20
89.701796057907984
 30
0.0
 40
3.0037410508294449
 50
256.98834543561048
 51
75.01165456435244
1001
REVIT
1002
{
1070
     3
1000
773559
1002
}
  0
ARC
  5
3EA
  8
0
 10
175.08598327104261
 20
86.936842342614199
 30
0.0
 40
2.6349493112479041
 50
77.698049474907492
 51
248.4716199581722
1001
REVIT
1002
{
1070
     3
1000
773559
1002
}
  0
ARC
  5
3EB
  8
0
 10
366.18584456934087
 20
29.275285958014361
 30
0.0
 40
2.0021961117793401
 50
345.9999999999755
 51
83.130359038358009
1001
REVIT
1002
{
1070
     3
1000
773559
1002
}
  0
ARC
  5
3EC
  8
0
 10
364.2001024555525
 20
21.31090934912983
 30
0.0
 40
2.0021961117799791
 50
261.9999999999992
 51
345.9999999999755
1001
REVIT
1002
{
1070
     3
1000
773559
1002
}
  0
ARC
  5
3ED
  8
0
 10
358.47523747013418
 20
18.775066817319608
 30
0.0
 40
1.3060320172382529
 50
83.262465605170163
 51
248.73441057941841
1001
REVIT
1002
{
1070
     3
1000
773559
1002
}
  0
ARC
  5
3EE
  8
0
 10
540.22007596198262
 20
-34.067970273444537
 30
0.0
 40
2.0021961117790461
 50
345.99523924996322
 51
75.999999999997016
1001
REVIT
1002
{
1070
     3
1000
773559
1002
}
  0
ARC
  5
3EF
  8
0
 10
538.2824099914028
 20
-41.838818292561101
 30
0.0
 40
2.0021961117791012
 50
255.99999999984939
 51
340.30454948778703
1001
REVIT
1002
{
1070
     3
1000
773559
1002
}
  0
LINE
  5
3F0
  8
0
 10
158.86414308753649
 20
101.4106678637085
 30
0.0
 11
155.1053726043917
 21
102.7787484370119
 31
0.0
1001
REVIT
1002
{
1070
     3
1000
211597
1002
}
  0
LINE
  5
3F1
  8
0
 10
149.33162575237199
 20
79.605998335032155
 30
0.0
 11
157.19808904886381
 21
101.21892861310759
 31
0.0
1001
REVIT
1002
{
1070
     3
1000
211597
1002
}
  0
LINE
  5
3F2
  8
0
 10
148.17773915532661
 20
77.897623165123662
 30
0.0
 11
149.33162575237199
 21
79.605998335032155
 31
0.0
1001
REVIT
1002
{
1070
     3
1000
211597
1002
}
  0
LINE
  5
3F3
  8
0
 10
148.3919331315862
 20
79.948018478357895
 30
0.0
 11
148.17773915532661
 21
77.897623165123662
 31
0.0
1001
REVIT
1002
{
1070
     3
1000
211597
1002
}
  0
LINE
  5
3F4
  8
0
 10
156.2583964280779
 20
101.56094875643331
 30
0.0
 11
148.3919331315862
 21
79.948018478357895
 31
0.0
1001
REVIT
1002
{
1070
     3
1000
211597
1002
}
  0
LINE
  5
3F5
  8
0
 10
155.1308935125455
 20
101.97132625673549
 30
0.0
 11
156.2583964280779
 21
101.56094875643331
 31
0.0
1001
REVIT
1002
{
1070
     3
1000
211597
1002
}
  0
LINE
  5
3F6
  8
0
 10
157.19808904886381
 20
101.21892861310759
 30
0.0
 11
158.32559196439581
 21
100.8085511128055
 31
0.0
1001
REVIT
1002
{
1070
     3
1000
211597
1002
}
  0
LINE
  5
3F7
  8
0
 10
158.86414308753649
 20
101.4106678637085
 30
0.0
 11
158.32559196439581
 21
100.8085511128055
 31
0.0
1001
REVIT
1002
{
1070
     3
1000
211597
1002
}
  0
LINE
  5
3F8
  8
0
 10
155.1053726043917
 20
102.7787484370119
 30
0.0
 11
155.1308935125455
 21
101.97132625673549
 31
0.0
1001
REVIT
1002
{
1070
     3
1000
211597
1002
}
  0
ARC
  5
3F9
  8
0
 10
-713.56875804127719
 20
-105.8472618620678
 30
0.0
 40
2.000426076871288
 50
194.0000000000241
 51
278.00000000000728
1001
REVIT
1002
{
1070
     3
1000
773559
1002
}
  0
ARC
  5
3FA
  8
0
 10
-715.55274466626008
 20
-97.889926134214306
 30
0.0
 40
2.000426076870601
 50
96.869640961648557
 51
194.0000000000241
1001
REVIT
1002
{
1070
     3
1000
773559
1002
}
  0
ARC
  5
3FB
  8
0
 10
-524.62182457384984
 20
-40.279345259501319
 30
0.0
 40
2.6326198929475542
 50
291.52838004182797
 51
102.3019505250725
1001
REVIT
1002
{
1070
     3
1000
773559
1002
}
  0
ARC
  5
3FC
  8
0
 10
-536.82267106849179
 20
-37.516835892475022
 30
0.0
 40
3.001085603400742
 50
104.9883454356474
 51
283.0116545643761
1001
REVIT
1002
{
1070
     3
1000
773559
1002
}
  0
LINE
  5
3FD
  8
0
 10
-715.50976291439645
 20
-106.33120873059239
 30
0.0
 11
-717.49374953937854
 21
-98.373873002738705
 31
0.0
1001
REVIT
1002
{
1070
     3
1000
773559
1002
}
  0
LINE
  5
3FE
  8
0
 10
-715.79201721855293
 20
-95.903861398425661
 30
0.0
 11
-569.59788816148023
 21
-59.437627431573439
 31
0.0
1001
REVIT
1002
{
1070
     3
1000
773559
1002
}
  0
LINE
  5
3FF
  8
0
 10
-569.5978881614808
 20
-59.437627431573603
 30
0.0
 11
-569.38763409563728
 21
-59.373346312667557
 31
0.0
1001
REVIT
1002
{
1070
     3
1000
773559
1002
}
  0
LINE
  5
400
  8
0
 10
-569.38763409563126
 20
-59.373346312665333
 30
0.0
 11
-523.6557530047902
 21
-42.728302838594523
 31
0.0
1001
REVIT
1002
{
1070
     3
1000
773559
1002
}
  0
LINE
  5
401
  8
0
 10
-525.1827401715035
 20
-37.707174737733403
 30
0.0
 11
-536.14697890526963
 21
-40.440866483884598
 31
0.0
1001
REVIT
1002
{
1070
     3
1000
773559
1002
}
  0
LINE
  5
402
  8
0
 10
-537.59881951084481
 20
-34.617851864514151
 30
0.0
 11
-490.9275953229685
 21
-22.981408747505071
 31
0.0
1001
REVIT
1002
{
1070
     3
1000
773559
1002
}
  0
LINE
  5
403
  8
0
 10
-700.86919802291902
 20
-104.7312782808575
 30
0.0
 11
-713.29035254091752
 21
-107.82821992987139
 31
0.0
1001
REVIT
1002
{
1070
     3
1000
773559
1002
}
  0
ARC
  5
404
  8
0
 10
-189.2289647498344
 20
84.989883062748063
 30
0.0
 40
2.000426076871288
 50
194.0000000000249
 51
278.00000000000728
1001
REVIT
1002
{
1070
     3
1000
773559
1002
}
  0
ARC
  5
405
  8
0
 10
-191.21295137481729
 20
92.947218790601596
 30
0.0
 40
2.0004260768706161
 50
96.869640961645302
 51
194.0000000000249
1001
REVIT
1002
{
1070
     3
1000
773559
1002
}
  0
LINE
  5
406
  8
0
 10
-191.1699696229536
 20
84.505936194223494
 30
0.0
 11
-193.1539562479357
 21
92.463271922077197
 31
0.0
1001
REVIT
1002
{
1070
     3
1000
773559
1002
}
  0
LINE
  5
407
  8
0
 10
-191.45222392711011
 20
94.933283526390227
 30
0.0
 11
-45.258094870037382
 21
131.3995174932424
 31
0.0
1001
REVIT
1002
{
1070
     3
1000
773559
1002
}
  0
LINE
  5
408
  8
0
 10
-45.258094870038143
 20
131.39951749324231
 30
0.0
 11
-45.047840804194657
 21
131.46379861214831
 31
0.0
1001
REVIT
1002
{
1070
     3
1000
773559
1002
}
  0
LINE
  5
409
  8
0
 10
-45.047840804186869
 20
131.46379861215109
 30
0.0
 11
-1.1557798813544189
 21
147.43920230866399
 31
0.0
1001
REVIT
1002
{
1070
     3
1000
773559
1002
}
  0
LINE
  5
40A
  8
0
 10
-176.52940473147621
 20
86.105866643958336
 30
0.0
 11
-188.95055924947471
 21
83.008924994944493
 31
0.0
1001
REVIT
1002
{
1070
     3
1000
773559
1002
}
  0
LINE
  5
40B
  8
0
 10
-45.047840804186869
 20
131.46379861215109
 30
0.0
 11
-1.1557798813544189
 21
147.43920230866399
 31
0.0
1001
REVIT
1002
{
1070
     3
1000
773559
1002
}
  0
LINE
  5
40C
  8
0
 10
-1.155779881354817
 20
152.43920230866399
 30
0.0
 11
-1.155779881354476
 21
147.43920230866399
 31
0.0
1001
REVIT
1002
{
1070
     3
1000
773559
1002
}
  0
LINE
  5
40D
  8
0
 10
75.0
 20
83.750000000000028
 30
0.0
 11
-75.0
 21
83.750000000000028
 31
0.0
1001
REVIT
1002
{
1070
     3
1000
211597
1002
}
  0
LINE
  5
40E
  8
0
 10
-75.0
 20
83.750000000000028
 30
0.0
 11
-75.0
 21
23.750000000000021
 31
0.0
1001
REVIT
1002
{
1070
     3
1000
211597
1002
}
  0
LINE
  5
40F
  8
0
 10
-75.0
 20
23.750000000000021
 30
0.0
 11
75.0
 21
23.750000000000021
 31
0.0
1001
REVIT
1002
{
1070
     3
1000
211597
1002
}
  0
LINE
  5
410
  8
0
 10
75.0
 20
23.750000000000021
 30
0.0
 11
75.0
 21
83.750000000000028
 31
0.0
1001
REVIT
1002
{
1070
     3
1000
211597
1002
}
  0
LINE
  5
411
  8
0
 10
-48.0
 20
53.750000000000021
 30
0.0
 11
-50.0
 21
56.250000000000021
 31
0.0
1001
REVIT
1002
{
1070
     3
1000
211597
1002
}
  0
LINE
  5
412
  8
0
 10
-50.0
 20
56.250000000000021
 30
0.0
 11
-70.0
 21
56.250000000000021
 31
0.0
1001
REVIT
1002
{
1070
     3
1000
211597
1002
}
  0
LINE
  5
413
  8
0
 10
-70.0
 20
56.250000000000021
 30
0.0
 11
-70.0
 21
51.250000000000021
 31
0.0
1001
REVIT
1002
{
1070
     3
1000
211597
1002
}
  0
LINE
  5
414
  8
0
 10
-70.0
 20
51.250000000000021
 30
0.0
 11
-50.0
 21
51.250000000000021
 31
0.0
1001
REVIT
1002
{
1070
     3
1000
211597
1002
}
  0
LINE
  5
415
  8
0
 10
-50.0
 20
51.250000000000021
 30
0.0
 11
-48.0
 21
53.750000000000021
 31
0.0
1001
REVIT
1002
{
1070
     3
1000
211597
1002
}
  0
LINE
  5
416
  8
0
 10
-18.0
 20
53.750000000000021
 30
0.0
 11
-20.0
 21
56.250000000000021
 31
0.0
1001
REVIT
1002
{
1070
     3
1000
211597
1002
}
  0
LINE
  5
417
  8
0
 10
-20.0
 20
56.250000000000021
 30
0.0
 11
-40.0
 21
56.250000000000021
 31
0.0
1001
REVIT
1002
{
1070
     3
1000
211597
1002
}
  0
LINE
  5
418
  8
0
 10
-40.0
 20
56.250000000000021
 30
0.0
 11
-40.0
 21
51.250000000000021
 31
0.0
1001
REVIT
1002
{
1070
     3
1000
211597
1002
}
  0
LINE
  5
419
  8
0
 10
-40.0
 20
51.250000000000021
 30
0.0
 11
-20.0
 21
51.250000000000021
 31
0.0
1001
REVIT
1002
{
1070
     3
1000
211597
1002
}
  0
LINE
  5
41A
  8
0
 10
-20.0
 20
51.250000000000021
 30
0.0
 11
-18.0
 21
53.750000000000021
 31
0.0
1001
REVIT
1002
{
1070
     3
1000
211597
1002
}
  0
LINE
  5
41B
  8
0
 10
12.0
 20
53.750000000000021
 30
0.0
 11
10.0
 21
56.250000000000021
 31
0.0
1001
REVIT
1002
{
1070
     3
1000
211597
1002
}
  0
LINE
  5
41C
  8
0
 10
10.0
 20
56.250000000000021
 30
0.0
 11
-10.0
 21
56.250000000000021
 31
0.0
1001
REVIT
1002
{
1070
     3
1000
211597
1002
}
  0
LINE
  5
41D
  8
0
 10
-10.0
 20
56.250000000000021
 30
0.0
 11
-10.0
 21
51.250000000000021
 31
0.0
1001
REVIT
1002
{
1070
     3
1000
211597
1002
}
  0
LINE
  5
41E
  8
0
 10
-10.0
 20
51.250000000000021
 30
0.0
 11
10.0
 21
51.250000000000021
 31
0.0
1001
REVIT
1002
{
1070
     3
1000
211597
1002
}
  0
LINE
  5
41F
  8
0
 10
10.0
 20
51.250000000000021
 30
0.0
 11
12.0
 21
53.750000000000021
 31
0.0
1001
REVIT
1002
{
1070
     3
1000
211597
1002
}
  0
LINE
  5
420
  8
0
 10
42.0
 20
53.750000000000021
 30
0.0
 11
40.0
 21
56.250000000000021
 31
0.0
1001
REVIT
1002
{
1070
     3
1000
211597
1002
}
  0
LINE
  5
421
  8
0
 10
40.0
 20
56.250000000000021
 30
0.0
 11
20.0
 21
56.250000000000021
 31
0.0
1001
REVIT
1002
{
1070
     3
1000
211597
1002
}
  0
LINE
  5
422
  8
0
 10
20.0
 20
56.250000000000021
 30
0.0
 11
20.0
 21
51.250000000000021
 31
0.0
1001
REVIT
1002
{
1070
     3
1000
211597
1002
}
  0
LINE
  5
423
  8
0
 10
20.0
 20
51.250000000000021
 30
0.0
 11
40.0
 21
51.250000000000021
 31
0.0
1001
REVIT
1002
{
1070
     3
1000
211597
1002
}
  0
LINE
  5
424
  8
0
 10
40.0
 20
51.250000000000021
 30
0.0
 11
42.0
 21
53.750000000000021
 31
0.0
1001
REVIT
1002
{
1070
     3
1000
211597
1002
}
  0
LINE
  5
425
  8
0
 10
72.0
 20
53.750000000000021
 30
0.0
 11
70.0
 21
56.250000000000021
 31
0.0
1001
REVIT
1002
{
1070
     3
1000
211597
1002
}
  0
LINE
  5
426
  8
0
 10
70.0
 20
56.250000000000021
 30
0.0
 11
50.0
 21
56.250000000000021
 31
0.0
1001
REVIT
1002
{
1070
     3
1000
211597
1002
}
  0
LINE
  5
427
  8
0
 10
50.0
 20
56.250000000000021
 30
0.0
 11
50.0
 21
51.250000000000021
 31
0.0
1001
REVIT
1002
{
1070
     3
1000
211597
1002
}
  0
LINE
  5
428
  8
0
 10
50.0
 20
51.250000000000021
 30
0.0
 11
70.0
 21
51.250000000000021
 31
0.0
1001
REVIT
1002
{
1070
     3
1000
211597
1002
}
  0
LINE
  5
429
  8
0
 10
70.0
 20
51.250000000000021
 30
0.0
 11
72.0
 21
53.750000000000021
 31
0.0
1001
REVIT
1002
{
1070
     3
1000
211597
1002
}
  0
LINE
  5
42A
  8
0
 10
-48.0
 20
73.750000000000028
 30
0.0
 11
-50.0
 21
76.250000000000028
 31
0.0
1001
REVIT
1002
{
1070
     3
1000
211597
1002
}
  0
LINE
  5
42B
  8
0
 10
-50.0
 20
76.250000000000028
 30
0.0
 11
-70.0
 21
76.250000000000028
 31
0.0
1001
REVIT
1002
{
1070
     3
1000
211597
1002
}
  0
LINE
  5
42C
  8
0
 10
-70.0
 20
76.250000000000028
 30
0.0
 11
-70.0
 21
71.250000000000028
 31
0.0
1001
REVIT
1002
{
1070
     3
1000
211597
1002
}
  0
LINE
  5
42D
  8
0
 10
-70.0
 20
71.250000000000028
 30
0.0
 11
-50.0
 21
71.250000000000028
 31
0.0
1001
REVIT
1002
{
1070
     3
1000
211597
1002
}
  0
LINE
  5
42E
  8
0
 10
-50.0
 20
71.250000000000028
 30
0.0
 11
-48.0
 21
73.750000000000028
 31
0.0
1001
REVIT
1002
{
1070
     3
1000
211597
1002
}
  0
LINE
  5
42F
  8
0
 10
-18.0
 20
73.750000000000028
 30
0.0
 11
-20.0
 21
76.250000000000028
 31
0.0
1001
REVIT
1002
{
1070
     3
1000
211597
1002
}
  0
LINE
  5
430
  8
0
 10
-20.0
 20
76.250000000000028
 30
0.0
 11
-40.0
 21
76.250000000000028
 31
0.0
1001
REVIT
1002
{
1070
     3
1000
211597
1002
}
  0
LINE
  5
431
  8
0
 10
-40.0
 20
76.250000000000028
 30
0.0
 11
-40.0
 21
71.250000000000028
 31
0.0
1001
REVIT
1002
{
1070
     3
1000
211597
1002
}
  0
LINE
  5
432
  8
0
 10
-40.0
 20
71.250000000000028
 30
0.0
 11
-20.0
 21
71.250000000000028
 31
0.0
1001
REVIT
1002
{
1070
     3
1000
211597
1002
}
  0
LINE
  5
433
  8
0
 10
-20.0
 20
71.250000000000028
 30
0.0
 11
-18.0
 21
73.750000000000028
 31
0.0
1001
REVIT
1002
{
1070
     3
1000
211597
1002
}
  0
LINE
  5
434
  8
0
 10
12.0
 20
73.750000000000028
 30
0.0
 11
10.0
 21
76.250000000000028
 31
0.0
1001
REVIT
1002
{
1070
     3
1000
211597
1002
}
  0
LINE
  5
435
  8
0
 10
10.0
 20
76.250000000000028
 30
0.0
 11
-10.0
 21
76.250000000000028
 31
0.0
1001
REVIT
1002
{
1070
     3
1000
211597
1002
}
  0
LINE
  5
436
  8
0
 10
-10.0
 20
76.250000000000028
 30
0.0
 11
-10.0
 21
71.250000000000028
 31
0.0
1001
REVIT
1002
{
1070
     3
1000
211597
1002
}
  0
LINE
  5
437
  8
0
 10
-10.0
 20
71.250000000000028
 30
0.0
 11
10.0
 21
71.250000000000028
 31
0.0
1001
REVIT
1002
{
1070
     3
1000
211597
1002
}
  0
LINE
  5
438
  8
0
 10
10.0
 20
71.250000000000028
 30
0.0
 11
12.0
 21
73.750000000000028
 31
0.0
1001
REVIT
1002
{
1070
     3
1000
211597
1002
}
  0
LINE
  5
439
  8
0
 10
42.0
 20
73.750000000000028
 30
0.0
 11
40.0
 21
76.250000000000028
 31
0.0
1001
REVIT
1002
{
1070
     3
1000
211597
1002
}
  0
LINE
  5
43A
  8
0
 10
40.0
 20
76.250000000000028
 30
0.0
 11
20.0
 21
76.250000000000028
 31
0.0
1001
REVIT
1002
{
1070
     3
1000
211597
1002
}
  0
LINE
  5
43B
  8
0
 10
20.0
 20
76.250000000000028
 30
0.0
 11
20.0
 21
71.250000000000028
 31
0.0
1001
REVIT
1002
{
1070
     3
1000
211597
1002
}
  0
LINE
  5
43C
  8
0
 10
20.0
 20
71.250000000000028
 30
0.0
 11
40.0
 21
71.250000000000028
 31
0.0
1001
REVIT
1002
{
1070
     3
1000
211597
1002
}
  0
LINE
  5
43D
  8
0
 10
40.0
 20
71.250000000000028
 30
0.0
 11
42.0
 21
73.750000000000028
 31
0.0
1001
REVIT
1002
{
1070
     3
1000
211597
1002
}
  0
LINE
  5
43E
  8
0
 10
72.0
 20
73.750000000000028
 30
0.0
 11
70.0
 21
76.250000000000028
 31
0.0
1001
REVIT
1002
{
1070
     3
1000
211597
1002
}
  0
LINE
  5
43F
  8
0
 10
70.0
 20
76.250000000000028
 30
0.0
 11
50.0
 21
76.250000000000028
 31
0.0
1001
REVIT
1002
{
1070
     3
1000
211597
1002
}
  0
LINE
  5
440
  8
0
 10
50.0
 20
76.250000000000028
 30
0.0
 11
50.0
 21
71.250000000000028
 31
0.0
1001
REVIT
1002
{
1070
     3
1000
211597
1002
}
  0
LINE
  5
441
  8
0
 10
50.0
 20
71.250000000000028
 30
0.0
 11
70.0
 21
71.250000000000028
 31
0.0
1001
REVIT
1002
{
1070
     3
1000
211597
1002
}
  0
LINE
  5
442
  8
0
 10
70.0
 20
71.250000000000028
 30
0.0
 11
72.0
 21
73.750000000000028
 31
0.0
1001
REVIT
1002
{
1070
     3
1000
211597
1002
}
  0
LINE
  5
443
  8
0
 10
-48.0
 20
33.750000000000021
 30
0.0
 11
-50.0
 21
36.250000000000021
 31
0.0
1001
REVIT
1002
{
1070
     3
1000
211597
1002
}
  0
LINE
  5
444
  8
0
 10
-50.0
 20
36.250000000000021
 30
0.0
 11
-70.0
 21
36.250000000000021
 31
0.0
1001
REVIT
1002
{
1070
     3
1000
211597
1002
}
  0
LINE
  5
445
  8
0
 10
-70.0
 20
36.250000000000021
 30
0.0
 11
-70.0
 21
31.250000000000021
 31
0.0
1001
REVIT
1002
{
1070
     3
1000
211597
1002
}
  0
LINE
  5
446
  8
0
 10
-70.0
 20
31.250000000000021
 30
0.0
 11
-50.0
 21
31.250000000000021
 31
0.0
1001
REVIT
1002
{
1070
     3
1000
211597
1002
}
  0
LINE
  5
447
  8
0
 10
-50.0
 20
31.250000000000021
 30
0.0
 11
-48.0
 21
33.750000000000021
 31
0.0
1001
REVIT
1002
{
1070
     3
1000
211597
1002
}
  0
LINE
  5
448
  8
0
 10
-18.0
 20
33.750000000000021
 30
0.0
 11
-20.0
 21
36.250000000000021
 31
0.0
1001
REVIT
1002
{
1070
     3
1000
211597
1002
}
  0
LINE
  5
449
  8
0
 10
-20.0
 20
36.250000000000021
 30
0.0
 11
-40.0
 21
36.250000000000021
 31
0.0
1001
REVIT
1002
{
1070
     3
1000
211597
1002
}
  0
LINE
  5
44A
  8
0
 10
-40.0
 20
36.250000000000021
 30
0.0
 11
-40.0
 21
31.250000000000021
 31
0.0
1001
REVIT
1002
{
1070
     3
1000
211597
1002
}
  0
LINE
  5
44B
  8
0
 10
-40.0
 20
31.250000000000021
 30
0.0
 11
-20.0
 21
31.250000000000021
 31
0.0
1001
REVIT
1002
{
1070
     3
1000
211597
1002
}
  0
LINE
  5
44C
  8
0
 10
-20.0
 20
31.250000000000021
 30
0.0
 11
-18.0
 21
33.750000000000021
 31
0.0
1001
REVIT
1002
{
1070
     3
1000
211597
1002
}
  0
LINE
  5
44D
  8
0
 10
12.0
 20
33.750000000000021
 30
0.0
 11
10.0
 21
36.250000000000021
 31
0.0
1001
REVIT
1002
{
1070
     3
1000
211597
1002
}
  0
LINE
  5
44E
  8
0
 10
10.0
 20
36.250000000000021
 30
0.0
 11
-10.0
 21
36.250000000000021
 31
0.0
1001
REVIT
1002
{
1070
     3
1000
211597
1002
}
  0
LINE
  5
44F
  8
0
 10
-10.0
 20
36.250000000000021
 30
0.0
 11
-10.0
 21
31.250000000000021
 31
0.0
1001
REVIT
1002
{
1070
     3
1000
211597
1002
}
  0
LINE
  5
450
  8
0
 10
-10.0
 20
31.250000000000021
 30
0.0
 11
10.0
 21
31.250000000000021
 31
0.0
1001
REVIT
1002
{
1070
     3
1000
211597
1002
}
  0
LINE
  5
451
  8
0
 10
10.0
 20
31.250000000000021
 30
0.0
 11
12.0
 21
33.750000000000021
 31
0.0
1001
REVIT
1002
{
1070
     3
1000
211597
1002
}
  0
LINE
  5
452
  8
0
 10
42.0
 20
33.750000000000021
 30
0.0
 11
40.0
 21
36.250000000000021
 31
0.0
1001
REVIT
1002
{
1070
     3
1000
211597
1002
}
  0
LINE
  5
453
  8
0
 10
40.0
 20
36.250000000000021
 30
0.0
 11
20.0
 21
36.250000000000021
 31
0.0
1001
REVIT
1002
{
1070
     3
1000
211597
1002
}
  0
LINE
  5
454
  8
0
 10
20.0
 20
36.250000000000021
 30
0.0
 11
20.0
 21
31.250000000000021
 31
0.0
1001
REVIT
1002
{
1070
     3
1000
211597
1002
}
  0
LINE
  5
455
  8
0
 10
20.0
 20
31.250000000000021
 30
0.0
 11
40.0
 21
31.250000000000021
 31
0.0
1001
REVIT
1002
{
1070
     3
1000
211597
1002
}
  0
LINE
  5
456
  8
0
 10
40.0
 20
31.250000000000021
 30
0.0
 11
42.0
 21
33.750000000000021
 31
0.0
1001
REVIT
1002
{
1070
     3
1000
211597
1002
}
  0
LINE
  5
457
  8
0
 10
72.0
 20
33.750000000000021
 30
0.0
 11
70.0
 21
36.250000000000021
 31
0.0
1001
REVIT
1002
{
1070
     3
1000
211597
1002
}
  0
LINE
  5
458
  8
0
 10
70.0
 20
36.250000000000021
 30
0.0
 11
50.0
 21
36.250000000000021
 31
0.0
1001
REVIT
1002
{
1070
     3
1000
211597
1002
}
  0
LINE
  5
459
  8
0
 10
50.0
 20
36.250000000000021
 30
0.0
 11
50.0
 21
31.250000000000021
 31
0.0
1001
REVIT
1002
{
1070
     3
1000
211597
1002
}
  0
LINE
  5
45A
  8
0
 10
50.0
 20
31.250000000000021
 30
0.0
 11
70.0
 21
31.250000000000021
 31
0.0
1001
REVIT
1002
{
1070
     3
1000
211597
1002
}
  0
LINE
  5
45B
  8
0
 10
70.0
 20
31.250000000000021
 30
0.0
 11
72.0
 21
33.750000000000021
 31
0.0
1001
REVIT
1002
{
1070
     3
1000
211597
1002
}
  0
LINE
  5
45C
  8
0
 10
48.0
 20
43.750000000000021
 30
0.0
 11
50.0
 21
46.250000000000021
 31
0.0
1001
REVIT
1002
{
1070
     3
1000
211597
1002
}
  0
LINE
  5
45D
  8
0
 10
50.0
 20
46.250000000000021
 30
0.0
 11
70.0
 21
46.250000000000021
 31
0.0
1001
REVIT
1002
{
1070
     3
1000
211597
1002
}
  0
LINE
  5
45E
  8
0
 10
70.0
 20
46.250000000000021
 30
0.0
 11
70.0
 21
41.250000000000021
 31
0.0
1001
REVIT
1002
{
1070
     3
1000
211597
1002
}
  0
LINE
  5
45F
  8
0
 10
70.0
 20
41.250000000000021
 30
0.0
 11
50.0
 21
41.250000000000021
 31
0.0
1001
REVIT
1002
{
1070
     3
1000
211597
1002
}
  0
LINE
  5
460
  8
0
 10
50.0
 20
41.250000000000021
 30
0.0
 11
48.0
 21
43.750000000000021
 31
0.0
1001
REVIT
1002
{
1070
     3
1000
211597
1002
}
  0
LINE
  5
461
  8
0
 10
18.0
 20
43.750000000000021
 30
0.0
 11
20.0
 21
46.250000000000021
 31
0.0
1001
REVIT
1002
{
1070
     3
1000
211597
1002
}
  0
LINE
  5
462
  8
0
 10
20.0
 20
46.250000000000021
 30
0.0
 11
40.0
 21
46.250000000000021
 31
0.0
1001
REVIT
1002
{
1070
     3
1000
211597
1002
}
  0
LINE
  5
463
  8
0
 10
40.0
 20
46.250000000000021
 30
0.0
 11
40.0
 21
41.250000000000021
 31
0.0
1001
REVIT
1002
{
1070
     3
1000
211597
1002
}
  0
LINE
  5
464
  8
0
 10
40.0
 20
41.250000000000021
 30
0.0
 11
20.0
 21
41.250000000000021
 31
0.0
1001
REVIT
1002
{
1070
     3
1000
211597
1002
}
  0
LINE
  5
465
  8
0
 10
20.0
 20
41.250000000000021
 30
0.0
 11
18.0
 21
43.750000000000021
 31
0.0
1001
REVIT
1002
{
1070
     3
1000
211597
1002
}
  0
LINE
  5
466
  8
0
 10
-12.0
 20
43.750000000000021
 30
0.0
 11
-10.0
 21
46.250000000000021
 31
0.0
1001
REVIT
1002
{
1070
     3
1000
211597
1002
}
  0
LINE
  5
467
  8
0
 10
-10.0
 20
46.250000000000021
 30
0.0
 11
10.0
 21
46.250000000000021
 31
0.0
1001
REVIT
1002
{
1070
     3
1000
211597
1002
}
  0
LINE
  5
468
  8
0
 10
10.0
 20
46.250000000000021
 30
0.0
 11
10.0
 21
41.250000000000021
 31
0.0
1001
REVIT
1002
{
1070
     3
1000
211597
1002
}
  0
LINE
  5
469
  8
0
 10
10.0
 20
41.250000000000021
 30
0.0
 11
-10.0
 21
41.250000000000021
 31
0.0
1001
REVIT
1002
{
1070
     3
1000
211597
1002
}
  0
LINE
  5
46A
  8
0
 10
-10.0
 20
41.250000000000021
 30
0.0
 11
-12.0
 21
43.750000000000021
 31
0.0
1001
REVIT
1002
{
1070
     3
1000
211597
1002
}
  0
LINE
  5
46B
  8
0
 10
-42.0
 20
43.750000000000021
 30
0.0
 11
-40.0
 21
46.250000000000021
 31
0.0
1001
REVIT
1002
{
1070
     3
1000
211597
1002
}
  0
LINE
  5
46C
  8
0
 10
-40.0
 20
46.250000000000021
 30
0.0
 11
-20.0
 21
46.250000000000021
 31
0.0
1001
REVIT
1002
{
1070
     3
1000
211597
1002
}
  0
LINE
  5
46D
  8
0
 10
-20.0
 20
46.250000000000021
 30
0.0
 11
-20.0
 21
41.250000000000021
 31
0.0
1001
REVIT
1002
{
1070
     3
1000
211597
1002
}
  0
LINE
  5
46E
  8
0
 10
-20.0
 20
41.250000000000021
 30
0.0
 11
-40.0
 21
41.250000000000021
 31
0.0
1001
REVIT
1002
{
1070
     3
1000
211597
1002
}
  0
LINE
  5
46F
  8
0
 10
-40.0
 20
41.250000000000021
 30
0.0
 11
-42.0
 21
43.750000000000021
 31
0.0
1001
REVIT
1002
{
1070
     3
1000
211597
1002
}
  0
LINE
  5
470
  8
0
 10
-72.0
 20
43.750000000000021
 30
0.0
 11
-70.0
 21
46.250000000000021
 31
0.0
1001
REVIT
1002
{
1070
     3
1000
211597
1002
}
  0
LINE
  5
471
  8
0
 10
-70.0
 20
46.250000000000021
 30
0.0
 11
-50.0
 21
46.250000000000021
 31
0.0
1001
REVIT
1002
{
1070
     3
1000
211597
1002
}
  0
LINE
  5
472
  8
0
 10
-50.0
 20
46.250000000000021
 30
0.0
 11
-50.0
 21
41.250000000000021
 31
0.0
1001
REVIT
1002
{
1070
     3
1000
211597
1002
}
  0
LINE
  5
473
  8
0
 10
-50.0
 20
41.250000000000021
 30
0.0
 11
-70.0
 21
41.250000000000021
 31
0.0
1001
REVIT
1002
{
1070
     3
1000
211597
1002
}
  0
LINE
  5
474
  8
0
 10
-70.0
 20
41.250000000000021
 30
0.0
 11
-72.0
 21
43.750000000000021
 31
0.0
1001
REVIT
1002
{
1070
     3
1000
211597
1002
}
  0
LINE
  5
475
  8
0
 10
48.0
 20
63.750000000000021
 30
0.0
 11
50.0
 21
66.250000000000028
 31
0.0
1001
REVIT
1002
{
1070
     3
1000
211597
1002
}
  0
LINE
  5
476
  8
0
 10
50.0
 20
66.250000000000028
 30
0.0
 11
70.0
 21
66.250000000000028
 31
0.0
1001
REVIT
1002
{
1070
     3
1000
211597
1002
}
  0
LINE
  5
477
  8
0
 10
70.0
 20
66.250000000000028
 30
0.0
 11
70.0
 21
61.250000000000028
 31
0.0
1001
REVIT
1002
{
1070
     3
1000
211597
1002
}
  0
LINE
  5
478
  8
0
 10
70.0
 20
61.250000000000028
 30
0.0
 11
50.0
 21
61.250000000000028
 31
0.0
1001
REVIT
1002
{
1070
     3
1000
211597
1002
}
  0
LINE
  5
479
  8
0
 10
50.0
 20
61.250000000000028
 30
0.0
 11
48.0
 21
63.750000000000021
 31
0.0
1001
REVIT
1002
{
1070
     3
1000
211597
1002
}
  0
LINE
  5
47A
  8
0
 10
18.0
 20
63.750000000000021
 30
0.0
 11
20.0
 21
66.250000000000028
 31
0.0
1001
REVIT
1002
{
1070
     3
1000
211597
1002
}
  0
LINE
  5
47B
  8
0
 10
20.0
 20
66.250000000000028
 30
0.0
 11
40.0
 21
66.250000000000028
 31
0.0
1001
REVIT
1002
{
1070
     3
1000
211597
1002
}
  0
LINE
  5
47C
  8
0
 10
40.0
 20
66.250000000000028
 30
0.0
 11
40.0
 21
61.250000000000028
 31
0.0
1001
REVIT
1002
{
1070
     3
1000
211597
1002
}
  0
LINE
  5
47D
  8
0
 10
40.0
 20
61.250000000000028
 30
0.0
 11
20.0
 21
61.250000000000028
 31
0.0
1001
REVIT
1002
{
1070
     3
1000
211597
1002
}
  0
LINE
  5
47E
  8
0
 10
20.0
 20
61.250000000000028
 30
0.0
 11
18.0
 21
63.750000000000021
 31
0.0
1001
REVIT
1002
{
1070
     3
1000
211597
1002
}
  0
LINE
  5
47F
  8
0
 10
-12.0
 20
63.750000000000021
 30
0.0
 11
-10.0
 21
66.250000000000028
 31
0.0
1001
REVIT
1002
{
1070
     3
1000
211597
1002
}
  0
LINE
  5
480
  8
0
 10
-10.0
 20
66.250000000000028
 30
0.0
 11
10.0
 21
66.250000000000028
 31
0.0
1001
REVIT
1002
{
1070
     3
1000
211597
1002
}
  0
LINE
  5
481
  8
0
 10
10.0
 20
66.250000000000028
 30
0.0
 11
10.0
 21
61.250000000000028
 31
0.0
1001
REVIT
1002
{
1070
     3
1000
211597
1002
}
  0
LINE
  5
482
  8
0
 10
10.0
 20
61.250000000000028
 30
0.0
 11
-10.0
 21
61.250000000000028
 31
0.0
1001
REVIT
1002
{
1070
     3
1000
211597
1002
}
  0
LINE
  5
483
  8
0
 10
-10.0
 20
61.250000000000028
 30
0.0
 11
-12.0
 21
63.750000000000021
 31
0.0
1001
REVIT
1002
{
1070
     3
1000
211597
1002
}
  0
LINE
  5
484
  8
0
 10
-42.0
 20
63.750000000000021
 30
0.0
 11
-40.0
 21
66.250000000000028
 31
0.0
1001
REVIT
1002
{
1070
     3
1000
211597
1002
}
  0
LINE
  5
485
  8
0
 10
-40.0
 20
66.250000000000028
 30
0.0
 11
-20.0
 21
66.250000000000028
 31
0.0
1001
REVIT
1002
{
1070
     3
1000
211597
1002
}
  0
LINE
  5
486
  8
0
 10
-20.0
 20
66.250000000000028
 30
0.0
 11
-20.0
 21
61.250000000000028
 31
0.0
1001
REVIT
1002
{
1070
     3
1000
211597
1002
}
  0
LINE
  5
487
  8
0
 10
-20.0
 20
61.250000000000028
 30
0.0
 11
-40.0
 21
61.250000000000028
 31
0.0
1001
REVIT
1002
{
1070
     3
1000
211597
1002
}
  0
LINE
  5
488
  8
0
 10
-40.0
 20
61.250000000000028
 30
0.0
 11
-42.0
 21
63.750000000000021
 31
0.0
1001
REVIT
1002
{
1070
     3
1000
211597
1002
}
  0
LINE
  5
489
  8
0
 10
-72.0
 20
63.750000000000021
 30
0.0
 11
-70.0
 21
66.250000000000028
 31
0.0
1001
REVIT
1002
{
1070
     3
1000
211597
1002
}
  0
LINE
  5
48A
  8
0
 10
-70.0
 20
66.250000000000028
 30
0.0
 11
-50.0
 21
66.250000000000028
 31
0.0
1001
REVIT
1002
{
1070
     3
1000
211597
1002
}
  0
LINE
  5
48B
  8
0
 10
-50.0
 20
66.250000000000028
 30
0.0
 11
-50.0
 21
61.250000000000028
 31
0.0
1001
REVIT
1002
{
1070
     3
1000
211597
1002
}
  0
LINE
  5
48C
  8
0
 10
-50.0
 20
61.250000000000028
 30
0.0
 11
-70.0
 21
61.250000000000028
 31
0.0
1001
REVIT
1002
{
1070
     3
1000
211597
1002
}
  0
LINE
  5
48D
  8
0
 10
-70.0
 20
61.250000000000028
 30
0.0
 11
-72.0
 21
63.750000000000021
 31
0.0
1001
REVIT
1002
{
1070
     3
1000
211597
1002
}
  0
LINE
  5
48E
  8
0
 10
-188.07446062886311
 20
92.603345190867429
 30
0.0
 11
-141.3619403906099
 21
104.2500845696422
 31
0.0
1001
REVIT
1002
{
1070
     3
1000
773559
1002
}
  0
LINE
  5
48F
  8
0
 10
-175.64739518305529
 20
89.511288795328454
 30
0.0
 11
-186.62133539268561
 21
86.775178199575336
 31
0.0
1001
REVIT
1002
{
1070
     3
1000
773559
1002
}
  0
LINE
  5
490
  8
0
 10
-219.89140287714301
 20
67.8259463645106
 30
0.0
 11
-174.11905689388701
 21
84.485717854953208
 31
0.0
1001
REVIT
1002
{
1070
     3
1000
773559
1002
}
  0
LINE
  5
491
  8
0
 10
-220.10184298187031
 20
67.761608367809771
 30
0.0
 11
-219.89140287714309
 21
67.8259463645106
 31
0.0
1001
REVIT
1002
{
1070
     3
1000
773559
1002
}
  0
LINE
  5
492
  8
0
 10
-366.42532883691291
 20
31.263108021381321
 30
0.0
 11
-220.10184298187039
 21
67.761608367809686
 31
0.0
1001
REVIT
1002
{
1070
     3
1000
773559
1002
}
  0
LINE
  5
493
  8
0
 10
-366.14282478597642
 20
20.826534270404839
 30
0.0
 11
-368.12856689976422
 21
28.790910879289552
 31
0.0
1001
REVIT
1002
{
1070
     3
1000
773559
1002
}
  0
LINE
  5
494
  8
0
 10
-358.62846289241708
 20
20.072079384728578
 30
0.0
 11
-363.92145061394331
 21
19.32819847227552
 31
0.0
1001
REVIT
1002
{
1070
     3
1000
773559
1002
}
  0
LINE
  5
495
  8
0
 10
-394.02895650786388
 20
4.4450601748989618
 30
0.0
 11
-358.00155061270237
 21
17.557963538567051
 31
0.0
1001
REVIT
1002
{
1070
     3
1000
773559
1002
}
  0
LINE
  5
496
  8
0
 10
-540.70445104070416
 20
-32.125247943018948
 30
0.0
 11
-394.02895650786331
 21
4.4450601748991749
 31
0.0
1001
REVIT
1002
{
1070
     3
1000
773559
1002
}
  0
LINE
  5
497
  8
0
 10
-540.16747224153198
 20
-42.513599429784357
 30
0.0
 11
-542.16275803860492
 21
-34.552506772775963
 31
0.0
1001
REVIT
1002
{
1070
     3
1000
773559
1002
}
  0
LINE
  5
498
  8
0
 10
-525.36588979754083
 20
-40.681858710338602
 30
0.0
 11
-537.79803491267148
 21
-43.781540622985467
 31
0.0
1001
REVIT
1002
{
1070
     3
1000
773559
1002
}
  0
ARC
  5
499
  8
0
 10
-187.29762542789729
 20
89.701796057907927
 30
0.0
 40
3.0037410508294449
 50
104.9883454356475
 51
283.01165456438929
1001
REVIT
1002
{
1070
     3
1000
773559
1002
}
  0
ARC
  5
49A
  8
0
 10
-175.08598327104031
 20
86.936842342614113
 30
0.0
 40
2.6349493112479041
 50
291.52838004182792
 51
102.30195052509249
1001
REVIT
1002
{
1070
     3
1000
773559
1002
}
  0
ARC
  5
49B
  8
0
 10
-366.18584456933849
 20
29.275285958014329
 30
0.0
 40
2.0021961117793401
 50
96.869640961641977
 51
194.0000000000241
1001
REVIT
1002
{
1070
     3
1000
773559
1002
}
  0
ARC
  5
49C
  8
0
 10
-364.20010245555011
 20
21.31090934912978
 30
0.0
 40
2.0021961117799791
 50
194.0000000000241
 51
278.00000000000091
1001
REVIT
1002
{
1070
     3
1000
773559
1002
}
  0
ARC
  5
49D
  8
0
 10
-358.47523747013179
 20
18.775066817319569
 30
0.0
 40
1.3060320172382529
 50
291.26558942058148
 51
96.737534394829837
1001
REVIT
1002
{
1070
     3
1000
773559
1002
}
  0
ARC
  5
49E
  8
0
 10
-540.22007596198023
 20
-34.067970273444551
 30
0.0
 40
2.0021961117790461
 50
104.0000000000028
 51
194.0047607500363
1001
REVIT
1002
{
1070
     3
1000
773559
1002
}
  0
ARC
  5
49F
  8
0
 10
-538.28240999140041
 20
-41.838818292561108
 30
0.0
 40
2.0021961117791012
 50
199.6954505122126
 51
284.00000000015058
1001
REVIT
1002
{
1070
     3
1000
773559
1002
}
  0
LINE
  5
4A0
  8
0
 10
-0.0000000000002274
 20
13.74999999999994
 30
0.0
 11
529.20690860982404
 21
-178.86556250200979
 31
0.0
1001
REVIT
1002
{
1070
     3
1000
206265
1002
}
  0
LINE
  5
4A1
  8
0
 10
529.20690860982381
 20
-72.44778525441842
 30
0.0
 11
-0.0000000000004547
 21
120.1677772475914
 31
0.0
1001
REVIT
1002
{
1070
     3
1000
206265
1002
}
  0
LINE
  5
4A2
  8
0
 10
0.0000000000004547
 20
120.1677772475914
 30
0.0
 11
-529.20690860982381
 21
-72.44778525441842
 31
0.0
1001
REVIT
1002
{
1070
     3
1000
206265
1002
}
  0
LINE
  5
4A3
  8
0
 10
-529.20690860982404
 20
-178.86556250200979
 30
0.0
 11
0.0000000000002274
 21
13.75
 31
0.0
1001
REVIT
1002
{
1070
     3
1000
206265
1002
}
  0
LINE
  5
4A4
  8
0
 10
-158.8641430875341
 20
101.4106678637085
 30
0.0
 11
-155.10537260438929
 21
102.7787484370119
 31
0.0
1001
REVIT
1002
{
1070
     3
1000
211597
1002
}
  0
LINE
  5
4A5
  8
0
 10
-149.3316257523696
 20
79.605998335032155
 30
0.0
 11
-157.19808904886139
 21
101.21892861310759
 31
0.0
1001
REVIT
1002
{
1070
     3
1000
211597
1002
}
  0
LINE
  5
4A6
  8
0
 10
-148.17773915532419
 20
77.897623165123662
 30
0.0
 11
-149.3316257523696
 21
79.605998335032155
 31
0.0
1001
REVIT
1002
{
1070
     3
1000
211597
1002
}
  0
LINE
  5
4A7
  8
0
 10
-148.3919331315837
 20
79.948018478357895
 30
0.0
 11
-148.17773915532419
 21
77.897623165123662
 31
0.0
1001
REVIT
1002
{
1070
     3
1000
211597
1002
}
  0
LINE
  5
4A8
  8
0
 10
-156.25839642807551
 20
101.56094875643331
 30
0.0
 11
-148.3919331315837
 21
79.948018478357895
 31
0.0
1001
REVIT
1002
{
1070
     3
1000
211597
1002
}
  0
LINE
  5
4A9
  8
0
 10
-155.130893512543
 20
101.97132625673549
 30
0.0
 11
-156.25839642807551
 21
101.56094875643331
 31
0.0
1001
REVIT
1002
{
1070
     3
1000
211597
1002
}
  0
LINE
  5
4AA
  8
0
 10
-157.19808904886139
 20
101.21892861310759
 30
0.0
 11
-158.3255919643934
 21
100.8085511128055
 31
0.0
1001
REVIT
1002
{
1070
     3
1000
211597
1002
}
  0
LINE
  5
4AB
  8
0
 10
-158.8641430875341
 20
101.4106678637085
 30
0.0
 11
-158.3255919643934
 21
100.8085511128055
 31
0.0
1001
REVIT
1002
{
1070
     3
1000
211597
1002
}
  0
LINE
  5
4AC
  8
0
 10
-155.10537260438929
 20
102.7787484370119
 30
0.0
 11
-155.130893512543
 21
101.97132625673549
 31
0.0
1001
REVIT
1002
{
1070
     3
1000
211597
1002
}
  0
LINE
  5
4AD
  8
0
 10
-56.010589418843033
 20
154.73464138671511
 30
0.0
 11
-52.206363353661118
 21
155.97070936421531
 31
0.0
1001
REVIT
1002
{
1070
     3
1000
211597
1002
}
  0
LINE
  5
4AE
  8
0
 10
-39.519426168621941
 20
108.8341617088886
 30
0.0
 11
-54.352241898619518
 21
154.48487449105599
 31
0.0
1001
REVIT
1002
{
1070
     3
1000
211597
1002
}
  0
LINE
  5
4AF
  8
0
 10
-38.425863921723398
 20
107.0865571734862
 30
0.0
 11
-39.519426168621941
 21
108.8341617088886
 31
0.0
1001
REVIT
1002
{
1070
     3
1000
211597
1002
}
  0
LINE
  5
4B0
  8
0
 10
-38.568369652326787
 20
109.1431787032636
 30
0.0
 11
-38.425863921723398
 21
107.0865571734862
 31
0.0
1001
REVIT
1002
{
1070
     3
1000
211597
1002
}
  0
LINE
  5
4B1
  8
0
 10
-53.401185382324371
 20
154.793891485431
 30
0.0
 11
-38.568369652326787
 21
109.1431787032636
 31
0.0
1001
REVIT
1002
{
1070
     3
1000
211597
1002
}
  0
LINE
  5
4B2
  8
0
 10
-52.260047342885372
 20
155.16466971056531
 30
0.0
 11
-53.401185382324371
 21
154.793891485431
 31
0.0
1001
REVIT
1002
{
1070
     3
1000
211597
1002
}
  0
LINE
  5
4B3
  8
0
 10
-54.352241898619518
 20
154.48487449105599
 30
0.0
 11
-55.493379938058091
 21
154.1140962659218
 31
0.0
1001
REVIT
1002
{
1070
     3
1000
211597
1002
}
  0
LINE
  5
4B4
  8
0
 10
-56.010589418843033
 20
154.73464138671511
 30
0.0
 11
-55.493379938058091
 21
154.1140962659218
 31
0.0
1001
REVIT
1002
{
1070
     3
1000
211597
1002
}
  0
LINE
  5
4B5
  8
0
 10
-52.206363353661118
 20
155.97070936421531
 30
0.0
 11
-52.260047342885372
 21
155.16466971056531
 31
0.0
1001
REVIT
1002
{
1070
     3
1000
211597
1002
}
  0
LINE
  5
4B6
  8
0
 10
-529.72003662195596
 20
-69.442015259775559
 30
0.0
 11
-39.560759220896422
 21
108.9613717634152
 31
0.0
  0
LINE
  5
4B7
  8
0
 10
-38.62379561088872
 20
109.30239862804819
 30
0.0
 11
-0.0000000000027187
 21
123.36031056477449
 31
0.0
  0
LINE
  5
4B8
  8
0
 10
-0.0000000000027187
 20
123.36031056477449
 30
0.0
 11
-5.1303021498820822
 21
137.4556998765654
 31
0.0
  0
LINE
  5
4B9
  8
0
 10
-5.1303021498820822
 20
137.4556998765654
 30
0.0
 11
-43.258574124662474
 21
123.5781437937566
 31
0.0
  0
LINE
  5
4BA
  8
0
 10
-44.198839529728119
 20
123.2359151740029
 30
0.0
 11
-150.11611833588631
 21
84.685178394135534
 31
0.0
  0
LINE
  5
4BB
  8
0
 10
-151.0558109566723
 20
84.343158250810276
 30
0.0
 11
-534.85033877183525
 21
-55.346625947984698
 31
0.0
  0
LINE
  5
4BC
  8
0
 10
-2.5651510749425679
 20
130.40800522067039
 30
0.0
 11
-40.939533970246771
 21
116.44087208846319
 31
0.0
1001
REVIT
1002
{
1070
     3
1000
456193
1002
}
  0
LINE
  5
4BD
  8
0
 10
-41.879799375312409
 20
116.0986434687095
 30
0.0
 11
-532.28518769689583
 21
-62.394320603879663
 31
0.0
1001
REVIT
1002
{
1070
     3
1000
456193
1002
}
  0
LINE
  5
4BE
  8
0
 10
-1.710100716629154
 20
128.0587736687047
 30
0.0
 11
-40.16652058544129
 21
114.0617815200314
 31
0.0
1001
REVIT
1002
{
1070
     3
1000
456193
1002
}
  0
LINE
  5
4BF
  8
0
 10
-41.106785990506928
 20
113.71955290027771
 30
0.0
 11
-531.43013733858231
 21
-64.743552155845322
 31
0.0
1001
REVIT
1002
{
1070
     3
1000
456193
1002
}
  0
LINE
  5
4C0
  8
0
 10
-3.4202014332555049
 20
132.7572367726348
 30
0.0
 11
-41.712547355051782
 21
118.81996265689369
 31
0.0
1001
REVIT
1002
{
1070
     3
1000
456193
1002
}
  0
LINE
  5
4C1
  8
0
 10
-42.652812760117421
 20
118.47773403714
 30
0.0
 11
-148.39193313158381
 21
79.991841624483811
 31
0.0
1001
REVIT
1002
{
1070
     3
1000
456193
1002
}
  0
LINE
  5
4C2
  8
0
 10
-149.3316257523696
 20
79.649821481158625
 30
0.0
 11
-533.1402380552081
 21
-60.045089051915078
 31
0.0
1001
REVIT
1002
{
1070
     3
1000
456193
1002
}
  0
LINE
  5
4C3
  8
0
 10
-4.2752517915687234
 20
135.10646832459989
 30
0.0
 11
-42.485560739857
 21
121.199053225325
 31
0.0
1001
REVIT
1002
{
1070
     3
1000
456193
1002
}
  0
LINE
  5
4C4
  8
0
 10
-43.425826144922702
 20
120.85682460557121
 30
0.0
 11
-149.2610679775718
 21
82.335946842170429
 31
0.0
1001
REVIT
1002
{
1070
     3
1000
456193
1002
}
  0
LINE
  5
4C5
  8
0
 10
-150.20076059835779
 20
81.993926698845172
 30
0.0
 11
-533.99528841352128
 21
-57.695857499949959
 31
0.0
1001
REVIT
1002
{
1070
     3
1000
456193
1002
}
  0
LINE
  5
4C6
  8
0
 10
-0.8550503583159361
 20
125.7095421167396
 30
0.0
 11
-39.393507200636073
 21
111.68269095160009
 31
0.0
1001
REVIT
1002
{
1070
     3
1000
456193
1002
}
  0
LINE
  5
4C7
  8
0
 10
-40.333772605701697
 20
111.3404623318464
 30
0.0
 11
-530.57508698026902
 21
-67.092783707810412
 31
0.0
1001
REVIT
1002
{
1070
     3
1000
456193
1002
}
  0
LINE
  5
4C8
  8
0
 10
56.010589418843033
 20
154.73464138671511
 30
0.0
 11
52.206363353661118
 21
155.97070936421531
 31
0.0
1001
REVIT
1002
{
1070
     3
1000
211597
1002
}
  0
LINE
  5
4C9
  8
0
 10
39.519426168621898
 20
108.8341617088887
 30
0.0
 11
54.352241898619518
 21
154.48487449105599
 31
0.0
1001
REVIT
1002
{
1070
     3
1000
211597
1002
}
  0
LINE
  5
4CA
  8
0
 10
38.425863921723362
 20
107.0865571734862
 30
0.0
 11
39.519426168621898
 21
108.8341617088887
 31
0.0
1001
REVIT
1002
{
1070
     3
1000
211597
1002
}
  0
LINE
  5
4CB
  8
0
 10
38.568369652326759
 20
109.1431787032636
 30
0.0
 11
38.425863921723362
 21
107.0865571734862
 31
0.0
1001
REVIT
1002
{
1070
     3
1000
211597
1002
}
  0
LINE
  5
4CC
  8
0
 10
53.401185382324371
 20
154.793891485431
 30
0.0
 11
38.568369652326759
 21
109.1431787032636
 31
0.0
1001
REVIT
1002
{
1070
     3
1000
211597
1002
}
  0
LINE
  5
4CD
  8
0
 10
52.260047342885372
 20
155.16466971056531
 30
0.0
 11
53.401185382324371
 21
154.793891485431
 31
0.0
1001
REVIT
1002
{
1070
     3
1000
211597
1002
}
  0
LINE
  5
4CE
  8
0
 10
54.352241898619518
 20
154.48487449105599
 30
0.0
 11
55.493379938058091
 21
154.1140962659218
 31
0.0
1001
REVIT
1002
{
1070
     3
1000
211597
1002
}
  0
LINE
  5
4CF
  8
0
 10
56.010589418843033
 20
154.73464138671511
 30
0.0
 11
55.493379938058091
 21
154.1140962659218
 31
0.0
1001
REVIT
1002
{
1070
     3
1000
211597
1002
}
  0
LINE
  5
4D0
  8
0
 10
52.206363353661118
 20
155.97070936421531
 30
0.0
 11
52.260047342885372
 21
155.16466971056531
 31
0.0
1001
REVIT
1002
{
1070
     3
1000
211597
1002
}
  0
LINE
  5
4D1
  8
0
 10
534.63962253424404
 20
-55.269931509625017
 30
0.0
 11
151.05581095667611
 21
84.343158250814213
 31
0.0
  0
LINE
  5
4D2
  8
0
 10
150.11611833589009
 20
84.685178394139498
 30
0.0
 11
44.198839529730101
 21
123.23591517400899
 31
0.0
  0
LINE
  5
4D3
  8
0
 10
43.258574124664428
 20
123.57814379376271
 30
0.0
 11
5.1303021498850399
 21
137.45569987657171
 31
0.0
  0
LINE
  5
4D4
  8
0
 10
5.130302149885039
 20
137.45569987657171
 30
0.0
 11
0.0000000000055027
 21
123.3603105647809
 31
0.0
  0
LINE
  5
4D5
  8
0
 10
0.0000000000055036
 20
123.3603105647809
 30
0.0
 11
38.623795610890802
 21
109.30239862805431
 31
0.0
  0
LINE
  5
4D6
  8
0
 10
39.560759220898291
 20
108.9613717634214
 30
0.0
 11
529.50932038436451
 21
-69.365320821415821
 31
0.0
  0
LINE
  5
4D7
  8
0
 10
2.5651510749454389
 20
130.4080052206767
 30
0.0
 11
40.939533970248682
 21
116.4408720884694
 31
0.0
1001
REVIT
1002
{
1070
     3
1000
456193
1002
}
  0
LINE
  5
4D8
  8
0
 10
41.879799375314349
 20
116.09864346871559
 30
0.0
 11
532.0744714593045
 21
-62.317626165519947
 31
0.0
1001
REVIT
1002
{
1070
     3
1000
456193
1002
}
  0
LINE
  5
4D9
  8
0
 10
1.7101007166319959
 20
128.0587736687111
 30
0.0
 11
40.166520585443223
 21
114.0617815200376
 31
0.0
1001
REVIT
1002
{
1070
     3
1000
456193
1002
}
  0
LINE
  5
4DA
  8
0
 10
41.106785990508889
 20
113.7195529002838
 30
0.0
 11
531.21942110099087
 21
-64.666857717485584
 31
0.0
1001
REVIT
1002
{
1070
     3
1000
456193
1002
}
  0
LINE
  5
4DB
  8
0
 10
3.4202014332584052
 20
132.75723677264111
 30
0.0
 11
41.712547355053822
 21
118.8199626568998
 31
0.0
1001
REVIT
1002
{
1070
     3
1000
456193
1002
}
  0
LINE
  5
4DC
  8
0
 10
42.652812760119318
 20
118.47773403714611
 30
0.0
 11
148.3919331315862
 21
79.991841624488302
 31
0.0
1001
REVIT
1002
{
1070
     3
1000
456193
1002
}
  0
LINE
  5
4DD
  8
0
 10
149.3316257523721
 20
79.649821481163045
 30
0.0
 11
532.92952181761666
 21
-59.968394613555382
 31
0.0
1001
REVIT
1002
{
1070
     3
1000
456193
1002
}
  0
LINE
  5
4DE
  8
0
 10
4.2752517915716526
 20
135.1064683246062
 30
0.0
 11
42.485560739859103
 21
121.1990532253311
 31
0.0
1001
REVIT
1002
{
1070
     3
1000
456193
1002
}
  0
LINE
  5
4DF
  8
0
 10
43.425826144924592
 20
120.8568246055774
 30
0.0
 11
149.26106797757561
 21
82.335946842174408
 31
0.0
1001
REVIT
1002
{
1070
     3
1000
456193
1002
}
  0
LINE
  5
4E0
  8
0
 10
150.2007605983616
 20
81.993926698849151
 30
0.0
 11
533.78457217592995
 21
-57.619163061590292
 31
0.0
1001
REVIT
1002
{
1070
     3
1000
456193
1002
}
  0
LINE
  5
4E1
  8
0
 10
0.8550503583187495
 20
125.70954211674599
 30
0.0
 11
39.39350720063814
 21
111.6826909516063
 31
0.0
1001
REVIT
1002
{
1070
     3
1000
456193
1002
}
  0
LINE
  5
4E2
  8
0
 10
40.333772605703643
 20
111.34046233185261
 30
0.0
 11
530.36437074267758
 21
-67.016089269450674
 31
0.0
1001
REVIT
1002
{
1070
     3
1000
456193
1002
}
  0
LINE
  5
4E3
  8
0
  6
DASH
 10
-72.256289705260969
 20
131.19216408033699
 30
0.0
 11
-49.216370497432919
 21
138.6782876305752
 31
0.0
1001
REVIT
1002
{
1070
     3
1000
217411
1002
}
  0
LINE
  5
4E4
  8
0
  6
DASH
 10
-48.26531398113778
 20
138.9873046249501
 30
0.0
 11
0.0000000000003553
 21
154.66965578228729
 31
0.0
1001
REVIT
1002
{
1070
     3
1000
217411
1002
}
  0
LINE
  5
4E5
  8
0
  6
DASH
 10
72.256289705261651
 20
131.19216408033699
 30
0.0
 11
49.216370497432933
 21
138.6782876305754
 31
0.0
1001
REVIT
1002
{
1070
     3
1000
217411
1002
}
  0
LINE
  5
4E6
  8
0
  6
DASH
 10
48.265313981137709
 20
138.98730462495041
 30
0.0
 11
0.0000000000003553
 21
154.66965578228729
 31
0.0
1001
REVIT
1002
{
1070
     3
1000
217411
1002
}
  0
LINE
  5
4E7
  8
0
 10
0.0000000000000069
 20
171.5152691095727
 30
0.0
 11
53.216115520937528
 21
154.22430501981449
 31
0.0
1001
REVIT
1002
{
1070
     3
1000
224528
1002
}
  0
LINE
  5
4E8
  8
0
 10
54.167172037232739
 20
153.91528802543951
 30
0.0
 11
133.96432665277459
 21
127.9876207875074
 31
0.0
1001
REVIT
1002
{
1070
     3
1000
224528
1002
}
  0
LINE
  5
4E9
  8
0
 10
133.96432665277459
 20
127.9876207875074
 30
0.0
 11
137.92730022360189
 21
112.0930019495266
 31
0.0
1001
REVIT
1002
{
1070
     3
1000
224528
1002
}
  0
LINE
  5
4EA
  8
0
 10
-0.0000000000000056
 20
171.5152691095727
 30
0.0
 11
-53.216115520938096
 21
154.2243050198143
 31
0.0
1001
REVIT
1002
{
1070
     3
1000
224528
1002
}
  0
LINE
  5
4EB
  8
0
 10
-54.167172037233222
 20
153.91528802543931
 30
0.0
 11
-133.96432665277459
 21
127.9876207875074
 31
0.0
1001
REVIT
1002
{
1070
     3
1000
224528
1002
}
  0
LINE
  5
4EC
  8
0
 10
-133.96432665277459
 20
127.9876207875074
 30
0.0
 11
-137.92730022360189
 21
112.0930019495266
 31
0.0
1001
REVIT
1002
{
1070
     3
1000
224528
1002
}
  0
LINE
  5
4ED
  8
0
  6
DASH
 10
0.0
 20
144.64386601453739
 30
0.0
 11
-44.804600894340432
 21
128.33632493082061
 31
0.0
1001
REVIT
1002
{
1070
     3
1000
217411
1002
}
  0
LINE
  5
4EE
  8
0
  6
DASH
 10
-45.74486629940602
 20
127.9940963110665
 30
0.0
 11
-151.82621905257361
 21
89.383641498220527
 31
0.0
1001
REVIT
1002
{
1070
     3
1000
217411
1002
}
  0
LINE
  5
4EF
  8
0
  6
DASH
 10
538.12857768950391
 20
-51.218918472450483
 30
0.0
 11
152.7659116733598
 21
89.041621354894801
 31
0.0
1001
REVIT
1002
{
1070
     3
1000
217411
1002
}
  0
LINE
  5
4F0
  8
0
  6
DASH
 10
151.826219052574
 20
89.383641498220484
 30
0.0
 11
45.7448662994044
 21
127.99409631106749
 31
0.0
1001
REVIT
1002
{
1070
     3
1000
217411
1002
}
  0
LINE
  5
4F1
  8
0
  6
DASH
 10
44.804600894338868
 20
128.3363249308216
 30
0.0
 11
0.00000000000216
 21
144.6438660145372
 31
0.0
1001
REVIT
1002
{
1070
     3
1000
217411
1002
}
  0
LINE
  5
4F2
  8
0
  6
DASH
 10
-5.8143424366106133
 20
139.3350851183518
 30
0.0
 11
-43.876984832572013
 21
125.4814162487031
 31
0.0
1001
REVIT
1002
{
1070
     3
1000
217411
1002
}
  0
LINE
  5
4F3
  8
0
  6
DASH
 10
-44.817250237637531
 20
125.1391876289489
 30
0.0
 11
-150.8001586225943
 21
86.564563635862854
 31
0.0
1001
REVIT
1002
{
1070
     3
1000
217411
1002
}
  0
LINE
  5
4F4
  8
0
  6
DASH
 10
-151.7398512433802
 20
86.222543492537199
 30
0.0
 11
-529.17852865272459
 21
-51.15390034526726
 31
0.0
1001
REVIT
1002
{
1070
     3
1000
217411
1002
}
  0
LINE
  5
4F5
  8
0
 10
-73.095110004076375
 20
-12.854444311897421
 30
0.0
 11
-162.02802951217211
 21
-166.89077936535151
 31
0.0
1001
REVIT
1002
{
1070
     3
1000
206265
1002
}
  0
LINE
  5
4F6
  8
0
 10
-104.29300259320929
 20
-166.8907793653517
 30
0.0
 11
0.00000000000054
 21
13.749999999999259
 31
0.0
1001
REVIT
1002
{
1070
     3
1000
206265
1002
}
  0
LINE
  5
4F7
  8
0
 10
-0.00000000000054
 20
13.749999999999289
 30
0.0
 11
104.29300259320929
 21
-166.8907793653517
 31
0.0
1001
REVIT
1002
{
1070
     3
1000
206265
1002
}
  0
LINE
  5
4F8
  8
0
 10
162.02802951217211
 20
-166.89077936535151
 30
0.0
 11
73.095110004076332
 21
-12.854444311897341
 31
0.0
1001
REVIT
1002
{
1070
     3
1000
206265
1002
}
  0
VIEWPORT
  5
3A4
 67
     1
  8
0
  6
CONTINUOUS
 10
128.5
 20
97.5
 30
0.0
 40
582.84205479452055
 41
222.18000000000001
 68
     1
 69
     1
1001
ACAD
1000
MVIEW
1002
{
1070
    16
1010
0.0
1020
0.0
1030
0.0
1010
0.0
1020
0.0
1030
1.0
1040
0.0
1040
222.18000000000001
1040
128.5
1040
97.5
1040
50.0
1040
0.0
1040
0.0
1070
     0
1070
   100
1070
     1
1070
     1
1070
     0
1070
     0
1070
     0
1070
     0
1040
0.0
1040
0.0
1040
0.0
1040
10.0
1040
10.0
1040
10.0
1040
10.0
1070
     0
1002
{
1002
}
1002
}
  0
VIEWPORT
  5
3A8
 67
     1
  8
0
  6
CONTINUOUS
 10
128.5
 20
97.5
 30
0.0
 40
205.59999999999999
 41
156.0
 68
     2
 69
     2
1001
ACAD
1000
MVIEW
1002
{
1070
    16
1010
0.0
1020
0.0
1030
0.0
1010
0.0
1020
0.0
1030
1.0
1040
0.0
1040
1099.2375200928191
1040
0.0000000000011369
1040
82.034281435940287
1040
50.0
1040
0.0
1040
0.0
1070
     0
1070
  1000
1070
     1
1070
     1
1070
     0
1070
     0
1070
     0
1070
     0
1040
0.0
1040
0.0
1040
0.0
1040
1.0
1040
1.0
1040
0.0
1040
0.0
1070
     0
1002
{
1002
}
1002
}
  0
ENDSEC
  0
EOF
