  0
SECTION
  2
HEADER
  9
$ACADVER
  1
AC1009
  9
$INSBASE
 10
0.0
 20
0.0
 30
0.0
  9
$EXTMIN
 10
-288.092548755282
 20
-456.32292507582258
 30
0.0
  9
$EXTMAX
 10
2064.5182497049832
 20
1090.792618518027
 30
0.0
  9
$LIMMIN
 10
0.0
 20
0.0
  9
$LIMMAX
 10
12.0
 20
9.0
  9
$ORTHOMODE
 70
     0
  9
$REGENMODE
 70
     1
  9
$FILLMODE
 70
     1
  9
$QTEXTMODE
 70
     0
  9
$MIRRTEXT
 70
     0
  9
$DRAGMODE
 70
     2
  9
$LTSCALE
 40
1.0
  9
$OSMODE
 70
   127
  9
$ATTMODE
 70
     1
  9
$TEXTSIZE
 40
0.2
  9
$TRACEWID
 40
0.05
  9
$TEXTSTYLE
  7
STANDARD
  9
$CLAYER
  8
0
  9
$CELTYPE
  6
BYLAYER
  9
$CECOLOR
 62
   256
  9
$DIMSCALE
 40
1.0
  9
$DIMASZ
 40
0.18
  9
$DIMEXO
 40
0.0625
  9
$DIMDLI
 40
0.38
  9
$DIMRND
 40
0.0
  9
$DIMDLE
 40
0.0
  9
$DIMEXE
 40
0.18
  9
$DIMTP
 40
0.0
  9
$DIMTM
 40
0.0
  9
$DIMTXT
 40
0.18
  9
$DIMCEN
 40
0.09
  9
$DIMTSZ
 40
0.0
  9
$DIMTOL
 70
     0
  9
$DIMLIM
 70
     0
  9
$DIMTIH
 70
     1
  9
$DIMTOH
 70
     1
  9
$DIMSE1
 70
     0
  9
$DIMSE2
 70
     0
  9
$DIMTAD
 70
     0
  9
$DIMZIN
 70
     0
  9
$DIMBLK
  1

  9
$DIMASO
 70
     1
  9
$DIMSHO
 70
     1
  9
$DIMPOST
  1

  9
$DIMAPOST
  1

  9
$DIMALT
 70
     0
  9
$DIMALTD
 70
     2
  9
$DIMALTF
 40
25.399999999999999
  9
$DIMLFAC
 40
1.0
  9
$DIMTOFL
 70
     0
  9
$DIMTVP
 40
0.0
  9
$DIMTIX
 70
     0
  9
$DIMSOXD
 70
     0
  9
$DIMSAH
 70
     0
  9
$DIMBLK1
  1

  9
$DIMBLK2
  1

  9
$DIMSTYLE
  2
STANDARD
  9
$DIMCLRD
 70
     0
  9
$DIMCLRE
 70
     0
  9
$DIMCLRT
 70
     0
  9
$DIMTFAC
 40
1.0
  9
$DIMGAP
 40
0.09
  9
$LUNITS
 70
     2
  9
$LUPREC
 70
     4
  9
$SKETCHINC
 40
0.1
  9
$FILLETRAD
 40
0.0
  9
$AUNITS
 70
     0
  9
$AUPREC
 70
     0
  9
$MENU
  1
.
  9
$ELEVATION
 40
0.0
  9
$PELEVATION
 40
0.0
  9
$THICKNESS
 40
0.0
  9
$LIMCHECK
 70
     0
  9
$BLIPMODE
 70
     0
  9
$CHAMFERA
 40
0.0
  9
$CHAMFERB
 40
0.0
  9
$SKPOLY
 70
     0
  9
$TDCREATE
 40
2457338.58960853
  9
$TDUPDATE
 40
2457338.6645929171
  9
$TDINDWG
 40
0.0001193634
  9
$TDUSRTIMER
 40
0.0001193634
  9
$USRTIMER
 70
     1
  9
$ANGBASE
 50
0.0
  9
$ANGDIR
 70
     0
  9
$PDMODE
 70
     0
  9
$PDSIZE
 40
0.0
  9
$PLINEWID
 40
0.0
  9
$COORDS
 70
     2
  9
$SPLFRAME
 70
     0
  9
$SPLINETYPE
 70
     6
  9
$SPLINESEGS
 70
     8
  9
$ATTDIA
 70
     0
  9
$ATTREQ
 70
     1
  9
$HANDLING
 70
     1
  9
$HANDSEED
  5
FAE
  9
$SURFTAB1
 70
     6
  9
$SURFTAB2
 70
     6
  9
$SURFTYPE
 70
     6
  9
$SURFU
 70
     6
  9
$SURFV
 70
     6
  9
$UCSNAME
  2

  9
$UCSORG
 10
0.0
 20
0.0
 30
0.0
  9
$UCSXDIR
 10
1.0
 20
0.0
 30
0.0
  9
$UCSYDIR
 10
0.0
 20
1.0
 30
0.0
  9
$PUCSNAME
  2

  9
$PUCSORG
 10
0.0
 20
0.0
 30
0.0
  9
$PUCSXDIR
 10
1.0
 20
0.0
 30
0.0
  9
$PUCSYDIR
 10
0.0
 20
1.0
 30
0.0
  9
$USERI1
 70
     0
  9
$USERI2
 70
     0
  9
$USERI3
 70
     0
  9
$USERI4
 70
     0
  9
$USERI5
 70
     0
  9
$USERR1
 40
0.0
  9
$USERR2
 40
0.0
  9
$USERR3
 40
0.0
  9
$USERR4
 40
0.0
  9
$USERR5
 40
0.0
  9
$WORLDVIEW
 70
     1
  9
$SHADEDGE
 70
     3
  9
$SHADEDIF
 70
    70
  9
$TILEMODE
 70
     1
  9
$MAXACTVP
 70
    64
  9
$PLIMCHECK
 70
     0
  9
$PEXTMIN
 10
29.065001225471502
 20
20.364999699592602
 30
0.0
  9
$PEXTMAX
 10
261.58501102924339
 20
183.2849972963333
 30
0.0
  9
$PLIMMIN
 10
-3.17498779296875
 20
-3.1749999523162842
  9
$PLIMMAX
 10
293.82501220703119
 20
206.82500004768369
  9
$UNITMODE
 70
     0
  9
$VISRETAIN
 70
     1
  9
$PLINEGEN
 70
     0
  9
$PSLTSCALE
 70
     1
  0
ENDSEC
  0
SECTION
  2
TABLES
  0
TABLE
  2
VPORT
 70
     1
  0
VPORT
  2
*ACTIVE
 70
     0
 10
0.0
 20
0.0
 11
1.0
 21
1.0
 12
891.28639089401224
 22
334.17891506250919
 13
0.0
 23
0.0
 14
1.0
 24
1.0
 15
0.0
 25
0.0
 16
0.0
 26
0.0
 36
1.0
 17
0.0
 27
0.0
 37
0.0
 40
1581.512859167027
 41
1.483682983682983
 42
50.0
 43
0.0
 44
0.0
 50
0.0
 51
0.0
 71
     0
 72
  1000
 73
     1
 74
     1
 75
     0
 76
     0
 77
     0
 78
     0
  0
ENDTAB
  0
TABLE
  2
LTYPE
 70
     1
  0
LTYPE
  2
CONTINUOUS
 70
     0
  3
Solid line
 72
    65
 73
     0
 40
0.0
  0
ENDTAB
  0
TABLE
  2
LAYER
 70
     8
  0
LAYER
  2
0
 70
     0
 62
     7
  6
CONTINUOUS
  0
ENDTAB
  0
TABLE
  2
STYLE
 70
    10
  0
STYLE
  2
STANDARD
 70
     0
 40
0.0
 41
1.0
 50
0.0
 71
     0
 42
0.2
  3
txt
  4

  0
STYLE
  2
ARIAL
 70
     0
 40
25.0
 41
1.0
 50
0.0
 71
     0
 42
0.2
  3
txt
  4

  0
STYLE
  2
ARIAL_1
 70
     0
 40
12.5
 41
1.0
 50
0.0
 71
     0
 42
0.2
  3
txt
  4

  0
STYLE
  2
ARIAL_2
 70
     0
 40
24.588323353293418
 41
1.0
 50
0.0
 71
     0
 42
0.2
  3
txt
  4

  0
ENDTAB
  0
TABLE
  2
VIEW
 70
     1
  0
ENDTAB
  0
TABLE
  2
UCS
 70
     0
  0
ENDTAB
  0
TABLE
  2
APPID
 70
     6
  0
APPID
  2
ACAD
 70
     0
  0
APPID
  2
ACADANNOTATIVE
 70
     0
  0
APPID
  2
REVIT
 70
     0
  0
APPID
  2
ACAD_PSEXT
 70
     0
  0
APPID
  2
ACAD_NAV_VCDISPLAY
 70
     0
  0
APPID
  2
ACAD_MLEADERVER
 70
     0
  0
ENDTAB
  0
TABLE
  2
DIMSTYLE
 70
     2
  0
DIMSTYLE
  2
STANDARD
 70
     0
  3

  4

  5

  6

  7

 40
1.0
 41
0.18
 42
0.0625
 43
0.38
 44
0.18
 45
0.0
 46
0.0
 47
0.0
 48
0.0
140
0.18
141
0.09
142
0.0
143
25.399999999999999
144
1.0
145
0.0
146
1.0
147
0.09
 71
     0
 72
     0
 73
     1
 74
     1
 75
     0
 76
     0
 77
     0
 78
     0
170
     0
171
     2
172
     0
173
     0
174
     0
175
     0
176
     0
177
     0
178
     0
  0
ENDTAB
  0
ENDSEC
  0
SECTION
  2
BLOCKS
  0
BLOCK
  8
0
  2
$MODEL_SPACE
 70
     0
 10
0.0
 20
0.0
 30
0.0
  3
$MODEL_SPACE
  1

  0
ENDBLK
  5
72
  8
0
  0
BLOCK
 67
     1
  8
0
  2
$PAPER_SPACE
 70
     0
 10
0.0
 20
0.0
 30
0.0
  3
$PAPER_SPACE
  1

  0
ENDBLK
  5
76
 67
     1
  8
0
  0
BLOCK
  8
0
  2
*U6
 70
     1
 10
0.0
 20
0.0
 30
0.0
  3
*U6
  1

  0
TEXT
  5
9FB
  8
0
 62
     7
 10
-283.01890086007649
 20
1059.696607947081
 30
0.0
 40
24.588323353293418
  1
* Where cladding manufacturer requires more
  7
ARIAL_2
  0
TEXT
  5
9FC
  8
0
 62
     7
 10
-282.54927394746238
 20
1021.235069485543
 30
0.0
 40
24.588323353293418
  1
than 100mm of apron upstand under cladding,
  7
ARIAL_2
  0
TEXT
  5
9FD
  8
0
 62
     7
 10
-283.28725909585597
 20
982.77353102400491
 30
0.0
 40
24.588323353293418
  1
cladding supplier to supply and install over flashing
  7
ARIAL_2
  0
TEXT
  5
9FE
  8
0
 62
     7
 10
-282.54927394746238
 20
944.31199256246634
 30
0.0
 40
24.588323353293418
  1
to suite their requirements.
  7
ARIAL_2
  0
TEXT
  5
9FF
  8
0
 62
     7
 10
-284.76322939264298
 20
867.38891563938955
 30
0.0
 40
24.588323353293418
  1
For details refer to cladding manufacturer.
  7
ARIAL_2
  0
ENDBLK
  5
A01
  8
0
  0
BLOCK
  8
0
  2
*U7
 70
     1
 10
0.0
 20
0.0
 30
0.0
  3
*U7
  1

  0
SOLID
  5
A0F
  8
0
  6
CONTINUOUS
 62
   250
 10
1864.84877511841
 20
253.4693581798272
 30
0.0
 11
1864.2017275056539
 21
253.3841727455499
 31
0.0
 12
1865.495822731167
 22
253.3841727455499
 32
0.0
 13
1865.495822731167
 23
253.3841727455499
 33
0.0
210
0.0
220
0.0
230
1.0
  0
SOLID
  5
A10
  8
0
  6
CONTINUOUS
 62
   250
 10
1864.2017275056539
 20
253.3841727455499
 30
0.0
 11
1863.5987751184109
 21
253.1344216892883
 31
0.0
 12
1866.0987751184109
 22
253.1344216892883
 32
0.0
 13
1866.0987751184109
 23
253.1344216892883
 33
0.0
210
0.0
220
0.0
230
1.0
  0
SOLID
  5
A11
  8
0
  6
CONTINUOUS
 62
   250
 10
-1864.2017275056539
 20
253.3841727455499
 30
0.0
 11
-1865.495822731167
 21
253.3841727455499
 31
0.0
 12
-1866.0987751184109
 22
253.1344216892883
 32
0.0
 13
-1866.0987751184109
 23
253.1344216892883
 33
0.0
210
0.0
220
0.0
230
-1.0
  0
SOLID
  5
A12
  8
0
  6
CONTINUOUS
 62
   250
 10
1863.5987751184109
 20
253.1344216892883
 30
0.0
 11
1863.081008165444
 21
252.73712513279361
 31
0.0
 12
1866.6165420713769
 22
252.73712513279361
 32
0.0
 13
1866.6165420713769
 23
252.73712513279361
 33
0.0
210
0.0
220
0.0
230
1.0
  0
SOLID
  5
A13
  8
0
  6
CONTINUOUS
 62
   250
 10
-1863.5987751184109
 20
253.1344216892883
 30
0.0
 11
-1866.0987751184109
 21
253.1344216892883
 31
0.0
 12
-1866.6165420713769
 22
252.73712513279361
 32
0.0
 13
-1866.6165420713769
 23
252.73712513279361
 33
0.0
210
0.0
220
0.0
230
-1.0
  0
SOLID
  5
A14
  8
0
  6
CONTINUOUS
 62
   250
 10
1863.081008165444
 20
252.73712513279361
 30
0.0
 11
1862.68371160895
 21
252.2193581798272
 31
0.0
 12
1867.013838627872
 22
252.2193581798272
 32
0.0
 13
1867.013838627872
 23
252.2193581798272
 33
0.0
210
0.0
220
0.0
230
1.0
  0
SOLID
  5
A15
  8
0
  6
CONTINUOUS
 62
   250
 10
-1863.081008165444
 20
252.73712513279361
 30
0.0
 11
-1866.6165420713769
 21
252.73712513279361
 31
0.0
 12
-1867.013838627872
 22
252.2193581798272
 32
0.0
 13
-1867.013838627872
 23
252.2193581798272
 33
0.0
210
0.0
220
0.0
230
-1.0
  0
SOLID
  5
A16
  8
0
  6
CONTINUOUS
 62
   250
 10
1862.68371160895
 20
252.2193581798272
 30
0.0
 11
1862.4339605526879
 21
251.61640579258349
 31
0.0
 12
1867.263589684133
 22
251.61640579258349
 32
0.0
 13
1867.263589684133
 23
251.61640579258349
 33
0.0
210
0.0
220
0.0
230
1.0
  0
SOLID
  5
A17
  8
0
  6
CONTINUOUS
 62
   250
 10
-1862.68371160895
 20
252.2193581798272
 30
0.0
 11
-1867.013838627872
 21
252.2193581798272
 31
0.0
 12
-1867.263589684133
 22
251.61640579258349
 32
0.0
 13
-1867.263589684133
 23
251.61640579258349
 33
0.0
210
0.0
220
0.0
230
-1.0
  0
SOLID
  5
A18
  8
0
  6
CONTINUOUS
 62
   250
 10
1862.4339605526879
 20
251.61640579258349
 30
0.0
 11
1862.3487751184109
 21
250.96935817982731
 31
0.0
 12
1867.3487751184109
 22
250.96935817982731
 32
0.0
 13
1867.3487751184109
 23
250.96935817982731
 33
0.0
210
0.0
220
0.0
230
1.0
  0
SOLID
  5
A19
  8
0
  6
CONTINUOUS
 62
   250
 10
-1862.4339605526879
 20
251.61640579258349
 30
0.0
 11
-1867.263589684133
 21
251.61640579258349
 31
0.0
 12
-1867.3487751184109
 22
250.96935817982731
 32
0.0
 13
-1867.3487751184109
 23
250.96935817982731
 33
0.0
210
0.0
220
0.0
230
-1.0
  0
SOLID
  5
A1A
  8
0
  6
CONTINUOUS
 62
   250
 10
1862.3487751184109
 20
250.96935817982731
 30
0.0
 11
1862.4339605526879
 21
250.3223105670709
 31
0.0
 12
1867.263589684133
 22
250.3223105670709
 32
0.0
 13
1867.263589684133
 23
250.3223105670709
 33
0.0
210
0.0
220
0.0
230
1.0
  0
SOLID
  5
A1B
  8
0
  6
CONTINUOUS
 62
   250
 10
-1862.3487751184109
 20
250.96935817982731
 30
0.0
 11
-1867.3487751184109
 21
250.96935817982731
 31
0.0
 12
-1867.263589684133
 22
250.3223105670709
 32
0.0
 13
-1867.263589684133
 23
250.3223105670709
 33
0.0
210
0.0
220
0.0
230
-1.0
  0
SOLID
  5
A1C
  8
0
  6
CONTINUOUS
 62
   250
 10
1862.4339605526879
 20
250.3223105670709
 30
0.0
 11
1862.68371160895
 21
249.7193581798274
 31
0.0
 12
1867.013838627872
 22
249.7193581798274
 32
0.0
 13
1867.013838627872
 23
249.7193581798274
 33
0.0
210
0.0
220
0.0
230
1.0
  0
SOLID
  5
A1D
  8
0
  6
CONTINUOUS
 62
   250
 10
-1862.4339605526879
 20
250.3223105670709
 30
0.0
 11
-1867.263589684133
 21
250.3223105670709
 31
0.0
 12
-1867.013838627872
 22
249.7193581798274
 32
0.0
 13
-1867.013838627872
 23
249.7193581798274
 33
0.0
210
0.0
220
0.0
230
-1.0
  0
SOLID
  5
A1E
  8
0
  6
CONTINUOUS
 62
   250
 10
1862.68371160895
 20
249.7193581798274
 30
0.0
 11
1863.081008165444
 21
249.20159122686101
 31
0.0
 12
1866.6165420713769
 22
249.20159122686101
 32
0.0
 13
1866.6165420713769
 23
249.20159122686101
 33
0.0
210
0.0
220
0.0
230
1.0
  0
SOLID
  5
A1F
  8
0
  6
CONTINUOUS
 62
   250
 10
-1862.68371160895
 20
249.7193581798274
 30
0.0
 11
-1867.013838627872
 21
249.7193581798274
 31
0.0
 12
-1866.6165420713769
 22
249.20159122686101
 32
0.0
 13
-1866.6165420713769
 23
249.20159122686101
 33
0.0
210
0.0
220
0.0
230
-1.0
  0
SOLID
  5
A20
  8
0
  6
CONTINUOUS
 62
   250
 10
1863.081008165444
 20
249.20159122686101
 30
0.0
 11
1863.5987751184109
 21
248.80429467036609
 31
0.0
 12
1866.09877511841
 22
248.80429467036609
 32
0.0
 13
1866.09877511841
 23
248.80429467036609
 33
0.0
210
0.0
220
0.0
230
1.0
  0
SOLID
  5
A21
  8
0
  6
CONTINUOUS
 62
   250
 10
-1863.081008165444
 20
249.20159122686101
 30
0.0
 11
-1866.6165420713769
 21
249.20159122686101
 31
0.0
 12
-1866.09877511841
 22
248.80429467036609
 32
0.0
 13
-1866.09877511841
 23
248.80429467036609
 33
0.0
210
0.0
220
0.0
230
-1.0
  0
SOLID
  5
A22
  8
0
  6
CONTINUOUS
 62
   250
 10
-1864.2017275056539
 20
248.5545436141046
 30
0.0
 11
-1865.495822731167
 21
248.5545436141046
 31
0.0
 12
-1864.84877511841
 22
248.46935817982731
 32
0.0
 13
-1864.84877511841
 23
248.46935817982731
 33
0.0
210
0.0
220
0.0
230
-1.0
  0
SOLID
  5
A23
  8
0
  6
CONTINUOUS
 62
   250
 10
1863.5987751184109
 20
248.80429467036609
 30
0.0
 11
1864.2017275056539
 21
248.5545436141046
 31
0.0
 12
1865.495822731167
 22
248.5545436141046
 32
0.0
 13
1865.495822731167
 23
248.5545436141046
 33
0.0
210
0.0
220
0.0
230
1.0
  0
SOLID
  5
A24
  8
0
  6
CONTINUOUS
 62
   250
 10
-1863.5987751184109
 20
248.80429467036609
 30
0.0
 11
-1866.09877511841
 21
248.80429467036609
 31
0.0
 12
-1865.495822731167
 22
248.5545436141046
 32
0.0
 13
-1865.495822731167
 23
248.5545436141046
 33
0.0
210
0.0
220
0.0
230
-1.0
  0
LINE
  5
A25
  8
0
  6
CONTINUOUS
 62
   250
 10
1864.84877511841
 20
253.4693581798272
 30
0.0
 11
1864.2017275056539
 21
253.3841727455499
 31
0.0
  0
LINE
  5
A26
  8
0
  6
CONTINUOUS
 62
   250
 10
1865.495822731167
 20
253.3841727455499
 30
0.0
 11
1864.84877511841
 21
253.4693581798272
 31
0.0
  0
LINE
  5
A27
  8
0
  6
CONTINUOUS
 62
   250
 10
1864.2017275056539
 20
253.3841727455499
 30
0.0
 11
1863.5987751184109
 21
253.1344216892883
 31
0.0
  0
LINE
  5
A28
  8
0
  6
CONTINUOUS
 62
   250
 10
1865.495822731167
 20
253.3841727455499
 30
0.0
 11
1866.0987751184109
 21
253.1344216892883
 31
0.0
  0
LINE
  5
A29
  8
0
  6
CONTINUOUS
 62
   250
 10
1863.5987751184109
 20
253.1344216892883
 30
0.0
 11
1863.081008165444
 21
252.73712513279361
 31
0.0
  0
LINE
  5
A2A
  8
0
  6
CONTINUOUS
 62
   250
 10
1866.0987751184109
 20
253.1344216892883
 30
0.0
 11
1866.6165420713769
 21
252.73712513279361
 31
0.0
  0
LINE
  5
A2B
  8
0
  6
CONTINUOUS
 62
   250
 10
1863.081008165444
 20
252.73712513279361
 30
0.0
 11
1862.68371160895
 21
252.2193581798272
 31
0.0
  0
LINE
  5
A2C
  8
0
  6
CONTINUOUS
 62
   250
 10
1866.6165420713769
 20
252.73712513279361
 30
0.0
 11
1867.013838627872
 21
252.2193581798272
 31
0.0
  0
LINE
  5
A2D
  8
0
  6
CONTINUOUS
 62
   250
 10
1862.68371160895
 20
252.2193581798272
 30
0.0
 11
1862.4339605526879
 21
251.61640579258349
 31
0.0
  0
LINE
  5
A2E
  8
0
  6
CONTINUOUS
 62
   250
 10
1867.013838627872
 20
252.2193581798272
 30
0.0
 11
1867.263589684133
 21
251.61640579258349
 31
0.0
  0
LINE
  5
A2F
  8
0
  6
CONTINUOUS
 62
   250
 10
1862.4339605526879
 20
251.61640579258349
 30
0.0
 11
1862.3487751184109
 21
250.96935817982731
 31
0.0
  0
LINE
  5
A30
  8
0
  6
CONTINUOUS
 62
   250
 10
1867.263589684133
 20
251.61640579258349
 30
0.0
 11
1867.3487751184109
 21
250.96935817982731
 31
0.0
  0
LINE
  5
A31
  8
0
  6
CONTINUOUS
 62
   250
 10
1862.3487751184109
 20
250.96935817982731
 30
0.0
 11
1862.4339605526879
 21
250.3223105670709
 31
0.0
  0
LINE
  5
A32
  8
0
  6
CONTINUOUS
 62
   250
 10
1867.3487751184109
 20
250.96935817982731
 30
0.0
 11
1867.263589684133
 21
250.3223105670709
 31
0.0
  0
LINE
  5
A33
  8
0
  6
CONTINUOUS
 62
   250
 10
1862.4339605526879
 20
250.3223105670709
 30
0.0
 11
1862.68371160895
 21
249.7193581798274
 31
0.0
  0
LINE
  5
A34
  8
0
  6
CONTINUOUS
 62
   250
 10
1867.263589684133
 20
250.3223105670709
 30
0.0
 11
1867.013838627872
 21
249.7193581798274
 31
0.0
  0
LINE
  5
A35
  8
0
  6
CONTINUOUS
 62
   250
 10
1862.68371160895
 20
249.7193581798274
 30
0.0
 11
1863.081008165444
 21
249.20159122686101
 31
0.0
  0
LINE
  5
A36
  8
0
  6
CONTINUOUS
 62
   250
 10
1867.013838627872
 20
249.7193581798274
 30
0.0
 11
1866.6165420713769
 21
249.20159122686101
 31
0.0
  0
LINE
  5
A37
  8
0
  6
CONTINUOUS
 62
   250
 10
1863.081008165444
 20
249.20159122686101
 30
0.0
 11
1863.5987751184109
 21
248.80429467036609
 31
0.0
  0
LINE
  5
A38
  8
0
  6
CONTINUOUS
 62
   250
 10
1866.6165420713769
 20
249.20159122686101
 30
0.0
 11
1866.09877511841
 21
248.80429467036609
 31
0.0
  0
LINE
  5
A39
  8
0
  6
CONTINUOUS
 62
   250
 10
1865.495822731167
 20
248.5545436141046
 30
0.0
 11
1864.84877511841
 21
248.46935817982731
 31
0.0
  0
LINE
  5
A3A
  8
0
  6
CONTINUOUS
 62
   250
 10
1864.84877511841
 20
248.46935817982731
 30
0.0
 11
1864.2017275056539
 21
248.5545436141046
 31
0.0
  0
LINE
  5
A3B
  8
0
  6
CONTINUOUS
 62
   250
 10
1863.5987751184109
 20
248.80429467036609
 30
0.0
 11
1864.2017275056539
 21
248.5545436141046
 31
0.0
  0
LINE
  5
A3C
  8
0
  6
CONTINUOUS
 62
   250
 10
1866.09877511841
 20
248.80429467036609
 30
0.0
 11
1865.495822731167
 21
248.5545436141046
 31
0.0
  0
ENDBLK
  5
A3E
  8
0
  0
BLOCK
  8
0
  2
*U8
 70
     1
 10
0.0
 20
0.0
 30
0.0
  3
*U8
  1

  0
TEXT
  5
A40
  8
0
 62
   241
 10
1656.293503615829
 20
147.04693695027001
 30
0.0
 40
12.5
  1
Stop end flashing
  7
ARIAL_1
  0
ENDBLK
  5
A42
  8
0
  0
BLOCK
  8
0
  2
*U9
 70
     1
 10
0.0
 20
0.0
 30
0.0
  3
*U9
  1

  0
SOLID
  5
A44
  8
0
  6
CONTINUOUS
 10
196.67259324633989
 20
-25.628093784215761
 30
0.0
 11
195.37849802082721
 21
-25.798464652770431
 31
0.0
 12
197.96668847185231
 22
-25.798464652770431
 32
0.0
 13
197.96668847185231
 23
-25.798464652770431
 33
0.0
210
0.0
220
0.0
230
1.0
  0
SOLID
  5
A45
  8
0
  6
CONTINUOUS
 10
195.37849802082721
 20
-25.798464652770431
 30
0.0
 11
194.1725932463398
 21
-26.297966765293591
 31
0.0
 12
199.17259324633969
 22
-26.297966765293591
 32
0.0
 13
199.17259324633969
 23
-26.297966765293591
 33
0.0
210
0.0
220
0.0
230
1.0
  0
SOLID
  5
A46
  8
0
  6
CONTINUOUS
 10
-195.37849802082721
 20
-25.798464652770431
 30
0.0
 11
-197.96668847185231
 21
-25.798464652770431
 31
0.0
 12
-199.17259324633969
 22
-26.297966765293591
 32
0.0
 13
-199.17259324633969
 23
-26.297966765293591
 33
0.0
210
0.0
220
0.0
230
-1.0
  0
SOLID
  5
A47
  8
0
  6
CONTINUOUS
 10
194.1725932463398
 20
-26.297966765293591
 30
0.0
 11
193.13705934040701
 21
-27.092559878283019
 31
0.0
 12
200.2081271522726
 22
-27.092559878283019
 32
0.0
 13
200.2081271522726
 23
-27.092559878283019
 33
0.0
210
0.0
220
0.0
230
1.0
  0
SOLID
  5
A48
  8
0
  6
CONTINUOUS
 10
-194.1725932463398
 20
-26.297966765293591
 30
0.0
 11
-199.17259324633969
 21
-26.297966765293591
 31
0.0
 12
-200.2081271522726
 22
-27.092559878283019
 32
0.0
 13
-200.2081271522726
 23
-27.092559878283019
 33
0.0
210
0.0
220
0.0
230
-1.0
  0
SOLID
  5
A49
  8
0
  6
CONTINUOUS
 10
193.13705934040701
 20
-27.092559878283019
 30
0.0
 11
192.34246622741759
 21
-28.128093784215739
 31
0.0
 12
201.0027202652619
 22
-28.128093784215739
 32
0.0
 13
201.0027202652619
 23
-28.128093784215739
 33
0.0
210
0.0
220
0.0
230
1.0
  0
SOLID
  5
A4A
  8
0
  6
CONTINUOUS
 10
-193.13705934040701
 20
-27.092559878283019
 30
0.0
 11
-200.2081271522726
 21
-27.092559878283019
 31
0.0
 12
-201.0027202652619
 22
-28.128093784215739
 32
0.0
 13
-201.0027202652619
 23
-28.128093784215739
 33
0.0
210
0.0
220
0.0
230
-1.0
  0
SOLID
  5
A4B
  8
0
  6
CONTINUOUS
 10
192.34246622741759
 20
-28.128093784215739
 30
0.0
 11
191.8429641148945
 21
-29.333998558703129
 31
0.0
 12
201.50222237778519
 22
-29.333998558703129
 32
0.0
 13
201.50222237778519
 23
-29.333998558703129
 33
0.0
210
0.0
220
0.0
230
1.0
  0
SOLID
  5
A4C
  8
0
  6
CONTINUOUS
 10
-192.34246622741759
 20
-28.128093784215739
 30
0.0
 11
-201.0027202652619
 21
-28.128093784215739
 31
0.0
 12
-201.50222237778519
 22
-29.333998558703129
 32
0.0
 13
-201.50222237778519
 23
-29.333998558703129
 33
0.0
210
0.0
220
0.0
230
-1.0
  0
SOLID
  5
A4D
  8
0
  6
CONTINUOUS
 10
191.8429641148945
 20
-29.333998558703129
 30
0.0
 11
191.6725932463398
 21
-30.628093784215981
 31
0.0
 12
201.67259324633969
 22
-30.628093784215981
 32
0.0
 13
201.67259324633969
 23
-30.628093784215981
 33
0.0
210
0.0
220
0.0
230
1.0
  0
SOLID
  5
A4E
  8
0
  6
CONTINUOUS
 10
-191.8429641148945
 20
-29.333998558703129
 30
0.0
 11
-201.50222237778519
 21
-29.333998558703129
 31
0.0
 12
-201.67259324633969
 22
-30.628093784215981
 32
0.0
 13
-201.67259324633969
 23
-30.628093784215981
 33
0.0
210
0.0
220
0.0
230
-1.0
  0
SOLID
  5
A4F
  8
0
  6
CONTINUOUS
 10
191.6725932463398
 20
-30.628093784215981
 30
0.0
 11
191.8429641148945
 21
-31.922189009728289
 31
0.0
 12
201.50222237778519
 22
-31.922189009728289
 32
0.0
 13
201.50222237778519
 23
-31.922189009728289
 33
0.0
210
0.0
220
0.0
230
1.0
  0
SOLID
  5
A50
  8
0
  6
CONTINUOUS
 10
-191.6725932463398
 20
-30.628093784215981
 30
0.0
 11
-201.67259324633969
 21
-30.628093784215981
 31
0.0
 12
-201.50222237778519
 22
-31.922189009728289
 32
0.0
 13
-201.50222237778519
 23
-31.922189009728289
 33
0.0
210
0.0
220
0.0
230
-1.0
  0
SOLID
  5
A51
  8
0
  6
CONTINUOUS
 10
191.8429641148945
 20
-31.922189009728289
 30
0.0
 11
192.34246622741759
 21
-33.128093784215679
 31
0.0
 12
201.0027202652619
 22
-33.128093784215679
 32
0.0
 13
201.0027202652619
 23
-33.128093784215679
 33
0.0
210
0.0
220
0.0
230
1.0
  0
SOLID
  5
A52
  8
0
  6
CONTINUOUS
 10
-191.8429641148945
 20
-31.922189009728289
 30
0.0
 11
-201.50222237778519
 21
-31.922189009728289
 31
0.0
 12
-201.0027202652619
 22
-33.128093784215679
 32
0.0
 13
-201.0027202652619
 23
-33.128093784215679
 33
0.0
210
0.0
220
0.0
230
-1.0
  0
SOLID
  5
A53
  8
0
  6
CONTINUOUS
 10
192.34246622741759
 20
-33.128093784215679
 30
0.0
 11
193.13705934040701
 21
-34.163627690148417
 31
0.0
 12
200.2081271522726
 22
-34.163627690148417
 32
0.0
 13
200.2081271522726
 23
-34.163627690148417
 33
0.0
210
0.0
220
0.0
230
1.0
  0
SOLID
  5
A54
  8
0
  6
CONTINUOUS
 10
-192.34246622741759
 20
-33.128093784215679
 30
0.0
 11
-201.0027202652619
 21
-33.128093784215679
 31
0.0
 12
-200.2081271522726
 22
-34.163627690148417
 32
0.0
 13
-200.2081271522726
 23
-34.163627690148417
 33
0.0
210
0.0
220
0.0
230
-1.0
  0
SOLID
  5
A55
  8
0
  6
CONTINUOUS
 10
193.13705934040701
 20
-34.163627690148417
 30
0.0
 11
194.17259324634011
 21
-34.958220803138111
 31
0.0
 12
199.17259324633969
 22
-34.958220803138111
 32
0.0
 13
199.17259324633969
 23
-34.958220803138111
 33
0.0
210
0.0
220
0.0
230
1.0
  0
SOLID
  5
A56
  8
0
  6
CONTINUOUS
 10
-193.13705934040701
 20
-34.163627690148417
 30
0.0
 11
-200.2081271522726
 21
-34.163627690148417
 31
0.0
 12
-199.17259324633969
 22
-34.958220803138111
 32
0.0
 13
-199.17259324633969
 23
-34.958220803138111
 33
0.0
210
0.0
220
0.0
230
-1.0
  0
SOLID
  5
A57
  8
0
  6
CONTINUOUS
 10
-195.37849802082721
 20
-35.457722915661272
 30
0.0
 11
-197.96668847185231
 21
-35.457722915661272
 31
0.0
 12
-196.67259324633969
 22
-35.628093784215658
 32
0.0
 13
-196.67259324633969
 23
-35.628093784215658
 33
0.0
210
0.0
220
0.0
230
-1.0
  0
SOLID
  5
A58
  8
0
  6
CONTINUOUS
 10
194.1725932463404
 20
-34.958220803138111
 30
0.0
 11
195.37849802082721
 21
-35.457722915661272
 31
0.0
 12
197.96668847185231
 22
-35.457722915661272
 32
0.0
 13
197.96668847185231
 23
-35.457722915661272
 33
0.0
210
0.0
220
0.0
230
1.0
  0
SOLID
  5
A59
  8
0
  6
CONTINUOUS
 10
-194.1725932463404
 20
-34.958220803138111
 30
0.0
 11
-199.17259324633969
 21
-34.958220803138111
 31
0.0
 12
-197.96668847185231
 22
-35.457722915661272
 32
0.0
 13
-197.96668847185231
 23
-35.457722915661272
 33
0.0
210
0.0
220
0.0
230
-1.0
  0
LINE
  5
A5A
  8
0
  6
CONTINUOUS
 10
196.67259324633989
 20
-25.628093784215761
 30
0.0
 11
195.37849802082721
 21
-25.798464652770431
 31
0.0
  0
LINE
  5
A5B
  8
0
  6
CONTINUOUS
 10
197.96668847185231
 20
-25.798464652770431
 30
0.0
 11
196.67259324633989
 21
-25.628093784215761
 31
0.0
  0
LINE
  5
A5C
  8
0
  6
CONTINUOUS
 10
195.37849802082721
 20
-25.798464652770431
 30
0.0
 11
194.1725932463398
 21
-26.297966765293591
 31
0.0
  0
LINE
  5
A5D
  8
0
  6
CONTINUOUS
 10
197.96668847185231
 20
-25.798464652770431
 30
0.0
 11
199.17259324633969
 21
-26.297966765293591
 31
0.0
  0
LINE
  5
A5E
  8
0
  6
CONTINUOUS
 10
194.1725932463398
 20
-26.297966765293591
 30
0.0
 11
193.13705934040701
 21
-27.092559878283019
 31
0.0
  0
LINE
  5
A5F
  8
0
  6
CONTINUOUS
 10
199.17259324633969
 20
-26.297966765293591
 30
0.0
 11
200.2081271522726
 21
-27.092559878283019
 31
0.0
  0
LINE
  5
A60
  8
0
  6
CONTINUOUS
 10
193.13705934040701
 20
-27.092559878283019
 30
0.0
 11
192.34246622741759
 21
-28.128093784215739
 31
0.0
  0
LINE
  5
A61
  8
0
  6
CONTINUOUS
 10
200.2081271522726
 20
-27.092559878283019
 30
0.0
 11
201.0027202652619
 21
-28.128093784215739
 31
0.0
  0
LINE
  5
A62
  8
0
  6
CONTINUOUS
 10
192.34246622741759
 20
-28.128093784215739
 30
0.0
 11
191.8429641148945
 21
-29.333998558703129
 31
0.0
  0
LINE
  5
A63
  8
0
  6
CONTINUOUS
 10
201.0027202652619
 20
-28.128093784215739
 30
0.0
 11
201.50222237778519
 21
-29.333998558703129
 31
0.0
  0
LINE
  5
A64
  8
0
  6
CONTINUOUS
 10
191.8429641148945
 20
-29.333998558703129
 30
0.0
 11
191.6725932463398
 21
-30.628093784215981
 31
0.0
  0
LINE
  5
A65
  8
0
  6
CONTINUOUS
 10
201.50222237778519
 20
-29.333998558703129
 30
0.0
 11
201.67259324633969
 21
-30.628093784215981
 31
0.0
  0
LINE
  5
A66
  8
0
  6
CONTINUOUS
 10
191.6725932463398
 20
-30.628093784215981
 30
0.0
 11
191.8429641148945
 21
-31.922189009728289
 31
0.0
  0
LINE
  5
A67
  8
0
  6
CONTINUOUS
 10
201.67259324633969
 20
-30.628093784215981
 30
0.0
 11
201.50222237778519
 21
-31.922189009728289
 31
0.0
  0
LINE
  5
A68
  8
0
  6
CONTINUOUS
 10
191.8429641148945
 20
-31.922189009728289
 30
0.0
 11
192.34246622741759
 21
-33.128093784215679
 31
0.0
  0
LINE
  5
A69
  8
0
  6
CONTINUOUS
 10
201.50222237778519
 20
-31.922189009728289
 30
0.0
 11
201.0027202652619
 21
-33.128093784215679
 31
0.0
  0
LINE
  5
A6A
  8
0
  6
CONTINUOUS
 10
192.34246622741759
 20
-33.128093784215679
 30
0.0
 11
193.13705934040701
 21
-34.163627690148417
 31
0.0
  0
LINE
  5
A6B
  8
0
  6
CONTINUOUS
 10
201.0027202652619
 20
-33.128093784215679
 30
0.0
 11
200.2081271522726
 21
-34.163627690148417
 31
0.0
  0
LINE
  5
A6C
  8
0
  6
CONTINUOUS
 10
193.13705934040701
 20
-34.163627690148417
 30
0.0
 11
194.17259324634011
 21
-34.958220803138111
 31
0.0
  0
LINE
  5
A6D
  8
0
  6
CONTINUOUS
 10
200.2081271522726
 20
-34.163627690148417
 30
0.0
 11
199.17259324633969
 21
-34.958220803138111
 31
0.0
  0
LINE
  5
A6E
  8
0
  6
CONTINUOUS
 10
197.96668847185231
 20
-35.457722915661272
 30
0.0
 11
196.67259324633969
 21
-35.628093784215658
 31
0.0
  0
LINE
  5
A6F
  8
0
  6
CONTINUOUS
 10
196.67259324633969
 20
-35.628093784215658
 30
0.0
 11
195.37849802082721
 21
-35.457722915661272
 31
0.0
  0
LINE
  5
A70
  8
0
  6
CONTINUOUS
 10
194.1725932463404
 20
-34.958220803138111
 30
0.0
 11
195.37849802082721
 21
-35.457722915661272
 31
0.0
  0
LINE
  5
A71
  8
0
  6
CONTINUOUS
 10
199.17259324633969
 20
-34.958220803138111
 30
0.0
 11
197.96668847185231
 21
-35.457722915661272
 31
0.0
  0
ENDBLK
  5
A73
  8
0
  0
BLOCK
  8
0
  2
*U10
 70
     1
 10
0.0
 20
0.0
 30
0.0
  3
*U10
  1

  0
SOLID
  5
A75
  8
0
  6
CONTINUOUS
 10
827.55697685247753
 20
-238.5337189434662
 30
0.0
 11
826.26288162696505
 21
-238.7040898120209
 31
0.0
 12
828.85107207798978
 22
-238.7040898120209
 32
0.0
 13
828.85107207798978
 23
-238.7040898120209
 33
0.0
210
0.0
220
0.0
230
1.0
  0
SOLID
  5
A76
  8
0
  6
CONTINUOUS
 10
826.26288162696505
 20
-238.7040898120209
 30
0.0
 11
825.05697685247742
 21
-239.2035919245441
 31
0.0
 12
830.05697685247719
 22
-239.2035919245441
 32
0.0
 13
830.05697685247719
 23
-239.2035919245441
 33
0.0
210
0.0
220
0.0
230
1.0
  0
SOLID
  5
A77
  8
0
  6
CONTINUOUS
 10
-826.26288162696505
 20
-238.7040898120209
 30
0.0
 11
-828.85107207798978
 21
-238.7040898120209
 31
0.0
 12
-830.05697685247719
 22
-239.2035919245441
 32
0.0
 13
-830.05697685247719
 23
-239.2035919245441
 33
0.0
210
0.0
220
0.0
230
-1.0
  0
SOLID
  5
A78
  8
0
  6
CONTINUOUS
 10
825.05697685247742
 20
-239.2035919245441
 30
0.0
 11
824.02144294654477
 21
-239.9981850375334
 31
0.0
 12
831.09251075840984
 22
-239.9981850375334
 32
0.0
 13
831.09251075840984
 23
-239.9981850375334
 33
0.0
210
0.0
220
0.0
230
1.0
  0
SOLID
  5
A79
  8
0
  6
CONTINUOUS
 10
-825.05697685247742
 20
-239.2035919245441
 30
0.0
 11
-830.05697685247719
 21
-239.2035919245441
 31
0.0
 12
-831.09251075840984
 22
-239.9981850375334
 32
0.0
 13
-831.09251075840984
 23
-239.9981850375334
 33
0.0
210
0.0
220
0.0
230
-1.0
  0
SOLID
  5
A7A
  8
0
  6
CONTINUOUS
 10
824.02144294654477
 20
-239.9981850375334
 30
0.0
 11
823.22684983355532
 21
-241.0337189434662
 31
0.0
 12
831.88710387139929
 22
-241.0337189434662
 32
0.0
 13
831.88710387139929
 23
-241.0337189434662
 33
0.0
210
0.0
220
0.0
230
1.0
  0
SOLID
  5
A7B
  8
0
  6
CONTINUOUS
 10
-824.02144294654477
 20
-239.9981850375334
 30
0.0
 11
-831.09251075840984
 21
-239.9981850375334
 31
0.0
 12
-831.88710387139929
 22
-241.0337189434662
 32
0.0
 13
-831.88710387139929
 23
-241.0337189434662
 33
0.0
210
0.0
220
0.0
230
-1.0
  0
SOLID
  5
A7C
  8
0
  6
CONTINUOUS
 10
823.22684983355532
 20
-241.0337189434662
 30
0.0
 11
822.72734772103206
 21
-242.23962371795361
 31
0.0
 12
832.38660598392266
 22
-242.23962371795361
 32
0.0
 13
832.38660598392266
 23
-242.23962371795361
 33
0.0
210
0.0
220
0.0
230
1.0
  0
SOLID
  5
A7D
  8
0
  6
CONTINUOUS
 10
-823.22684983355532
 20
-241.0337189434662
 30
0.0
 11
-831.88710387139929
 21
-241.0337189434662
 31
0.0
 12
-832.38660598392266
 22
-242.23962371795361
 32
0.0
 13
-832.38660598392266
 23
-242.23962371795361
 33
0.0
210
0.0
220
0.0
230
-1.0
  0
SOLID
  5
A7E
  8
0
  6
CONTINUOUS
 10
822.72734772103206
 20
-242.23962371795361
 30
0.0
 11
822.55697685247742
 21
-243.53371894346611
 31
0.0
 12
832.55697685247742
 22
-243.53371894346611
 32
0.0
 13
832.55697685247742
 23
-243.53371894346611
 33
0.0
210
0.0
220
0.0
230
1.0
  0
SOLID
  5
A7F
  8
0
  6
CONTINUOUS
 10
-822.72734772103206
 20
-242.23962371795361
 30
0.0
 11
-832.38660598392266
 21
-242.23962371795361
 31
0.0
 12
-832.55697685247742
 22
-243.53371894346611
 32
0.0
 13
-832.55697685247742
 23
-243.53371894346611
 33
0.0
210
0.0
220
0.0
230
-1.0
  0
SOLID
  5
A80
  8
0
  6
CONTINUOUS
 10
822.55697685247742
 20
-243.53371894346611
 30
0.0
 11
822.72734772103206
 21
-244.8278141689787
 31
0.0
 12
832.38660598392266
 22
-244.8278141689787
 32
0.0
 13
832.38660598392266
 23
-244.8278141689787
 33
0.0
  0
SOLID
  5
A81
  8
0
  6
CONTINUOUS
 10
-822.55697685247742
 20
-243.53371894346611
 30
0.0
 11
-832.55697685247742
 21
-243.53371894346611
 31
0.0
 12
-832.38660598392266
 22
-244.8278141689787
 32
0.0
 13
-832.38660598392266
 23
-244.8278141689787
 33
0.0
210
0.0
220
0.0
230
-1.0
  0
SOLID
  5
A82
  8
0
  6
CONTINUOUS
 10
822.72734772103206
 20
-244.8278141689787
 30
0.0
 11
823.19193776160455
 21
-245.9494337458716
 31
0.0
 12
831.9220159433504
 22
-245.9494337458716
 32
0.0
 13
831.9220159433504
 23
-245.9494337458716
 33
0.0
210
0.0
220
0.0
230
1.0
  0
SOLID
  5
A83
  8
0
  6
CONTINUOUS
 10
-822.72734772103206
 20
-244.8278141689787
 30
0.0
 11
-832.38660598392266
 21
-244.8278141689787
 31
0.0
 12
-831.9220159433504
 22
-245.9494337458716
 32
0.0
 13
-831.9220159433504
 23
-245.9494337458716
 33
0.0
210
0.0
220
0.0
230
-1.0
  0
SOLID
  5
A84
  8
0
  6
CONTINUOUS
 10
823.19193776160455
 20
-245.9494337458716
 30
0.0
 11
823.22684983355532
 21
-246.03371894346611
 31
0.0
 12
831.85958174464974
 22
-246.03371894346611
 32
0.0
 13
831.85958174464974
 23
-246.03371894346611
 33
0.0
210
0.0
220
0.0
230
1.0
  0
SOLID
  5
A85
  8
0
  6
CONTINUOUS
 10
-823.19193776160455
 20
-245.9494337458716
 30
0.0
 11
-831.9220159433504
 21
-245.9494337458716
 31
0.0
 12
-831.85958174464974
 22
-246.03371894346611
 32
0.0
 13
-831.85958174464974
 23
-246.03371894346611
 33
0.0
210
0.0
220
0.0
230
-1.0
  0
SOLID
  5
A86
  8
0
  6
CONTINUOUS
 10
823.22684983355532
 20
-246.03371894346611
 30
0.0
 11
824.02144294654477
 21
-247.06925284939891
 31
0.0
 12
831.09251075840984
 22
-247.06925284939891
 32
0.0
 13
831.09251075840984
 23
-247.06925284939891
 33
0.0
210
0.0
220
0.0
230
1.0
  0
SOLID
  5
A87
  8
0
  6
CONTINUOUS
 10
-823.22684983355532
 20
-246.03371894346611
 30
0.0
 11
-831.85958174464974
 21
-246.03371894346611
 31
0.0
 12
-831.09251075840984
 22
-247.06925284939891
 32
0.0
 13
-831.09251075840984
 23
-247.06925284939891
 33
0.0
210
0.0
220
0.0
230
-1.0
  0
SOLID
  5
A88
  8
0
  6
CONTINUOUS
 10
824.02144294654477
 20
-247.06925284939891
 30
0.0
 11
825.05697685247742
 21
-247.8638459623883
 31
0.0
 12
830.05697685247719
 22
-247.8638459623883
 32
0.0
 13
830.05697685247719
 23
-247.8638459623883
 33
0.0
210
0.0
220
0.0
230
1.0
  0
SOLID
  5
A89
  8
0
  6
CONTINUOUS
 10
-824.02144294654477
 20
-247.06925284939891
 30
0.0
 11
-831.09251075840984
 21
-247.06925284939891
 31
0.0
 12
-830.05697685247719
 22
-247.8638459623883
 32
0.0
 13
-830.05697685247719
 23
-247.8638459623883
 33
0.0
210
0.0
220
0.0
230
-1.0
  0
SOLID
  5
A8A
  8
0
  6
CONTINUOUS
 10
-826.26288162696505
 20
-248.36334807491141
 30
0.0
 11
-828.85107207798978
 21
-248.36334807491141
 31
0.0
 12
-827.55697685247753
 22
-248.53371894346611
 32
0.0
 13
-827.55697685247753
 23
-248.53371894346611
 33
0.0
210
0.0
220
0.0
230
-1.0
  0
SOLID
  5
A8B
  8
0
  6
CONTINUOUS
 10
825.05697685247742
 20
-247.8638459623883
 30
0.0
 11
826.26288162696505
 21
-248.36334807491141
 31
0.0
 12
828.85107207798978
 22
-248.36334807491141
 32
0.0
 13
828.85107207798978
 23
-248.36334807491141
 33
0.0
210
0.0
220
0.0
230
1.0
  0
SOLID
  5
A8C
  8
0
  6
CONTINUOUS
 10
-825.05697685247742
 20
-247.8638459623883
 30
0.0
 11
-830.05697685247719
 21
-247.8638459623883
 31
0.0
 12
-828.85107207798978
 22
-248.36334807491141
 32
0.0
 13
-828.85107207798978
 23
-248.36334807491141
 33
0.0
210
0.0
220
0.0
230
-1.0
  0
LINE
  5
A8D
  8
0
  6
CONTINUOUS
 10
827.55697685247753
 20
-238.5337189434662
 30
0.0
 11
826.26288162696505
 21
-238.7040898120209
 31
0.0
  0
LINE
  5
A8E
  8
0
  6
CONTINUOUS
 10
828.85107207798978
 20
-238.7040898120209
 30
0.0
 11
827.55697685247753
 21
-238.5337189434662
 31
0.0
  0
LINE
  5
A8F
  8
0
  6
CONTINUOUS
 10
826.26288162696505
 20
-238.7040898120209
 30
0.0
 11
825.05697685247742
 21
-239.2035919245441
 31
0.0
  0
LINE
  5
A90
  8
0
  6
CONTINUOUS
 10
828.85107207798978
 20
-238.7040898120209
 30
0.0
 11
830.05697685247719
 21
-239.2035919245441
 31
0.0
  0
LINE
  5
A91
  8
0
  6
CONTINUOUS
 10
825.05697685247742
 20
-239.2035919245441
 30
0.0
 11
824.02144294654477
 21
-239.9981850375334
 31
0.0
  0
LINE
  5
A92
  8
0
  6
CONTINUOUS
 10
830.05697685247719
 20
-239.2035919245441
 30
0.0
 11
831.09251075840984
 21
-239.9981850375334
 31
0.0
  0
LINE
  5
A93
  8
0
  6
CONTINUOUS
 10
824.02144294654477
 20
-239.9981850375334
 30
0.0
 11
823.22684983355532
 21
-241.0337189434662
 31
0.0
  0
LINE
  5
A94
  8
0
  6
CONTINUOUS
 10
831.09251075840984
 20
-239.9981850375334
 30
0.0
 11
831.88710387139929
 21
-241.0337189434662
 31
0.0
  0
LINE
  5
A95
  8
0
  6
CONTINUOUS
 10
823.22684983355532
 20
-241.0337189434662
 30
0.0
 11
822.72734772103206
 21
-242.23962371795361
 31
0.0
  0
LINE
  5
A96
  8
0
  6
CONTINUOUS
 10
831.88710387139929
 20
-241.0337189434662
 30
0.0
 11
832.38660598392266
 21
-242.23962371795361
 31
0.0
  0
LINE
  5
A97
  8
0
  6
CONTINUOUS
 10
822.72734772103206
 20
-242.23962371795361
 30
0.0
 11
822.55697685247742
 21
-243.53371894346611
 31
0.0
  0
LINE
  5
A98
  8
0
  6
CONTINUOUS
 10
832.38660598392266
 20
-242.23962371795361
 30
0.0
 11
832.55697685247742
 21
-243.53371894346611
 31
0.0
  0
LINE
  5
A99
  8
0
  6
CONTINUOUS
 10
822.55697685247742
 20
-243.53371894346611
 30
0.0
 11
822.72734772103206
 21
-244.8278141689787
 31
0.0
  0
LINE
  5
A9A
  8
0
  6
CONTINUOUS
 10
832.55697685247742
 20
-243.53371894346611
 30
0.0
 11
832.38660598392266
 21
-244.8278141689787
 31
0.0
  0
LINE
  5
A9B
  8
0
  6
CONTINUOUS
 10
822.72734772103206
 20
-244.8278141689787
 30
0.0
 11
823.19193776160455
 21
-245.9494337458716
 31
0.0
  0
LINE
  5
A9C
  8
0
  6
CONTINUOUS
 10
832.38660598392266
 20
-244.8278141689787
 30
0.0
 11
831.9220159433504
 21
-245.9494337458716
 31
0.0
  0
LINE
  5
A9D
  8
0
  6
CONTINUOUS
 10
823.19193776160455
 20
-245.9494337458716
 30
0.0
 11
823.22684983355532
 21
-246.03371894346611
 31
0.0
  0
LINE
  5
A9E
  8
0
  6
CONTINUOUS
 10
831.9220159433504
 20
-245.9494337458716
 30
0.0
 11
831.85958174464974
 21
-246.03371894346611
 31
0.0
  0
LINE
  5
A9F
  8
0
  6
CONTINUOUS
 10
823.22684983355532
 20
-246.03371894346611
 30
0.0
 11
824.02144294654477
 21
-247.06925284939891
 31
0.0
  0
LINE
  5
AA0
  8
0
  6
CONTINUOUS
 10
831.85958174464974
 20
-246.03371894346611
 30
0.0
 11
831.09251075840984
 21
-247.06925284939891
 31
0.0
  0
LINE
  5
AA1
  8
0
  6
CONTINUOUS
 10
824.02144294654477
 20
-247.06925284939891
 30
0.0
 11
825.05697685247742
 21
-247.8638459623883
 31
0.0
  0
LINE
  5
AA2
  8
0
  6
CONTINUOUS
 10
831.09251075840984
 20
-247.06925284939891
 30
0.0
 11
830.05697685247719
 21
-247.8638459623883
 31
0.0
  0
LINE
  5
AA3
  8
0
  6
CONTINUOUS
 10
828.85107207798978
 20
-248.36334807491141
 30
0.0
 11
827.55697685247753
 21
-248.53371894346611
 31
0.0
  0
LINE
  5
AA4
  8
0
  6
CONTINUOUS
 10
827.55697685247753
 20
-248.53371894346611
 30
0.0
 11
826.26288162696505
 21
-248.36334807491141
 31
0.0
  0
LINE
  5
AA5
  8
0
  6
CONTINUOUS
 10
825.05697685247742
 20
-247.8638459623883
 30
0.0
 11
826.26288162696505
 21
-248.36334807491141
 31
0.0
  0
LINE
  5
AA6
  8
0
  6
CONTINUOUS
 10
830.05697685247719
 20
-247.8638459623883
 30
0.0
 11
828.85107207798978
 21
-248.36334807491141
 31
0.0
  0
ENDBLK
  5
AA8
  8
0
  0
BLOCK
  8
0
  2
*U11
 70
     1
 10
0.0
 20
0.0
 30
0.0
  3
*U11
  1

  0
SOLID
  5
AAA
  8
0
  6
CONTINUOUS
 10
1264.7231721033161
 20
252.1963016351049
 30
0.0
 11
1263.4290768778039
 21
252.02593076655029
 31
0.0
 12
1266.0172673288289
 22
252.02593076655029
 32
0.0
 13
1266.0172673288289
 23
252.02593076655029
 33
0.0
210
0.0
220
0.0
230
1.0
  0
SOLID
  5
AAB
  8
0
  6
CONTINUOUS
 10
1263.4290768778039
 20
252.02593076655029
 30
0.0
 11
1262.2231721033161
 21
251.5264286540272
 31
0.0
 12
1267.2231721033161
 22
251.5264286540272
 32
0.0
 13
1267.2231721033161
 23
251.5264286540272
 33
0.0
210
0.0
220
0.0
230
1.0
  0
SOLID
  5
AAC
  8
0
  6
CONTINUOUS
 10
-1263.4290768778039
 20
252.02593076655029
 30
0.0
 11
-1266.0172673288289
 21
252.02593076655029
 31
0.0
 12
-1267.2231721033161
 22
251.5264286540272
 32
0.0
 13
-1267.2231721033161
 23
251.5264286540272
 33
0.0
210
0.0
220
0.0
230
-1.0
  0
SOLID
  5
AAD
  8
0
  6
CONTINUOUS
 10
1262.2231721033161
 20
251.5264286540272
 30
0.0
 11
1261.187638197383
 21
250.73183554103741
 31
0.0
 12
1268.258706009249
 22
250.73183554103741
 32
0.0
 13
1268.258706009249
 23
250.73183554103741
 33
0.0
210
0.0
220
0.0
230
1.0
  0
SOLID
  5
AAE
  8
0
  6
CONTINUOUS
 10
-1262.2231721033161
 20
251.5264286540272
 30
0.0
 11
-1267.2231721033161
 21
251.5264286540272
 31
0.0
 12
-1268.258706009249
 22
250.73183554103741
 32
0.0
 13
-1268.258706009249
 23
250.73183554103741
 33
0.0
210
0.0
220
0.0
230
-1.0
  0
SOLID
  5
AAF
  8
0
  6
CONTINUOUS
 10
1261.187638197383
 20
250.73183554103741
 30
0.0
 11
1260.3930450843941
 21
249.69630163510499
 31
0.0
 12
1269.0532991222381
 22
249.69630163510499
 32
0.0
 13
1269.0532991222381
 23
249.69630163510499
 33
0.0
210
0.0
220
0.0
230
1.0
  0
SOLID
  5
AB0
  8
0
  6
CONTINUOUS
 10
-1261.187638197383
 20
250.73183554103741
 30
0.0
 11
-1268.258706009249
 21
250.73183554103741
 31
0.0
 12
-1269.0532991222381
 22
249.69630163510499
 32
0.0
 13
-1269.0532991222381
 23
249.69630163510499
 33
0.0
210
0.0
220
0.0
230
-1.0
  0
SOLID
  5
AB1
  8
0
  6
CONTINUOUS
 10
1260.3930450843941
 20
249.69630163510499
 30
0.0
 11
1259.8935429718711
 21
248.4903968606173
 31
0.0
 12
1269.5528012347611
 22
248.4903968606173
 32
0.0
 13
1269.5528012347611
 23
248.4903968606173
 33
0.0
210
0.0
220
0.0
230
1.0
  0
SOLID
  5
AB2
  8
0
  6
CONTINUOUS
 10
-1260.3930450843941
 20
249.69630163510499
 30
0.0
 11
-1269.0532991222381
 21
249.69630163510499
 31
0.0
 12
-1269.5528012347611
 22
248.4903968606173
 32
0.0
 13
-1269.5528012347611
 23
248.4903968606173
 33
0.0
210
0.0
220
0.0
230
-1.0
  0
SOLID
  5
AB3
  8
0
  6
CONTINUOUS
 10
1259.8935429718711
 20
248.4903968606173
 30
0.0
 11
1259.723172103317
 21
247.19630163510499
 31
0.0
 12
1269.7231721033161
 22
247.19630163510499
 32
0.0
 13
1269.7231721033161
 23
247.19630163510499
 33
0.0
210
0.0
220
0.0
230
1.0
  0
SOLID
  5
AB4
  8
0
  6
CONTINUOUS
 10
-1259.8935429718711
 20
248.4903968606173
 30
0.0
 11
-1269.5528012347611
 21
248.4903968606173
 31
0.0
 12
-1269.7231721033161
 22
247.19630163510499
 32
0.0
 13
-1269.7231721033161
 23
247.19630163510499
 33
0.0
210
0.0
220
0.0
230
-1.0
  0
SOLID
  5
AB5
  8
0
  6
CONTINUOUS
 10
1259.723172103317
 20
247.19630163510499
 30
0.0
 11
1259.8935429718711
 21
245.9022064095922
 31
0.0
 12
1269.5528012347611
 22
245.9022064095922
 32
0.0
 13
1269.5528012347611
 23
245.9022064095922
 33
0.0
  0
SOLID
  5
AB6
  8
0
  6
CONTINUOUS
 10
-1259.723172103317
 20
247.19630163510499
 30
0.0
 11
-1269.7231721033161
 21
247.19630163510499
 31
0.0
 12
-1269.5528012347611
 22
245.9022064095922
 32
0.0
 13
-1269.5528012347611
 23
245.9022064095922
 33
0.0
210
0.0
220
0.0
230
-1.0
  0
SOLID
  5
AB7
  8
0
  6
CONTINUOUS
 10
1259.8935429718711
 20
245.9022064095922
 30
0.0
 11
1260.3930450843941
 21
244.69630163510479
 31
0.0
 12
1269.0532991222381
 22
244.69630163510479
 32
0.0
 13
1269.0532991222381
 23
244.69630163510479
 33
0.0
210
0.0
220
0.0
230
1.0
  0
SOLID
  5
AB8
  8
0
  6
CONTINUOUS
 10
-1259.8935429718711
 20
245.9022064095922
 30
0.0
 11
-1269.5528012347611
 21
245.9022064095922
 31
0.0
 12
-1269.0532991222381
 22
244.69630163510479
 32
0.0
 13
-1269.0532991222381
 23
244.69630163510479
 33
0.0
210
0.0
220
0.0
230
-1.0
  0
SOLID
  5
AB9
  8
0
  6
CONTINUOUS
 10
1260.3930450843941
 20
244.69630163510479
 30
0.0
 11
1261.187638197383
 21
243.66076772917199
 31
0.0
 12
1268.258706009249
 22
243.66076772917199
 32
0.0
 13
1268.258706009249
 23
243.66076772917199
 33
0.0
210
0.0
220
0.0
230
1.0
  0
SOLID
  5
ABA
  8
0
  6
CONTINUOUS
 10
-1260.3930450843941
 20
244.69630163510479
 30
0.0
 11
-1269.0532991222381
 21
244.69630163510479
 31
0.0
 12
-1268.258706009249
 22
243.66076772917199
 32
0.0
 13
-1268.258706009249
 23
243.66076772917199
 33
0.0
210
0.0
220
0.0
230
-1.0
  0
SOLID
  5
ABB
  8
0
  6
CONTINUOUS
 10
1261.187638197383
 20
243.66076772917199
 30
0.0
 11
1262.2231721033161
 21
242.8661746161826
 31
0.0
 12
1267.2231721033161
 22
242.8661746161826
 32
0.0
 13
1267.2231721033161
 23
242.8661746161826
 33
0.0
210
0.0
220
0.0
230
1.0
  0
SOLID
  5
ABC
  8
0
  6
CONTINUOUS
 10
-1261.187638197383
 20
243.66076772917199
 30
0.0
 11
-1268.258706009249
 21
243.66076772917199
 31
0.0
 12
-1267.2231721033161
 22
242.8661746161826
 32
0.0
 13
-1267.2231721033161
 23
242.8661746161826
 33
0.0
210
0.0
220
0.0
230
-1.0
  0
SOLID
  5
ABD
  8
0
  6
CONTINUOUS
 10
-1263.4290768778039
 20
242.36667250365969
 30
0.0
 11
-1266.0172673288289
 21
242.36667250365969
 31
0.0
 12
-1264.7231721033161
 22
242.1963016351051
 32
0.0
 13
-1264.7231721033161
 23
242.1963016351051
 33
0.0
210
0.0
220
0.0
230
-1.0
  0
SOLID
  5
ABE
  8
0
  6
CONTINUOUS
 10
1262.2231721033161
 20
242.8661746161826
 30
0.0
 11
1263.4290768778039
 21
242.36667250365969
 31
0.0
 12
1266.0172673288289
 22
242.36667250365969
 32
0.0
 13
1266.0172673288289
 23
242.36667250365969
 33
0.0
210
0.0
220
0.0
230
1.0
  0
SOLID
  5
ABF
  8
0
  6
CONTINUOUS
 10
-1262.2231721033161
 20
242.8661746161826
 30
0.0
 11
-1267.2231721033161
 21
242.8661746161826
 31
0.0
 12
-1266.0172673288289
 22
242.36667250365969
 32
0.0
 13
-1266.0172673288289
 23
242.36667250365969
 33
0.0
210
0.0
220
0.0
230
-1.0
  0
LINE
  5
AC0
  8
0
  6
CONTINUOUS
 10
1264.7231721033161
 20
252.1963016351049
 30
0.0
 11
1263.4290768778039
 21
252.02593076655029
 31
0.0
  0
LINE
  5
AC1
  8
0
  6
CONTINUOUS
 10
1266.0172673288289
 20
252.02593076655029
 30
0.0
 11
1264.7231721033161
 21
252.1963016351049
 31
0.0
  0
LINE
  5
AC2
  8
0
  6
CONTINUOUS
 10
1263.4290768778039
 20
252.02593076655029
 30
0.0
 11
1262.2231721033161
 21
251.5264286540272
 31
0.0
  0
LINE
  5
AC3
  8
0
  6
CONTINUOUS
 10
1266.0172673288289
 20
252.02593076655029
 30
0.0
 11
1267.2231721033161
 21
251.5264286540272
 31
0.0
  0
LINE
  5
AC4
  8
0
  6
CONTINUOUS
 10
1262.2231721033161
 20
251.5264286540272
 30
0.0
 11
1261.187638197383
 21
250.73183554103741
 31
0.0
  0
LINE
  5
AC5
  8
0
  6
CONTINUOUS
 10
1267.2231721033161
 20
251.5264286540272
 30
0.0
 11
1268.258706009249
 21
250.73183554103741
 31
0.0
  0
LINE
  5
AC6
  8
0
  6
CONTINUOUS
 10
1261.187638197383
 20
250.73183554103741
 30
0.0
 11
1260.3930450843941
 21
249.69630163510499
 31
0.0
  0
LINE
  5
AC7
  8
0
  6
CONTINUOUS
 10
1268.258706009249
 20
250.73183554103741
 30
0.0
 11
1269.0532991222381
 21
249.69630163510499
 31
0.0
  0
LINE
  5
AC8
  8
0
  6
CONTINUOUS
 10
1260.3930450843941
 20
249.69630163510499
 30
0.0
 11
1259.8935429718711
 21
248.4903968606173
 31
0.0
  0
LINE
  5
AC9
  8
0
  6
CONTINUOUS
 10
1269.0532991222381
 20
249.69630163510499
 30
0.0
 11
1269.5528012347611
 21
248.4903968606173
 31
0.0
  0
LINE
  5
ACA
  8
0
  6
CONTINUOUS
 10
1259.8935429718711
 20
248.4903968606173
 30
0.0
 11
1259.723172103317
 21
247.19630163510499
 31
0.0
  0
LINE
  5
ACB
  8
0
  6
CONTINUOUS
 10
1269.5528012347611
 20
248.4903968606173
 30
0.0
 11
1269.7231721033161
 21
247.19630163510499
 31
0.0
  0
LINE
  5
ACC
  8
0
  6
CONTINUOUS
 10
1259.723172103317
 20
247.19630163510499
 30
0.0
 11
1259.8935429718711
 21
245.9022064095922
 31
0.0
  0
LINE
  5
ACD
  8
0
  6
CONTINUOUS
 10
1269.7231721033161
 20
247.19630163510499
 30
0.0
 11
1269.5528012347611
 21
245.9022064095922
 31
0.0
  0
LINE
  5
ACE
  8
0
  6
CONTINUOUS
 10
1259.8935429718711
 20
245.9022064095922
 30
0.0
 11
1260.3930450843941
 21
244.69630163510479
 31
0.0
  0
LINE
  5
ACF
  8
0
  6
CONTINUOUS
 10
1269.5528012347611
 20
245.9022064095922
 30
0.0
 11
1269.0532991222381
 21
244.69630163510479
 31
0.0
  0
LINE
  5
AD0
  8
0
  6
CONTINUOUS
 10
1260.3930450843941
 20
244.69630163510479
 30
0.0
 11
1261.187638197383
 21
243.66076772917199
 31
0.0
  0
LINE
  5
AD1
  8
0
  6
CONTINUOUS
 10
1269.0532991222381
 20
244.69630163510479
 30
0.0
 11
1268.258706009249
 21
243.66076772917199
 31
0.0
  0
LINE
  5
AD2
  8
0
  6
CONTINUOUS
 10
1261.187638197383
 20
243.66076772917199
 30
0.0
 11
1262.2231721033161
 21
242.8661746161826
 31
0.0
  0
LINE
  5
AD3
  8
0
  6
CONTINUOUS
 10
1268.258706009249
 20
243.66076772917199
 30
0.0
 11
1267.2231721033161
 21
242.8661746161826
 31
0.0
  0
LINE
  5
AD4
  8
0
  6
CONTINUOUS
 10
1266.0172673288289
 20
242.36667250365969
 30
0.0
 11
1264.7231721033161
 21
242.1963016351051
 31
0.0
  0
LINE
  5
AD5
  8
0
  6
CONTINUOUS
 10
1264.7231721033161
 20
242.1963016351051
 30
0.0
 11
1263.4290768778039
 21
242.36667250365969
 31
0.0
  0
LINE
  5
AD6
  8
0
  6
CONTINUOUS
 10
1262.2231721033161
 20
242.8661746161826
 30
0.0
 11
1263.4290768778039
 21
242.36667250365969
 31
0.0
  0
LINE
  5
AD7
  8
0
  6
CONTINUOUS
 10
1267.2231721033161
 20
242.8661746161826
 30
0.0
 11
1266.0172673288289
 21
242.36667250365969
 31
0.0
  0
ENDBLK
  5
AD9
  8
0
  0
BLOCK
  8
0
  2
*U12
 70
     1
 10
0.0
 20
0.0
 30
0.0
  3
*U12
  1

  0
SOLID
  5
ADB
  8
0
  6
CONTINUOUS
 10
864.06734449660769
 20
904.66857113462436
 30
0.0
 11
862.7732492710951
 21
904.49820026606994
 31
0.0
 12
865.36143972212017
 22
904.49820026606994
 32
0.0
 13
865.36143972212017
 23
904.49820026606994
 33
0.0
210
0.0
220
0.0
230
1.0
  0
SOLID
  5
ADC
  8
0
  6
CONTINUOUS
 10
862.7732492710951
 20
904.49820026606994
 30
0.0
 11
861.56734449660769
 21
903.9986981535468
 31
0.0
 12
866.56734449660757
 22
903.9986981535468
 32
0.0
 13
866.56734449660757
 23
903.9986981535468
 33
0.0
210
0.0
220
0.0
230
1.0
  0
SOLID
  5
ADD
  8
0
  6
CONTINUOUS
 10
-862.7732492710951
 20
904.49820026606994
 30
0.0
 11
-865.36143972212017
 21
904.49820026606994
 31
0.0
 12
-866.56734449660757
 22
903.9986981535468
 32
0.0
 13
-866.56734449660757
 23
903.9986981535468
 33
0.0
210
0.0
220
0.0
230
-1.0
  0
SOLID
  5
ADE
  8
0
  6
CONTINUOUS
 10
861.56734449660769
 20
903.9986981535468
 30
0.0
 11
860.53181059067504
 21
903.20410504055735
 31
0.0
 12
867.60287840254045
 22
903.20410504055735
 32
0.0
 13
867.60287840254045
 23
903.20410504055735
 33
0.0
210
0.0
220
0.0
230
1.0
  0
SOLID
  5
ADF
  8
0
  6
CONTINUOUS
 10
-861.56734449660769
 20
903.9986981535468
 30
0.0
 11
-866.56734449660757
 21
903.9986981535468
 31
0.0
 12
-867.60287840254045
 22
903.20410504055735
 32
0.0
 13
-867.60287840254045
 23
903.20410504055735
 33
0.0
210
0.0
220
0.0
230
-1.0
  0
SOLID
  5
AE0
  8
0
  6
CONTINUOUS
 10
860.53181059067504
 20
903.20410504055735
 30
0.0
 11
859.73721747768559
 21
902.16857113462447
 31
0.0
 12
868.39747151552967
 22
902.16857113462447
 32
0.0
 13
868.39747151552967
 23
902.16857113462447
 33
0.0
210
0.0
220
0.0
230
1.0
  0
SOLID
  5
AE1
  8
0
  6
CONTINUOUS
 10
-860.53181059067504
 20
903.20410504055735
 30
0.0
 11
-867.60287840254045
 21
903.20410504055735
 31
0.0
 12
-868.39747151552967
 22
902.16857113462447
 32
0.0
 13
-868.39747151552967
 23
902.16857113462447
 33
0.0
210
0.0
220
0.0
230
-1.0
  0
SOLID
  5
AE2
  8
0
  6
CONTINUOUS
 10
859.73721747768559
 20
902.16857113462447
 30
0.0
 11
859.23771536516267
 21
900.96266636013706
 31
0.0
 12
868.89697362805327
 22
900.96266636013706
 32
0.0
 13
868.89697362805327
 23
900.96266636013706
 33
0.0
210
0.0
220
0.0
230
1.0
  0
SOLID
  5
AE3
  8
0
  6
CONTINUOUS
 10
-859.73721747768559
 20
902.16857113462447
 30
0.0
 11
-868.39747151552967
 21
902.16857113462447
 31
0.0
 12
-868.89697362805327
 22
900.96266636013706
 32
0.0
 13
-868.89697362805327
 23
900.96266636013706
 33
0.0
210
0.0
220
0.0
230
-1.0
  0
SOLID
  5
AE4
  8
0
  6
CONTINUOUS
 10
859.23771536516267
 20
900.96266636013706
 30
0.0
 11
859.06734449660803
 21
899.66857113462447
 31
0.0
 12
869.0673444966078
 22
899.66857113462447
 32
0.0
 13
869.0673444966078
 23
899.66857113462447
 33
0.0
210
0.0
220
0.0
230
1.0
  0
SOLID
  5
AE5
  8
0
  6
CONTINUOUS
 10
-859.23771536516267
 20
900.96266636013706
 30
0.0
 11
-868.89697362805327
 21
900.96266636013706
 31
0.0
 12
-869.0673444966078
 22
899.66857113462447
 32
0.0
 13
-869.0673444966078
 23
899.66857113462447
 33
0.0
210
0.0
220
0.0
230
-1.0
  0
SOLID
  5
AE6
  8
0
  6
CONTINUOUS
 10
859.06734449660803
 20
899.66857113462447
 30
0.0
 11
859.23771536516267
 21
898.37447590911222
 31
0.0
 12
868.89697362805327
 22
898.37447590911222
 32
0.0
 13
868.89697362805327
 23
898.37447590911222
 33
0.0
210
0.0
220
0.0
230
1.0
  0
SOLID
  5
AE7
  8
0
  6
CONTINUOUS
 10
-859.06734449660803
 20
899.66857113462447
 30
0.0
 11
-869.0673444966078
 21
899.66857113462447
 31
0.0
 12
-868.89697362805327
 22
898.37447590911222
 32
0.0
 13
-868.89697362805327
 23
898.37447590911222
 33
0.0
210
0.0
220
0.0
230
-1.0
  0
SOLID
  5
AE8
  8
0
  6
CONTINUOUS
 10
859.23771536516267
 20
898.37447590911222
 30
0.0
 11
859.73721747768559
 21
897.16857113462459
 31
0.0
 12
868.39747151552967
 22
897.16857113462459
 32
0.0
 13
868.39747151552967
 23
897.16857113462459
 33
0.0
210
0.0
220
0.0
230
1.0
  0
SOLID
  5
AE9
  8
0
  6
CONTINUOUS
 10
-859.23771536516267
 20
898.37447590911222
 30
0.0
 11
-868.89697362805327
 21
898.37447590911222
 31
0.0
 12
-868.39747151552967
 22
897.16857113462459
 32
0.0
 13
-868.39747151552967
 23
897.16857113462459
 33
0.0
210
0.0
220
0.0
230
-1.0
  0
SOLID
  5
AEA
  8
0
  6
CONTINUOUS
 10
859.73721747768559
 20
897.16857113462459
 30
0.0
 11
860.53181059067504
 21
896.13303722869193
 31
0.0
 12
867.60287840254045
 22
896.13303722869193
 32
0.0
 13
867.60287840254045
 23
896.13303722869193
 33
0.0
210
0.0
220
0.0
230
1.0
  0
SOLID
  5
AEB
  8
0
  6
CONTINUOUS
 10
-859.73721747768559
 20
897.16857113462459
 30
0.0
 11
-868.39747151552967
 21
897.16857113462459
 31
0.0
 12
-867.60287840254045
 22
896.13303722869193
 32
0.0
 13
-867.60287840254045
 23
896.13303722869193
 33
0.0
210
0.0
220
0.0
230
-1.0
  0
SOLID
  5
AEC
  8
0
  6
CONTINUOUS
 10
860.53181059067504
 20
896.13303722869193
 30
0.0
 11
861.56734449660769
 21
895.33844411570249
 31
0.0
 12
866.56734449660757
 22
895.33844411570249
 32
0.0
 13
866.56734449660757
 23
895.33844411570249
 33
0.0
210
0.0
220
0.0
230
1.0
  0
SOLID
  5
AED
  8
0
  6
CONTINUOUS
 10
-860.53181059067504
 20
896.13303722869193
 30
0.0
 11
-867.60287840254045
 21
896.13303722869193
 31
0.0
 12
-866.56734449660757
 22
895.33844411570249
 32
0.0
 13
-866.56734449660757
 23
895.33844411570249
 33
0.0
210
0.0
220
0.0
230
-1.0
  0
SOLID
  5
AEE
  8
0
  6
CONTINUOUS
 10
-862.7732492710951
 20
894.83894200317911
 30
0.0
 11
-865.36143972212017
 21
894.83894200317911
 31
0.0
 12
-864.06734449660769
 22
894.66857113462459
 32
0.0
 13
-864.06734449660769
 23
894.66857113462459
 33
0.0
210
0.0
220
0.0
230
-1.0
  0
SOLID
  5
AEF
  8
0
  6
CONTINUOUS
 10
861.56734449660769
 20
895.33844411570249
 30
0.0
 11
862.7732492710951
 21
894.83894200317911
 31
0.0
 12
865.36143972212017
 22
894.83894200317911
 32
0.0
 13
865.36143972212017
 23
894.83894200317911
 33
0.0
210
0.0
220
0.0
230
1.0
  0
SOLID
  5
AF0
  8
0
  6
CONTINUOUS
 10
-861.56734449660769
 20
895.33844411570249
 30
0.0
 11
-866.56734449660757
 21
895.33844411570249
 31
0.0
 12
-865.36143972212017
 22
894.83894200317911
 32
0.0
 13
-865.36143972212017
 23
894.83894200317911
 33
0.0
210
0.0
220
0.0
230
-1.0
  0
LINE
  5
AF1
  8
0
  6
CONTINUOUS
 10
864.06734449660769
 20
904.66857113462436
 30
0.0
 11
862.7732492710951
 21
904.49820026606994
 31
0.0
  0
LINE
  5
AF2
  8
0
  6
CONTINUOUS
 10
865.36143972212017
 20
904.49820026606994
 30
0.0
 11
864.06734449660769
 21
904.66857113462436
 31
0.0
  0
LINE
  5
AF3
  8
0
  6
CONTINUOUS
 10
862.7732492710951
 20
904.49820026606994
 30
0.0
 11
861.56734449660769
 21
903.9986981535468
 31
0.0
  0
LINE
  5
AF4
  8
0
  6
CONTINUOUS
 10
865.36143972212017
 20
904.49820026606994
 30
0.0
 11
866.56734449660757
 21
903.9986981535468
 31
0.0
  0
LINE
  5
AF5
  8
0
  6
CONTINUOUS
 10
861.56734449660769
 20
903.9986981535468
 30
0.0
 11
860.53181059067504
 21
903.20410504055735
 31
0.0
  0
LINE
  5
AF6
  8
0
  6
CONTINUOUS
 10
866.56734449660757
 20
903.9986981535468
 30
0.0
 11
867.60287840254045
 21
903.20410504055735
 31
0.0
  0
LINE
  5
AF7
  8
0
  6
CONTINUOUS
 10
860.53181059067504
 20
903.20410504055735
 30
0.0
 11
859.73721747768559
 21
902.16857113462447
 31
0.0
  0
LINE
  5
AF8
  8
0
  6
CONTINUOUS
 10
867.60287840254045
 20
903.20410504055735
 30
0.0
 11
868.39747151552967
 21
902.16857113462447
 31
0.0
  0
LINE
  5
AF9
  8
0
  6
CONTINUOUS
 10
859.73721747768559
 20
902.16857113462447
 30
0.0
 11
859.23771536516267
 21
900.96266636013706
 31
0.0
  0
LINE
  5
AFA
  8
0
  6
CONTINUOUS
 10
868.39747151552967
 20
902.16857113462447
 30
0.0
 11
868.89697362805327
 21
900.96266636013706
 31
0.0
  0
LINE
  5
AFB
  8
0
  6
CONTINUOUS
 10
859.23771536516267
 20
900.96266636013706
 30
0.0
 11
859.06734449660803
 21
899.66857113462447
 31
0.0
  0
LINE
  5
AFC
  8
0
  6
CONTINUOUS
 10
868.89697362805327
 20
900.96266636013706
 30
0.0
 11
869.0673444966078
 21
899.66857113462447
 31
0.0
  0
LINE
  5
AFD
  8
0
  6
CONTINUOUS
 10
859.06734449660803
 20
899.66857113462447
 30
0.0
 11
859.23771536516267
 21
898.37447590911222
 31
0.0
  0
LINE
  5
AFE
  8
0
  6
CONTINUOUS
 10
869.0673444966078
 20
899.66857113462447
 30
0.0
 11
868.89697362805327
 21
898.37447590911222
 31
0.0
  0
LINE
  5
AFF
  8
0
  6
CONTINUOUS
 10
859.23771536516267
 20
898.37447590911222
 30
0.0
 11
859.73721747768559
 21
897.16857113462459
 31
0.0
  0
LINE
  5
B00
  8
0
  6
CONTINUOUS
 10
868.89697362805327
 20
898.37447590911222
 30
0.0
 11
868.39747151552967
 21
897.16857113462459
 31
0.0
  0
LINE
  5
B01
  8
0
  6
CONTINUOUS
 10
859.73721747768559
 20
897.16857113462459
 30
0.0
 11
860.53181059067504
 21
896.13303722869193
 31
0.0
  0
LINE
  5
B02
  8
0
  6
CONTINUOUS
 10
868.39747151552967
 20
897.16857113462459
 30
0.0
 11
867.60287840254045
 21
896.13303722869193
 31
0.0
  0
LINE
  5
B03
  8
0
  6
CONTINUOUS
 10
860.53181059067504
 20
896.13303722869193
 30
0.0
 11
861.56734449660769
 21
895.33844411570249
 31
0.0
  0
LINE
  5
B04
  8
0
  6
CONTINUOUS
 10
867.60287840254045
 20
896.13303722869193
 30
0.0
 11
866.56734449660757
 21
895.33844411570249
 31
0.0
  0
LINE
  5
B05
  8
0
  6
CONTINUOUS
 10
865.36143972212017
 20
894.83894200317911
 30
0.0
 11
864.06734449660769
 21
894.66857113462459
 31
0.0
  0
LINE
  5
B06
  8
0
  6
CONTINUOUS
 10
864.06734449660769
 20
894.66857113462459
 30
0.0
 11
862.7732492710951
 21
894.83894200317911
 31
0.0
  0
LINE
  5
B07
  8
0
  6
CONTINUOUS
 10
861.56734449660769
 20
895.33844411570249
 30
0.0
 11
862.7732492710951
 21
894.83894200317911
 31
0.0
  0
LINE
  5
B08
  8
0
  6
CONTINUOUS
 10
866.56734449660757
 20
895.33844411570249
 30
0.0
 11
865.36143972212017
 21
894.83894200317911
 31
0.0
  0
ENDBLK
  5
B0A
  8
0
  0
BLOCK
  8
0
  2
*U13
 70
     1
 10
0.0
 20
0.0
 30
0.0
  3
*U13
  1

  0
SOLID
  5
B0C
  8
0
  6
CONTINUOUS
 10
1006.538910362685
 20
840.65260154790565
 30
0.0
 11
1005.2448151371721
 21
840.48223067935101
 31
0.0
 12
1007.833005588197
 22
840.48223067935101
 32
0.0
 13
1007.833005588197
 23
840.48223067935101
 33
0.0
210
0.0
220
0.0
230
1.0
  0
SOLID
  5
B0D
  8
0
  6
CONTINUOUS
 10
1005.2448151371721
 20
840.48223067935101
 30
0.0
 11
1004.038910362685
 21
839.98272856682797
 31
0.0
 12
1009.038910362685
 22
839.98272856682797
 32
0.0
 13
1009.038910362685
 23
839.98272856682797
 33
0.0
210
0.0
220
0.0
230
1.0
  0
SOLID
  5
B0E
  8
0
  6
CONTINUOUS
 10
-1005.2448151371721
 20
840.48223067935101
 30
0.0
 11
-1007.833005588197
 21
840.48223067935101
 31
0.0
 12
-1009.038910362685
 22
839.98272856682797
 32
0.0
 13
-1009.038910362685
 23
839.98272856682797
 33
0.0
210
0.0
220
0.0
230
-1.0
  0
SOLID
  5
B0F
  8
0
  6
CONTINUOUS
 10
1004.038910362685
 20
839.98272856682797
 30
0.0
 11
1003.003376456752
 21
839.18813545383853
 31
0.0
 12
1010.074444268617
 22
839.18813545383853
 32
0.0
 13
1010.074444268617
 23
839.18813545383853
 33
0.0
210
0.0
220
0.0
230
1.0
  0
SOLID
  5
B10
  8
0
  6
CONTINUOUS
 10
-1004.038910362685
 20
839.98272856682797
 30
0.0
 11
-1009.038910362685
 21
839.98272856682797
 31
0.0
 12
-1010.074444268617
 22
839.18813545383853
 32
0.0
 13
-1010.074444268617
 23
839.18813545383853
 33
0.0
210
0.0
220
0.0
230
-1.0
  0
SOLID
  5
B11
  8
0
  6
CONTINUOUS
 10
1003.003376456752
 20
839.18813545383853
 30
0.0
 11
1002.208783343762
 21
838.15260154790565
 31
0.0
 12
1010.869037381607
 22
838.15260154790565
 32
0.0
 13
1010.869037381607
 23
838.15260154790565
 33
0.0
210
0.0
220
0.0
230
1.0
  0
SOLID
  5
B12
  8
0
  6
CONTINUOUS
 10
-1003.003376456752
 20
839.18813545383853
 30
0.0
 11
-1010.074444268617
 21
839.18813545383853
 31
0.0
 12
-1010.869037381607
 22
838.15260154790565
 32
0.0
 13
-1010.869037381607
 23
838.15260154790565
 33
0.0
210
0.0
220
0.0
230
-1.0
  0
SOLID
  5
B13
  8
0
  6
CONTINUOUS
 10
1002.208783343762
 20
838.15260154790565
 30
0.0
 11
1001.70928123124
 21
836.94669677341847
 31
0.0
 12
1011.36853949413
 22
836.94669677341847
 32
0.0
 13
1011.36853949413
 23
836.94669677341847
 33
0.0
210
0.0
220
0.0
230
1.0
  0
SOLID
  5
B14
  8
0
  6
CONTINUOUS
 10
-1002.208783343762
 20
838.15260154790565
 30
0.0
 11
-1010.869037381607
 21
838.15260154790565
 31
0.0
 12
-1011.36853949413
 22
836.94669677341847
 32
0.0
 13
-1011.36853949413
 23
836.94669677341847
 33
0.0
210
0.0
220
0.0
230
-1.0
  0
SOLID
  5
B15
  8
0
  6
CONTINUOUS
 10
1001.70928123124
 20
836.94669677341847
 30
0.0
 11
1001.538910362685
 21
835.65260154790576
 31
0.0
 12
1011.538910362685
 22
835.65260154790576
 32
0.0
 13
1011.538910362685
 23
835.65260154790576
 33
0.0
210
0.0
220
0.0
230
1.0
  0
SOLID
  5
B16
  8
0
  6
CONTINUOUS
 10
-1001.70928123124
 20
836.94669677341847
 30
0.0
 11
-1011.36853949413
 21
836.94669677341847
 31
0.0
 12
-1011.538910362685
 22
835.65260154790576
 32
0.0
 13
-1011.538910362685
 23
835.65260154790576
 33
0.0
210
0.0
220
0.0
230
-1.0
  0
SOLID
  5
B17
  8
0
  6
CONTINUOUS
 10
1001.538910362685
 20
835.65260154790576
 30
0.0
 11
1001.70928123124
 21
834.35850632239328
 31
0.0
 12
1011.36853949413
 22
834.35850632239328
 32
0.0
 13
1011.36853949413
 23
834.35850632239328
 33
0.0
210
0.0
220
0.0
230
1.0
  0
SOLID
  5
B18
  8
0
  6
CONTINUOUS
 10
-1001.538910362685
 20
835.65260154790576
 30
0.0
 11
-1011.538910362685
 21
835.65260154790576
 31
0.0
 12
-1011.36853949413
 22
834.35850632239328
 32
0.0
 13
-1011.36853949413
 23
834.35850632239328
 33
0.0
210
0.0
220
0.0
230
-1.0
  0
SOLID
  5
B19
  8
0
  6
CONTINUOUS
 10
1001.70928123124
 20
834.35850632239328
 30
0.0
 11
1002.208783343762
 21
833.15260154790576
 31
0.0
 12
1010.869037381607
 22
833.15260154790576
 32
0.0
 13
1010.869037381607
 23
833.15260154790576
 33
0.0
210
0.0
220
0.0
230
1.0
  0
SOLID
  5
B1A
  8
0
  6
CONTINUOUS
 10
-1001.70928123124
 20
834.35850632239328
 30
0.0
 11
-1011.36853949413
 21
834.35850632239328
 31
0.0
 12
-1010.869037381607
 22
833.15260154790576
 32
0.0
 13
-1010.869037381607
 23
833.15260154790576
 33
0.0
210
0.0
220
0.0
230
-1.0
  0
SOLID
  5
B1B
  8
0
  6
CONTINUOUS
 10
1002.208783343762
 20
833.15260154790576
 30
0.0
 11
1003.003376456752
 21
832.11706764197311
 31
0.0
 12
1010.074444268617
 22
832.11706764197311
 32
0.0
 13
1010.074444268617
 23
832.11706764197311
 33
0.0
210
0.0
220
0.0
230
1.0
  0
SOLID
  5
B1C
  8
0
  6
CONTINUOUS
 10
-1002.208783343762
 20
833.15260154790576
 30
0.0
 11
-1010.869037381607
 21
833.15260154790576
 31
0.0
 12
-1010.074444268617
 22
832.11706764197311
 32
0.0
 13
-1010.074444268617
 23
832.11706764197311
 33
0.0
210
0.0
220
0.0
230
-1.0
  0
SOLID
  5
B1D
  8
0
  6
CONTINUOUS
 10
1003.003376456752
 20
832.11706764197311
 30
0.0
 11
1004.038910362685
 21
831.32247452898355
 31
0.0
 12
1009.038910362685
 22
831.32247452898355
 32
0.0
 13
1009.038910362685
 23
831.32247452898355
 33
0.0
210
0.0
220
0.0
230
1.0
  0
SOLID
  5
B1E
  8
0
  6
CONTINUOUS
 10
-1003.003376456752
 20
832.11706764197311
 30
0.0
 11
-1010.074444268617
 21
832.11706764197311
 31
0.0
 12
-1009.038910362685
 22
831.32247452898355
 32
0.0
 13
-1009.038910362685
 23
831.32247452898355
 33
0.0
210
0.0
220
0.0
230
-1.0
  0
SOLID
  5
B1F
  8
0
  6
CONTINUOUS
 10
-1005.2448151371721
 20
830.8229724164604
 30
0.0
 11
-1007.833005588197
 21
830.8229724164604
 31
0.0
 12
-1006.538910362685
 22
830.65260154790565
 32
0.0
 13
-1006.538910362685
 23
830.65260154790565
 33
0.0
210
0.0
220
0.0
230
-1.0
  0
SOLID
  5
B20
  8
0
  6
CONTINUOUS
 10
1004.038910362685
 20
831.32247452898355
 30
0.0
 11
1005.2448151371721
 21
830.8229724164604
 31
0.0
 12
1007.833005588197
 22
830.8229724164604
 32
0.0
 13
1007.833005588197
 23
830.8229724164604
 33
0.0
210
0.0
220
0.0
230
1.0
  0
SOLID
  5
B21
  8
0
  6
CONTINUOUS
 10
-1004.038910362685
 20
831.32247452898355
 30
0.0
 11
-1009.038910362685
 21
831.32247452898355
 31
0.0
 12
-1007.833005588197
 22
830.8229724164604
 32
0.0
 13
-1007.833005588197
 23
830.8229724164604
 33
0.0
210
0.0
220
0.0
230
-1.0
  0
LINE
  5
B22
  8
0
  6
CONTINUOUS
 10
1006.538910362685
 20
840.65260154790565
 30
0.0
 11
1005.2448151371721
 21
840.48223067935101
 31
0.0
  0
LINE
  5
B23
  8
0
  6
CONTINUOUS
 10
1007.833005588197
 20
840.48223067935101
 30
0.0
 11
1006.538910362685
 21
840.65260154790565
 31
0.0
  0
LINE
  5
B24
  8
0
  6
CONTINUOUS
 10
1005.2448151371721
 20
840.48223067935101
 30
0.0
 11
1004.038910362685
 21
839.98272856682797
 31
0.0
  0
LINE
  5
B25
  8
0
  6
CONTINUOUS
 10
1007.833005588197
 20
840.48223067935101
 30
0.0
 11
1009.038910362685
 21
839.98272856682797
 31
0.0
  0
LINE
  5
B26
  8
0
  6
CONTINUOUS
 10
1004.038910362685
 20
839.98272856682797
 30
0.0
 11
1003.003376456752
 21
839.18813545383853
 31
0.0
  0
LINE
  5
B27
  8
0
  6
CONTINUOUS
 10
1009.038910362685
 20
839.98272856682797
 30
0.0
 11
1010.074444268617
 21
839.18813545383853
 31
0.0
  0
LINE
  5
B28
  8
0
  6
CONTINUOUS
 10
1003.003376456752
 20
839.18813545383853
 30
0.0
 11
1002.208783343762
 21
838.15260154790565
 31
0.0
  0
LINE
  5
B29
  8
0
  6
CONTINUOUS
 10
1010.074444268617
 20
839.18813545383853
 30
0.0
 11
1010.869037381607
 21
838.15260154790565
 31
0.0
  0
LINE
  5
B2A
  8
0
  6
CONTINUOUS
 10
1002.208783343762
 20
838.15260154790565
 30
0.0
 11
1001.70928123124
 21
836.94669677341847
 31
0.0
  0
LINE
  5
B2B
  8
0
  6
CONTINUOUS
 10
1010.869037381607
 20
838.15260154790565
 30
0.0
 11
1011.36853949413
 21
836.94669677341847
 31
0.0
  0
LINE
  5
B2C
  8
0
  6
CONTINUOUS
 10
1001.70928123124
 20
836.94669677341847
 30
0.0
 11
1001.538910362685
 21
835.65260154790576
 31
0.0
  0
LINE
  5
B2D
  8
0
  6
CONTINUOUS
 10
1011.36853949413
 20
836.94669677341847
 30
0.0
 11
1011.538910362685
 21
835.65260154790576
 31
0.0
  0
LINE
  5
B2E
  8
0
  6
CONTINUOUS
 10
1001.538910362685
 20
835.65260154790576
 30
0.0
 11
1001.70928123124
 21
834.35850632239328
 31
0.0
  0
LINE
  5
B2F
  8
0
  6
CONTINUOUS
 10
1011.538910362685
 20
835.65260154790576
 30
0.0
 11
1011.36853949413
 21
834.35850632239328
 31
0.0
  0
LINE
  5
B30
  8
0
  6
CONTINUOUS
 10
1001.70928123124
 20
834.35850632239328
 30
0.0
 11
1002.208783343762
 21
833.15260154790576
 31
0.0
  0
LINE
  5
B31
  8
0
  6
CONTINUOUS
 10
1011.36853949413
 20
834.35850632239328
 30
0.0
 11
1010.869037381607
 21
833.15260154790576
 31
0.0
  0
LINE
  5
B32
  8
0
  6
CONTINUOUS
 10
1002.208783343762
 20
833.15260154790576
 30
0.0
 11
1003.003376456752
 21
832.11706764197311
 31
0.0
  0
LINE
  5
B33
  8
0
  6
CONTINUOUS
 10
1010.869037381607
 20
833.15260154790576
 30
0.0
 11
1010.074444268617
 21
832.11706764197311
 31
0.0
  0
LINE
  5
B34
  8
0
  6
CONTINUOUS
 10
1003.003376456752
 20
832.11706764197311
 30
0.0
 11
1004.038910362685
 21
831.32247452898355
 31
0.0
  0
LINE
  5
B35
  8
0
  6
CONTINUOUS
 10
1010.074444268617
 20
832.11706764197311
 30
0.0
 11
1009.038910362685
 21
831.32247452898355
 31
0.0
  0
LINE
  5
B36
  8
0
  6
CONTINUOUS
 10
1007.833005588197
 20
830.8229724164604
 30
0.0
 11
1006.538910362685
 21
830.65260154790565
 31
0.0
  0
LINE
  5
B37
  8
0
  6
CONTINUOUS
 10
1006.538910362685
 20
830.65260154790565
 30
0.0
 11
1005.2448151371721
 21
830.8229724164604
 31
0.0
  0
LINE
  5
B38
  8
0
  6
CONTINUOUS
 10
1004.038910362685
 20
831.32247452898355
 30
0.0
 11
1005.2448151371721
 21
830.8229724164604
 31
0.0
  0
LINE
  5
B39
  8
0
  6
CONTINUOUS
 10
1009.038910362685
 20
831.32247452898355
 30
0.0
 11
1007.833005588197
 21
830.8229724164604
 31
0.0
  0
ENDBLK
  5
B3B
  8
0
  0
BLOCK
  8
0
  2
*U14
 70
     1
 10
0.0
 20
0.0
 30
0.0
  3
*U14
  1

  0
SOLID
  5
B3D
  8
0
  6
CONTINUOUS
 10
242.82170873260941
 20
163.09516157512749
 30
0.0
 11
241.52761350709699
 21
162.92479070657279
 31
0.0
 12
244.1158039581222
 22
162.92479070657279
 32
0.0
 13
244.1158039581222
 23
162.92479070657279
 33
0.0
210
0.0
220
0.0
230
1.0
  0
SOLID
  5
B3E
  8
0
  6
CONTINUOUS
 10
241.52761350709699
 20
162.92479070657279
 30
0.0
 11
240.32170873260961
 21
162.4252885940497
 31
0.0
 12
245.32170873260961
 22
162.4252885940497
 32
0.0
 13
245.32170873260961
 23
162.4252885940497
 33
0.0
210
0.0
220
0.0
230
1.0
  0
SOLID
  5
B3F
  8
0
  6
CONTINUOUS
 10
-241.52761350709699
 20
162.92479070657279
 30
0.0
 11
-244.1158039581222
 21
162.92479070657279
 31
0.0
 12
-245.32170873260961
 22
162.4252885940497
 32
0.0
 13
-245.32170873260961
 23
162.4252885940497
 33
0.0
210
0.0
220
0.0
230
-1.0
  0
SOLID
  5
B40
  8
0
  6
CONTINUOUS
 10
240.32170873260961
 20
162.4252885940497
 30
0.0
 11
239.2861748266769
 21
161.6306954810602
 31
0.0
 12
246.35724263854229
 22
161.6306954810602
 32
0.0
 13
246.35724263854229
 23
161.6306954810602
 33
0.0
210
0.0
220
0.0
230
1.0
  0
SOLID
  5
B41
  8
0
  6
CONTINUOUS
 10
-240.32170873260961
 20
162.4252885940497
 30
0.0
 11
-245.32170873260961
 21
162.4252885940497
 31
0.0
 12
-246.35724263854229
 22
161.6306954810602
 32
0.0
 13
-246.35724263854229
 23
161.6306954810602
 33
0.0
210
0.0
220
0.0
230
-1.0
  0
SOLID
  5
B42
  8
0
  6
CONTINUOUS
 10
239.2861748266769
 20
161.6306954810602
 30
0.0
 11
238.4915817136874
 21
160.59516157512749
 31
0.0
 12
247.15183575153171
 22
160.59516157512749
 32
0.0
 13
247.15183575153171
 23
160.59516157512749
 33
0.0
210
0.0
220
0.0
230
1.0
  0
SOLID
  5
B43
  8
0
  6
CONTINUOUS
 10
-239.2861748266769
 20
161.6306954810602
 30
0.0
 11
-246.35724263854229
 21
161.6306954810602
 31
0.0
 12
-247.15183575153171
 22
160.59516157512749
 32
0.0
 13
-247.15183575153171
 23
160.59516157512749
 33
0.0
210
0.0
220
0.0
230
-1.0
  0
SOLID
  5
B44
  8
0
  6
CONTINUOUS
 10
238.4915817136874
 20
160.59516157512749
 30
0.0
 11
237.99207960116419
 21
159.38925680064011
 31
0.0
 12
247.6513378640548
 22
159.38925680064011
 32
0.0
 13
247.6513378640548
 23
159.38925680064011
 33
0.0
210
0.0
220
0.0
230
1.0
  0
SOLID
  5
B45
  8
0
  6
CONTINUOUS
 10
-238.4915817136874
 20
160.59516157512749
 30
0.0
 11
-247.15183575153171
 21
160.59516157512749
 31
0.0
 12
-247.6513378640548
 22
159.38925680064011
 32
0.0
 13
-247.6513378640548
 23
159.38925680064011
 33
0.0
210
0.0
220
0.0
230
-1.0
  0
SOLID
  5
B46
  8
0
  6
CONTINUOUS
 10
237.99207960116419
 20
159.38925680064011
 30
0.0
 11
237.82170873260961
 21
158.09516157512749
 31
0.0
 12
247.82170873260969
 22
158.09516157512749
 32
0.0
 13
247.82170873260969
 23
158.09516157512749
 33
0.0
210
0.0
220
0.0
230
1.0
  0
SOLID
  5
B47
  8
0
  6
CONTINUOUS
 10
-237.99207960116419
 20
159.38925680064011
 30
0.0
 11
-247.6513378640548
 21
159.38925680064011
 31
0.0
 12
-247.82170873260969
 22
158.09516157512749
 32
0.0
 13
-247.82170873260969
 23
158.09516157512749
 33
0.0
210
0.0
220
0.0
230
-1.0
  0
SOLID
  5
B48
  8
0
  6
CONTINUOUS
 10
237.82170873260961
 20
158.09516157512749
 30
0.0
 11
237.99207960116419
 21
156.80106634961501
 31
0.0
 12
247.6513378640548
 22
156.80106634961501
 32
0.0
 13
247.6513378640548
 23
156.80106634961501
 33
0.0
210
0.0
220
0.0
230
1.0
  0
SOLID
  5
B49
  8
0
  6
CONTINUOUS
 10
-237.82170873260961
 20
158.09516157512749
 30
0.0
 11
-247.82170873260969
 21
158.09516157512749
 31
0.0
 12
-247.6513378640548
 22
156.80106634961501
 32
0.0
 13
-247.6513378640548
 23
156.80106634961501
 33
0.0
210
0.0
220
0.0
230
-1.0
  0
SOLID
  5
B4A
  8
0
  6
CONTINUOUS
 10
237.99207960116419
 20
156.80106634961501
 30
0.0
 11
238.49158171368731
 21
155.59516157512761
 31
0.0
 12
247.15183575153171
 22
155.59516157512761
 32
0.0
 13
247.15183575153171
 23
155.59516157512761
 33
0.0
210
0.0
220
0.0
230
1.0
  0
SOLID
  5
B4B
  8
0
  6
CONTINUOUS
 10
-237.99207960116419
 20
156.80106634961501
 30
0.0
 11
-247.6513378640548
 21
156.80106634961501
 31
0.0
 12
-247.15183575153171
 22
155.59516157512761
 32
0.0
 13
-247.15183575153171
 23
155.59516157512761
 33
0.0
210
0.0
220
0.0
230
-1.0
  0
SOLID
  5
B4C
  8
0
  6
CONTINUOUS
 10
238.49158171368731
 20
155.59516157512761
 30
0.0
 11
239.2861748266769
 21
154.55962766919481
 31
0.0
 12
246.35724263854229
 22
154.55962766919481
 32
0.0
 13
246.35724263854229
 23
154.55962766919481
 33
0.0
210
0.0
220
0.0
230
1.0
  0
SOLID
  5
B4D
  8
0
  6
CONTINUOUS
 10
-238.49158171368731
 20
155.59516157512761
 30
0.0
 11
-247.15183575153171
 21
155.59516157512761
 31
0.0
 12
-246.35724263854229
 22
154.55962766919481
 32
0.0
 13
-246.35724263854229
 23
154.55962766919481
 33
0.0
210
0.0
220
0.0
230
-1.0
  0
SOLID
  5
B4E
  8
0
  6
CONTINUOUS
 10
239.2861748266769
 20
154.55962766919481
 30
0.0
 11
240.32170873260941
 21
153.76503455620539
 31
0.0
 12
245.32170873260961
 22
153.76503455620539
 32
0.0
 13
245.32170873260961
 23
153.76503455620539
 33
0.0
210
0.0
220
0.0
230
1.0
  0
SOLID
  5
B4F
  8
0
  6
CONTINUOUS
 10
-239.2861748266769
 20
154.55962766919481
 30
0.0
 11
-246.35724263854229
 21
154.55962766919481
 31
0.0
 12
-245.32170873260961
 22
153.76503455620539
 32
0.0
 13
-245.32170873260961
 23
153.76503455620539
 33
0.0
210
0.0
220
0.0
230
-1.0
  0
SOLID
  5
B50
  8
0
  6
CONTINUOUS
 10
-241.52761350709699
 20
153.26553244368199
 30
0.0
 11
-244.1158039581222
 21
153.26553244368199
 31
0.0
 12
-242.82170873260941
 22
153.09516157512729
 32
0.0
 13
-242.82170873260941
 23
153.09516157512729
 33
0.0
210
0.0
220
0.0
230
-1.0
  0
SOLID
  5
B51
  8
0
  6
CONTINUOUS
 10
240.32170873260941
 20
153.76503455620539
 30
0.0
 11
241.52761350709699
 21
153.26553244368199
 31
0.0
 12
244.1158039581222
 22
153.26553244368199
 32
0.0
 13
244.1158039581222
 23
153.26553244368199
 33
0.0
210
0.0
220
0.0
230
1.0
  0
SOLID
  5
B52
  8
0
  6
CONTINUOUS
 10
-240.32170873260941
 20
153.76503455620539
 30
0.0
 11
-245.32170873260961
 21
153.76503455620539
 31
0.0
 12
-244.1158039581222
 22
153.26553244368199
 32
0.0
 13
-244.1158039581222
 23
153.26553244368199
 33
0.0
210
0.0
220
0.0
230
-1.0
  0
LINE
  5
B53
  8
0
  6
CONTINUOUS
 10
242.82170873260941
 20
163.09516157512749
 30
0.0
 11
241.52761350709699
 21
162.92479070657279
 31
0.0
  0
LINE
  5
B54
  8
0
  6
CONTINUOUS
 10
244.1158039581222
 20
162.92479070657279
 30
0.0
 11
242.82170873260941
 21
163.09516157512749
 31
0.0
  0
LINE
  5
B55
  8
0
  6
CONTINUOUS
 10
241.52761350709699
 20
162.92479070657279
 30
0.0
 11
240.32170873260961
 21
162.4252885940497
 31
0.0
  0
LINE
  5
B56
  8
0
  6
CONTINUOUS
 10
244.1158039581222
 20
162.92479070657279
 30
0.0
 11
245.32170873260961
 21
162.4252885940497
 31
0.0
  0
LINE
  5
B57
  8
0
  6
CONTINUOUS
 10
240.32170873260961
 20
162.4252885940497
 30
0.0
 11
239.2861748266769
 21
161.6306954810602
 31
0.0
  0
LINE
  5
B58
  8
0
  6
CONTINUOUS
 10
245.32170873260961
 20
162.4252885940497
 30
0.0
 11
246.35724263854229
 21
161.6306954810602
 31
0.0
  0
LINE
  5
B59
  8
0
  6
CONTINUOUS
 10
239.2861748266769
 20
161.6306954810602
 30
0.0
 11
238.4915817136874
 21
160.59516157512749
 31
0.0
  0
LINE
  5
B5A
  8
0
  6
CONTINUOUS
 10
246.35724263854229
 20
161.6306954810602
 30
0.0
 11
247.15183575153171
 21
160.59516157512749
 31
0.0
  0
LINE
  5
B5B
  8
0
  6
CONTINUOUS
 10
238.4915817136874
 20
160.59516157512749
 30
0.0
 11
237.99207960116419
 21
159.38925680064011
 31
0.0
  0
LINE
  5
B5C
  8
0
  6
CONTINUOUS
 10
247.15183575153171
 20
160.59516157512749
 30
0.0
 11
247.6513378640548
 21
159.38925680064011
 31
0.0
  0
LINE
  5
B5D
  8
0
  6
CONTINUOUS
 10
237.99207960116419
 20
159.38925680064011
 30
0.0
 11
237.82170873260961
 21
158.09516157512749
 31
0.0
  0
LINE
  5
B5E
  8
0
  6
CONTINUOUS
 10
247.6513378640548
 20
159.38925680064011
 30
0.0
 11
247.82170873260969
 21
158.09516157512749
 31
0.0
  0
LINE
  5
B5F
  8
0
  6
CONTINUOUS
 10
237.82170873260961
 20
158.09516157512749
 30
0.0
 11
237.99207960116419
 21
156.80106634961501
 31
0.0
  0
LINE
  5
B60
  8
0
  6
CONTINUOUS
 10
247.82170873260969
 20
158.09516157512749
 30
0.0
 11
247.6513378640548
 21
156.80106634961501
 31
0.0
  0
LINE
  5
B61
  8
0
  6
CONTINUOUS
 10
237.99207960116419
 20
156.80106634961501
 30
0.0
 11
238.49158171368731
 21
155.59516157512761
 31
0.0
  0
LINE
  5
B62
  8
0
  6
CONTINUOUS
 10
247.6513378640548
 20
156.80106634961501
 30
0.0
 11
247.15183575153171
 21
155.59516157512761
 31
0.0
  0
LINE
  5
B63
  8
0
  6
CONTINUOUS
 10
238.49158171368731
 20
155.59516157512761
 30
0.0
 11
239.2861748266769
 21
154.55962766919481
 31
0.0
  0
LINE
  5
B64
  8
0
  6
CONTINUOUS
 10
247.15183575153171
 20
155.59516157512761
 30
0.0
 11
246.35724263854229
 21
154.55962766919481
 31
0.0
  0
LINE
  5
B65
  8
0
  6
CONTINUOUS
 10
239.2861748266769
 20
154.55962766919481
 30
0.0
 11
240.32170873260941
 21
153.76503455620539
 31
0.0
  0
LINE
  5
B66
  8
0
  6
CONTINUOUS
 10
246.35724263854229
 20
154.55962766919481
 30
0.0
 11
245.32170873260961
 21
153.76503455620539
 31
0.0
  0
LINE
  5
B67
  8
0
  6
CONTINUOUS
 10
244.1158039581222
 20
153.26553244368199
 30
0.0
 11
242.82170873260941
 21
153.09516157512729
 31
0.0
  0
LINE
  5
B68
  8
0
  6
CONTINUOUS
 10
242.82170873260941
 20
153.09516157512729
 30
0.0
 11
241.52761350709699
 21
153.26553244368199
 31
0.0
  0
LINE
  5
B69
  8
0
  6
CONTINUOUS
 10
240.32170873260941
 20
153.76503455620539
 30
0.0
 11
241.52761350709699
 21
153.26553244368199
 31
0.0
  0
LINE
  5
B6A
  8
0
  6
CONTINUOUS
 10
245.32170873260961
 20
153.76503455620539
 30
0.0
 11
244.1158039581222
 21
153.26553244368199
 31
0.0
  0
ENDBLK
  5
B6C
  8
0
  0
BLOCK
  8
0
  2
*U15
 70
     1
 10
0.0
 20
0.0
 30
0.0
  3
*U15
  1

  0
SOLID
  5
B6E
  8
0
  6
CONTINUOUS
 10
1124.3131877763781
 20
748.80021322371499
 30
0.0
 11
1123.0190925508659
 21
748.62984235516046
 31
0.0
 12
1125.6072830018909
 22
748.62984235516046
 32
0.0
 13
1125.6072830018909
 23
748.62984235516046
 33
0.0
210
0.0
220
0.0
230
1.0
  0
SOLID
  5
B6F
  8
0
  6
CONTINUOUS
 10
1123.0190925508659
 20
748.62984235516046
 30
0.0
 11
1121.8131877763781
 21
748.13034024263732
 31
0.0
 12
1126.8131877763781
 22
748.13034024263732
 32
0.0
 13
1126.8131877763781
 23
748.13034024263732
 33
0.0
210
0.0
220
0.0
230
1.0
  0
SOLID
  5
B70
  8
0
  6
CONTINUOUS
 10
-1123.0190925508659
 20
748.62984235516046
 30
0.0
 11
-1125.6072830018909
 21
748.62984235516046
 31
0.0
 12
-1126.8131877763781
 22
748.13034024263732
 32
0.0
 13
-1126.8131877763781
 23
748.13034024263732
 33
0.0
210
0.0
220
0.0
230
-1.0
  0
SOLID
  5
B71
  8
0
  6
CONTINUOUS
 10
1121.8131877763781
 20
748.13034024263732
 30
0.0
 11
1120.777653870445
 21
747.33574712964787
 31
0.0
 12
1127.848721682311
 22
747.33574712964787
 32
0.0
 13
1127.848721682311
 23
747.33574712964787
 33
0.0
210
0.0
220
0.0
230
1.0
  0
SOLID
  5
B72
  8
0
  6
CONTINUOUS
 10
-1121.8131877763781
 20
748.13034024263732
 30
0.0
 11
-1126.8131877763781
 21
748.13034024263732
 31
0.0
 12
-1127.848721682311
 22
747.33574712964787
 32
0.0
 13
-1127.848721682311
 23
747.33574712964787
 33
0.0
210
0.0
220
0.0
230
-1.0
  0
SOLID
  5
B73
  8
0
  6
CONTINUOUS
 10
1120.777653870445
 20
747.33574712964787
 30
0.0
 11
1119.9830607574561
 21
746.3002132237151
 31
0.0
 12
1128.6433147953001
 22
746.3002132237151
 32
0.0
 13
1128.6433147953001
 23
746.3002132237151
 33
0.0
210
0.0
220
0.0
230
1.0
  0
SOLID
  5
B74
  8
0
  6
CONTINUOUS
 10
-1120.777653870445
 20
747.33574712964787
 30
0.0
 11
-1127.848721682311
 21
747.33574712964787
 31
0.0
 12
-1128.6433147953001
 22
746.3002132237151
 32
0.0
 13
-1128.6433147953001
 23
746.3002132237151
 33
0.0
210
0.0
220
0.0
230
-1.0
  0
SOLID
  5
B75
  8
0
  6
CONTINUOUS
 10
1119.9830607574561
 20
746.3002132237151
 30
0.0
 11
1119.4835586449331
 21
745.09430844922758
 31
0.0
 12
1129.1428169078231
 22
745.09430844922758
 32
0.0
 13
1129.1428169078231
 23
745.09430844922758
 33
0.0
210
0.0
220
0.0
230
1.0
  0
SOLID
  5
B76
  8
0
  6
CONTINUOUS
 10
-1119.9830607574561
 20
746.3002132237151
 30
0.0
 11
-1128.6433147953001
 21
746.3002132237151
 31
0.0
 12
-1129.1428169078231
 22
745.09430844922758
 32
0.0
 13
-1129.1428169078231
 23
745.09430844922758
 33
0.0
210
0.0
220
0.0
230
-1.0
  0
SOLID
  5
B77
  8
0
  6
CONTINUOUS
 10
1119.4835586449331
 20
745.09430844922758
 30
0.0
 11
1119.3131877763781
 21
743.8002132237151
 31
0.0
 12
1129.3131877763781
 22
743.8002132237151
 32
0.0
 13
1129.3131877763781
 23
743.8002132237151
 33
0.0
210
0.0
220
0.0
230
1.0
  0
SOLID
  5
B78
  8
0
  6
CONTINUOUS
 10
-1119.4835586449331
 20
745.09430844922758
 30
0.0
 11
-1129.1428169078231
 21
745.09430844922758
 31
0.0
 12
-1129.3131877763781
 22
743.8002132237151
 32
0.0
 13
-1129.3131877763781
 23
743.8002132237151
 33
0.0
210
0.0
220
0.0
230
-1.0
  0
SOLID
  5
B79
  8
0
  6
CONTINUOUS
 10
1119.3131877763781
 20
743.8002132237151
 30
0.0
 11
1119.4835586449331
 21
742.50611799820251
 31
0.0
 12
1129.1428169078231
 22
742.50611799820251
 32
0.0
 13
1129.1428169078231
 23
742.50611799820251
 33
0.0
210
0.0
220
0.0
230
1.0
  0
SOLID
  5
B7A
  8
0
  6
CONTINUOUS
 10
-1119.3131877763781
 20
743.8002132237151
 30
0.0
 11
-1129.3131877763781
 21
743.8002132237151
 31
0.0
 12
-1129.1428169078231
 22
742.50611799820251
 32
0.0
 13
-1129.1428169078231
 23
742.50611799820251
 33
0.0
210
0.0
220
0.0
230
-1.0
  0
SOLID
  5
B7B
  8
0
  6
CONTINUOUS
 10
1119.4835586449331
 20
742.50611799820251
 30
0.0
 11
1119.9830607574561
 21
741.30021322371522
 31
0.0
 12
1128.6433147953001
 22
741.30021322371522
 32
0.0
 13
1128.6433147953001
 23
741.30021322371522
 33
0.0
210
0.0
220
0.0
230
1.0
  0
SOLID
  5
B7C
  8
0
  6
CONTINUOUS
 10
-1119.4835586449331
 20
742.50611799820251
 30
0.0
 11
-1129.1428169078231
 21
742.50611799820251
 31
0.0
 12
-1128.6433147953001
 22
741.30021322371522
 32
0.0
 13
-1128.6433147953001
 23
741.30021322371522
 33
0.0
210
0.0
220
0.0
230
-1.0
  0
SOLID
  5
B7D
  8
0
  6
CONTINUOUS
 10
1119.9830607574561
 20
741.30021322371522
 30
0.0
 11
1120.777653870445
 21
740.26467931778245
 31
0.0
 12
1127.848721682311
 22
740.26467931778245
 32
0.0
 13
1127.848721682311
 23
740.26467931778245
 33
0.0
210
0.0
220
0.0
230
1.0
  0
SOLID
  5
B7E
  8
0
  6
CONTINUOUS
 10
-1119.9830607574561
 20
741.30021322371522
 30
0.0
 11
-1128.6433147953001
 21
741.30021322371522
 31
0.0
 12
-1127.848721682311
 22
740.26467931778245
 32
0.0
 13
-1127.848721682311
 23
740.26467931778245
 33
0.0
210
0.0
220
0.0
230
-1.0
  0
SOLID
  5
B7F
  8
0
  6
CONTINUOUS
 10
1120.777653870445
 20
740.26467931778245
 30
0.0
 11
1121.8131877763781
 21
739.47008620479301
 31
0.0
 12
1126.8131877763781
 22
739.47008620479301
 32
0.0
 13
1126.8131877763781
 23
739.47008620479301
 33
0.0
210
0.0
220
0.0
230
1.0
  0
SOLID
  5
B80
  8
0
  6
CONTINUOUS
 10
-1120.777653870445
 20
740.26467931778245
 30
0.0
 11
-1127.848721682311
 21
740.26467931778245
 31
0.0
 12
-1126.8131877763781
 22
739.47008620479301
 32
0.0
 13
-1126.8131877763781
 23
739.47008620479301
 33
0.0
210
0.0
220
0.0
230
-1.0
  0
SOLID
  5
B81
  8
0
  6
CONTINUOUS
 10
-1123.0190925508659
 20
738.97058409226975
 30
0.0
 11
-1125.6072830018909
 21
738.97058409226975
 31
0.0
 12
-1124.3131877763781
 22
738.8002132237151
 32
0.0
 13
-1124.3131877763781
 23
738.8002132237151
 33
0.0
210
0.0
220
0.0
230
-1.0
  0
SOLID
  5
B82
  8
0
  6
CONTINUOUS
 10
1121.8131877763781
 20
739.47008620479301
 30
0.0
 11
1123.0190925508659
 21
738.97058409226975
 31
0.0
 12
1125.6072830018909
 22
738.97058409226975
 32
0.0
 13
1125.6072830018909
 23
738.97058409226975
 33
0.0
210
0.0
220
0.0
230
1.0
  0
SOLID
  5
B83
  8
0
  6
CONTINUOUS
 10
-1121.8131877763781
 20
739.47008620479301
 30
0.0
 11
-1126.8131877763781
 21
739.47008620479301
 31
0.0
 12
-1125.6072830018909
 22
738.97058409226975
 32
0.0
 13
-1125.6072830018909
 23
738.97058409226975
 33
0.0
210
0.0
220
0.0
230
-1.0
  0
LINE
  5
B84
  8
0
  6
CONTINUOUS
 10
1124.3131877763781
 20
748.80021322371499
 30
0.0
 11
1123.0190925508659
 21
748.62984235516046
 31
0.0
  0
LINE
  5
B85
  8
0
  6
CONTINUOUS
 10
1125.6072830018909
 20
748.62984235516046
 30
0.0
 11
1124.3131877763781
 21
748.80021322371499
 31
0.0
  0
LINE
  5
B86
  8
0
  6
CONTINUOUS
 10
1123.0190925508659
 20
748.62984235516046
 30
0.0
 11
1121.8131877763781
 21
748.13034024263732
 31
0.0
  0
LINE
  5
B87
  8
0
  6
CONTINUOUS
 10
1125.6072830018909
 20
748.62984235516046
 30
0.0
 11
1126.8131877763781
 21
748.13034024263732
 31
0.0
  0
LINE
  5
B88
  8
0
  6
CONTINUOUS
 10
1121.8131877763781
 20
748.13034024263732
 30
0.0
 11
1120.777653870445
 21
747.33574712964787
 31
0.0
  0
LINE
  5
B89
  8
0
  6
CONTINUOUS
 10
1126.8131877763781
 20
748.13034024263732
 30
0.0
 11
1127.848721682311
 21
747.33574712964787
 31
0.0
  0
LINE
  5
B8A
  8
0
  6
CONTINUOUS
 10
1120.777653870445
 20
747.33574712964787
 30
0.0
 11
1119.9830607574561
 21
746.3002132237151
 31
0.0
  0
LINE
  5
B8B
  8
0
  6
CONTINUOUS
 10
1127.848721682311
 20
747.33574712964787
 30
0.0
 11
1128.6433147953001
 21
746.3002132237151
 31
0.0
  0
LINE
  5
B8C
  8
0
  6
CONTINUOUS
 10
1119.9830607574561
 20
746.3002132237151
 30
0.0
 11
1119.4835586449331
 21
745.09430844922758
 31
0.0
  0
LINE
  5
B8D
  8
0
  6
CONTINUOUS
 10
1128.6433147953001
 20
746.3002132237151
 30
0.0
 11
1129.1428169078231
 21
745.09430844922758
 31
0.0
  0
LINE
  5
B8E
  8
0
  6
CONTINUOUS
 10
1119.4835586449331
 20
745.09430844922758
 30
0.0
 11
1119.3131877763781
 21
743.8002132237151
 31
0.0
  0
LINE
  5
B8F
  8
0
  6
CONTINUOUS
 10
1129.1428169078231
 20
745.09430844922758
 30
0.0
 11
1129.3131877763781
 21
743.8002132237151
 31
0.0
  0
LINE
  5
B90
  8
0
  6
CONTINUOUS
 10
1119.3131877763781
 20
743.8002132237151
 30
0.0
 11
1119.4835586449331
 21
742.50611799820251
 31
0.0
  0
LINE
  5
B91
  8
0
  6
CONTINUOUS
 10
1129.3131877763781
 20
743.8002132237151
 30
0.0
 11
1129.1428169078231
 21
742.50611799820251
 31
0.0
  0
LINE
  5
B92
  8
0
  6
CONTINUOUS
 10
1119.4835586449331
 20
742.50611799820251
 30
0.0
 11
1119.9830607574561
 21
741.30021322371522
 31
0.0
  0
LINE
  5
B93
  8
0
  6
CONTINUOUS
 10
1129.1428169078231
 20
742.50611799820251
 30
0.0
 11
1128.6433147953001
 21
741.30021322371522
 31
0.0
  0
LINE
  5
B94
  8
0
  6
CONTINUOUS
 10
1119.9830607574561
 20
741.30021322371522
 30
0.0
 11
1120.777653870445
 21
740.26467931778245
 31
0.0
  0
LINE
  5
B95
  8
0
  6
CONTINUOUS
 10
1128.6433147953001
 20
741.30021322371522
 30
0.0
 11
1127.848721682311
 21
740.26467931778245
 31
0.0
  0
LINE
  5
B96
  8
0
  6
CONTINUOUS
 10
1120.777653870445
 20
740.26467931778245
 30
0.0
 11
1121.8131877763781
 21
739.47008620479301
 31
0.0
  0
LINE
  5
B97
  8
0
  6
CONTINUOUS
 10
1127.848721682311
 20
740.26467931778245
 30
0.0
 11
1126.8131877763781
 21
739.47008620479301
 31
0.0
  0
LINE
  5
B98
  8
0
  6
CONTINUOUS
 10
1125.6072830018909
 20
738.97058409226975
 30
0.0
 11
1124.3131877763781
 21
738.8002132237151
 31
0.0
  0
LINE
  5
B99
  8
0
  6
CONTINUOUS
 10
1124.3131877763781
 20
738.8002132237151
 30
0.0
 11
1123.0190925508659
 21
738.97058409226975
 31
0.0
  0
LINE
  5
B9A
  8
0
  6
CONTINUOUS
 10
1121.8131877763781
 20
739.47008620479301
 30
0.0
 11
1123.0190925508659
 21
738.97058409226975
 31
0.0
  0
LINE
  5
B9B
  8
0
  6
CONTINUOUS
 10
1126.8131877763781
 20
739.47008620479301
 30
0.0
 11
1125.6072830018909
 21
738.97058409226975
 31
0.0
  0
ENDBLK
  5
B9D
  8
0
  0
BLOCK
  8
0
  2
*U16
 70
     1
 10
0.0
 20
0.0
 30
0.0
  3
*U16
  1

  0
SOLID
  5
B9F
  8
0
  6
CONTINUOUS
 10
585.5992331052646
 20
768.01402588130156
 30
0.0
 11
584.30513787975201
 21
767.84365501274692
 31
0.0
 12
586.89332833077719
 22
767.84365501274692
 32
0.0
 13
586.89332833077719
 23
767.84365501274692
 33
0.0
210
0.0
220
0.0
230
1.0
  0
SOLID
  5
BA0
  8
0
  6
CONTINUOUS
 10
584.30513787975201
 20
767.84365501274692
 30
0.0
 11
583.09923310526449
 21
767.34415290022366
 31
0.0
 12
588.09923310526437
 22
767.34415290022366
 32
0.0
 13
588.09923310526437
 23
767.34415290022366
 33
0.0
210
0.0
220
0.0
230
1.0
  0
SOLID
  5
BA1
  8
0
  6
CONTINUOUS
 10
-584.30513787975201
 20
767.84365501274692
 30
0.0
 11
-586.89332833077719
 21
767.84365501274692
 31
0.0
 12
-588.09923310526437
 22
767.34415290022366
 32
0.0
 13
-588.09923310526437
 23
767.34415290022366
 33
0.0
210
0.0
220
0.0
230
-1.0
  0
SOLID
  5
BA2
  8
0
  6
CONTINUOUS
 10
583.09923310526449
 20
767.34415290022366
 30
0.0
 11
582.06369919933184
 21
766.54955978723433
 31
0.0
 12
589.1347670111976
 22
766.54955978723433
 32
0.0
 13
589.1347670111976
 23
766.54955978723433
 33
0.0
210
0.0
220
0.0
230
1.0
  0
SOLID
  5
BA3
  8
0
  6
CONTINUOUS
 10
-583.09923310526449
 20
767.34415290022366
 30
0.0
 11
-588.09923310526437
 21
767.34415290022366
 31
0.0
 12
-589.1347670111976
 22
766.54955978723433
 32
0.0
 13
-589.1347670111976
 23
766.54955978723433
 33
0.0
210
0.0
220
0.0
230
-1.0
  0
SOLID
  5
BA4
  8
0
  6
CONTINUOUS
 10
582.06369919933184
 20
766.54955978723433
 30
0.0
 11
581.26910608634228
 21
765.51402588130156
 31
0.0
 12
589.9293601241867
 22
765.51402588130156
 32
0.0
 13
589.9293601241867
 23
765.51402588130156
 33
0.0
210
0.0
220
0.0
230
1.0
  0
SOLID
  5
BA5
  8
0
  6
CONTINUOUS
 10
-582.06369919933184
 20
766.54955978723433
 30
0.0
 11
-589.1347670111976
 21
766.54955978723433
 31
0.0
 12
-589.9293601241867
 22
765.51402588130156
 32
0.0
 13
-589.9293601241867
 23
765.51402588130156
 33
0.0
210
0.0
220
0.0
230
-1.0
  0
SOLID
  5
BA6
  8
0
  6
CONTINUOUS
 10
581.26910608634228
 20
765.51402588130156
 30
0.0
 11
580.76960397381924
 21
764.30812110681416
 31
0.0
 12
590.42886223670985
 22
764.30812110681416
 32
0.0
 13
590.42886223670985
 23
764.30812110681416
 33
0.0
210
0.0
220
0.0
230
1.0
  0
SOLID
  5
BA7
  8
0
  6
CONTINUOUS
 10
-581.26910608634228
 20
765.51402588130156
 30
0.0
 11
-589.9293601241867
 21
765.51402588130156
 31
0.0
 12
-590.42886223670985
 22
764.30812110681416
 32
0.0
 13
-590.42886223670985
 23
764.30812110681416
 33
0.0
210
0.0
220
0.0
230
-1.0
  0
SOLID
  5
BA8
  8
0
  6
CONTINUOUS
 10
580.76960397381924
 20
764.30812110681416
 30
0.0
 11
580.5992331052646
 21
763.01402588130168
 31
0.0
 12
590.59923310526449
 22
763.01402588130168
 32
0.0
 13
590.59923310526449
 23
763.01402588130168
 33
0.0
210
0.0
220
0.0
230
1.0
  0
SOLID
  5
BA9
  8
0
  6
CONTINUOUS
 10
-580.76960397381924
 20
764.30812110681416
 30
0.0
 11
-590.42886223670985
 21
764.30812110681416
 31
0.0
 12
-590.59923310526449
 22
763.01402588130168
 32
0.0
 13
-590.59923310526449
 23
763.01402588130168
 33
0.0
210
0.0
220
0.0
230
-1.0
  0
SOLID
  5
BAA
  8
0
  6
CONTINUOUS
 10
580.5992331052646
 20
763.01402588130168
 30
0.0
 11
580.76960397381924
 21
761.71993065578908
 31
0.0
 12
590.42886223670985
 22
761.71993065578908
 32
0.0
 13
590.42886223670985
 23
761.71993065578908
 33
0.0
  0
SOLID
  5
BAB
  8
0
  6
CONTINUOUS
 10
-580.5992331052646
 20
763.01402588130168
 30
0.0
 11
-590.59923310526449
 21
763.01402588130168
 31
0.0
 12
-590.42886223670985
 22
761.71993065578908
 32
0.0
 13
-590.42886223670985
 23
761.71993065578908
 33
0.0
210
0.0
220
0.0
230
-1.0
  0
SOLID
  5
BAC
  8
0
  6
CONTINUOUS
 10
580.76960397381924
 20
761.71993065578908
 30
0.0
 11
581.26910608634228
 21
760.51402588130156
 31
0.0
 12
589.9293601241867
 22
760.51402588130156
 32
0.0
 13
589.9293601241867
 23
760.51402588130156
 33
0.0
210
0.0
220
0.0
230
1.0
  0
SOLID
  5
BAD
  8
0
  6
CONTINUOUS
 10
-580.76960397381924
 20
761.71993065578908
 30
0.0
 11
-590.42886223670985
 21
761.71993065578908
 31
0.0
 12
-589.9293601241867
 22
760.51402588130156
 32
0.0
 13
-589.9293601241867
 23
760.51402588130156
 33
0.0
210
0.0
220
0.0
230
-1.0
  0
SOLID
  5
BAE
  8
0
  6
CONTINUOUS
 10
581.26910608634228
 20
760.51402588130156
 30
0.0
 11
582.06369919933184
 21
759.4784919753688
 31
0.0
 12
589.1347670111976
 22
759.4784919753688
 32
0.0
 13
589.1347670111976
 23
759.4784919753688
 33
0.0
210
0.0
220
0.0
230
1.0
  0
SOLID
  5
BAF
  8
0
  6
CONTINUOUS
 10
-581.26910608634228
 20
760.51402588130156
 30
0.0
 11
-589.9293601241867
 21
760.51402588130156
 31
0.0
 12
-589.1347670111976
 22
759.4784919753688
 32
0.0
 13
-589.1347670111976
 23
759.4784919753688
 33
0.0
210
0.0
220
0.0
230
-1.0
  0
SOLID
  5
BB0
  8
0
  6
CONTINUOUS
 10
582.06369919933184
 20
759.4784919753688
 30
0.0
 11
583.09923310526449
 21
758.68389886237958
 31
0.0
 12
588.09923310526437
 22
758.68389886237958
 32
0.0
 13
588.09923310526437
 23
758.68389886237958
 33
0.0
210
0.0
220
0.0
230
1.0
  0
SOLID
  5
BB1
  8
0
  6
CONTINUOUS
 10
-582.06369919933184
 20
759.4784919753688
 30
0.0
 11
-589.1347670111976
 21
759.4784919753688
 31
0.0
 12
-588.09923310526437
 22
758.68389886237958
 32
0.0
 13
-588.09923310526437
 23
758.68389886237958
 33
0.0
210
0.0
220
0.0
230
-1.0
  0
SOLID
  5
BB2
  8
0
  6
CONTINUOUS
 10
-584.30513787975201
 20
758.18439674985632
 30
0.0
 11
-586.89332833077719
 21
758.18439674985632
 31
0.0
 12
-585.5992331052646
 22
758.01402588130168
 32
0.0
 13
-585.5992331052646
 23
758.01402588130168
 33
0.0
210
0.0
220
0.0
230
-1.0
  0
SOLID
  5
BB3
  8
0
  6
CONTINUOUS
 10
583.09923310526449
 20
758.68389886237958
 30
0.0
 11
584.30513787975201
 21
758.18439674985632
 31
0.0
 12
586.89332833077719
 22
758.18439674985632
 32
0.0
 13
586.89332833077719
 23
758.18439674985632
 33
0.0
210
0.0
220
0.0
230
1.0
  0
SOLID
  5
BB4
  8
0
  6
CONTINUOUS
 10
-583.09923310526449
 20
758.68389886237958
 30
0.0
 11
-588.09923310526437
 21
758.68389886237958
 31
0.0
 12
-586.89332833077719
 22
758.18439674985632
 32
0.0
 13
-586.89332833077719
 23
758.18439674985632
 33
0.0
210
0.0
220
0.0
230
-1.0
  0
LINE
  5
BB5
  8
0
  6
CONTINUOUS
 10
585.5992331052646
 20
768.01402588130156
 30
0.0
 11
584.30513787975201
 21
767.84365501274692
 31
0.0
  0
LINE
  5
BB6
  8
0
  6
CONTINUOUS
 10
586.89332833077719
 20
767.84365501274692
 30
0.0
 11
585.5992331052646
 21
768.01402588130156
 31
0.0
  0
LINE
  5
BB7
  8
0
  6
CONTINUOUS
 10
584.30513787975201
 20
767.84365501274692
 30
0.0
 11
583.09923310526449
 21
767.34415290022366
 31
0.0
  0
LINE
  5
BB8
  8
0
  6
CONTINUOUS
 10
586.89332833077719
 20
767.84365501274692
 30
0.0
 11
588.09923310526437
 21
767.34415290022366
 31
0.0
  0
LINE
  5
BB9
  8
0
  6
CONTINUOUS
 10
583.09923310526449
 20
767.34415290022366
 30
0.0
 11
582.06369919933184
 21
766.54955978723433
 31
0.0
  0
LINE
  5
BBA
  8
0
  6
CONTINUOUS
 10
588.09923310526437
 20
767.34415290022366
 30
0.0
 11
589.1347670111976
 21
766.54955978723433
 31
0.0
  0
LINE
  5
BBB
  8
0
  6
CONTINUOUS
 10
582.06369919933184
 20
766.54955978723433
 30
0.0
 11
581.26910608634228
 21
765.51402588130156
 31
0.0
  0
LINE
  5
BBC
  8
0
  6
CONTINUOUS
 10
589.1347670111976
 20
766.54955978723433
 30
0.0
 11
589.9293601241867
 21
765.51402588130156
 31
0.0
  0
LINE
  5
BBD
  8
0
  6
CONTINUOUS
 10
581.26910608634228
 20
765.51402588130156
 30
0.0
 11
580.76960397381924
 21
764.30812110681416
 31
0.0
  0
LINE
  5
BBE
  8
0
  6
CONTINUOUS
 10
589.9293601241867
 20
765.51402588130156
 30
0.0
 11
590.42886223670985
 21
764.30812110681416
 31
0.0
  0
LINE
  5
BBF
  8
0
  6
CONTINUOUS
 10
580.76960397381924
 20
764.30812110681416
 30
0.0
 11
580.5992331052646
 21
763.01402588130168
 31
0.0
  0
LINE
  5
BC0
  8
0
  6
CONTINUOUS
 10
590.42886223670985
 20
764.30812110681416
 30
0.0
 11
590.59923310526449
 21
763.01402588130168
 31
0.0
  0
LINE
  5
BC1
  8
0
  6
CONTINUOUS
 10
580.5992331052646
 20
763.01402588130168
 30
0.0
 11
580.76960397381924
 21
761.71993065578908
 31
0.0
  0
LINE
  5
BC2
  8
0
  6
CONTINUOUS
 10
590.59923310526449
 20
763.01402588130168
 30
0.0
 11
590.42886223670985
 21
761.71993065578908
 31
0.0
  0
LINE
  5
BC3
  8
0
  6
CONTINUOUS
 10
580.76960397381924
 20
761.71993065578908
 30
0.0
 11
581.26910608634228
 21
760.51402588130156
 31
0.0
  0
LINE
  5
BC4
  8
0
  6
CONTINUOUS
 10
590.42886223670985
 20
761.71993065578908
 30
0.0
 11
589.9293601241867
 21
760.51402588130156
 31
0.0
  0
LINE
  5
BC5
  8
0
  6
CONTINUOUS
 10
581.26910608634228
 20
760.51402588130156
 30
0.0
 11
582.06369919933184
 21
759.4784919753688
 31
0.0
  0
LINE
  5
BC6
  8
0
  6
CONTINUOUS
 10
589.9293601241867
 20
760.51402588130156
 30
0.0
 11
589.1347670111976
 21
759.4784919753688
 31
0.0
  0
LINE
  5
BC7
  8
0
  6
CONTINUOUS
 10
582.06369919933184
 20
759.4784919753688
 30
0.0
 11
583.09923310526449
 21
758.68389886237958
 31
0.0
  0
LINE
  5
BC8
  8
0
  6
CONTINUOUS
 10
589.1347670111976
 20
759.4784919753688
 30
0.0
 11
588.09923310526437
 21
758.68389886237958
 31
0.0
  0
LINE
  5
BC9
  8
0
  6
CONTINUOUS
 10
586.89332833077719
 20
758.18439674985632
 30
0.0
 11
585.5992331052646
 21
758.01402588130168
 31
0.0
  0
LINE
  5
BCA
  8
0
  6
CONTINUOUS
 10
585.5992331052646
 20
758.01402588130168
 30
0.0
 11
584.30513787975201
 21
758.18439674985632
 31
0.0
  0
LINE
  5
BCB
  8
0
  6
CONTINUOUS
 10
583.09923310526449
 20
758.68389886237958
 30
0.0
 11
584.30513787975201
 21
758.18439674985632
 31
0.0
  0
LINE
  5
BCC
  8
0
  6
CONTINUOUS
 10
588.09923310526437
 20
758.68389886237958
 30
0.0
 11
586.89332833077719
 21
758.18439674985632
 31
0.0
  0
ENDBLK
  5
BCE
  8
0
  0
BLOCK
  8
0
  2
*U17
 70
     1
 10
0.0
 20
0.0
 30
0.0
  3
*U17
  1

  0
SOLID
  5
BD0
  8
0
  6
CONTINUOUS
 10
430.43122921611621
 20
567.83703957434716
 30
0.0
 11
429.13713399060339
 21
567.66666870579274
 31
0.0
 12
431.7253244416288
 22
567.66666870579274
 32
0.0
 13
431.7253244416288
 23
567.66666870579274
 33
0.0
  0
SOLID
  5
BD1
  8
0
  6
CONTINUOUS
 10
429.13713399060339
 20
567.66666870579274
 30
0.0
 11
427.93122921611632
 21
567.16716659326937
 31
0.0
 12
432.93122921611632
 22
567.16716659326937
 32
0.0
 13
432.93122921611632
 23
567.16716659326937
 33
0.0
210
0.0
220
0.0
230
1.0
  0
SOLID
  5
BD2
  8
0
  6
CONTINUOUS
 10
-429.13713399060339
 20
567.66666870579274
 30
0.0
 11
-431.7253244416288
 21
567.66666870579274
 31
0.0
 12
-432.93122921611632
 22
567.16716659326937
 32
0.0
 13
-432.93122921611632
 23
567.16716659326937
 33
0.0
210
0.0
220
0.0
230
-1.0
  0
SOLID
  5
BD3
  8
0
  6
CONTINUOUS
 10
427.93122921611632
 20
567.16716659326937
 30
0.0
 11
426.8956953101835
 21
566.37257348028015
 31
0.0
 12
433.96676312204897
 22
566.37257348028015
 32
0.0
 13
433.96676312204897
 23
566.37257348028015
 33
0.0
210
0.0
220
0.0
230
1.0
  0
SOLID
  5
BD4
  8
0
  6
CONTINUOUS
 10
-427.93122921611632
 20
567.16716659326937
 30
0.0
 11
-432.93122921611632
 21
567.16716659326937
 31
0.0
 12
-433.96676312204897
 22
566.37257348028015
 32
0.0
 13
-433.96676312204897
 23
566.37257348028015
 33
0.0
210
0.0
220
0.0
230
-1.0
  0
SOLID
  5
BD5
  8
0
  6
CONTINUOUS
 10
426.8956953101835
 20
566.37257348028015
 30
0.0
 11
426.10110219719388
 21
565.33703957434716
 31
0.0
 12
434.76135623503831
 22
565.33703957434716
 32
0.0
 13
434.76135623503831
 23
565.33703957434716
 33
0.0
210
0.0
220
0.0
230
1.0
  0
SOLID
  5
BD6
  8
0
  6
CONTINUOUS
 10
-426.8956953101835
 20
566.37257348028015
 30
0.0
 11
-433.96676312204897
 21
566.37257348028015
 31
0.0
 12
-434.76135623503831
 22
565.33703957434716
 32
0.0
 13
-434.76135623503831
 23
565.33703957434716
 33
0.0
210
0.0
220
0.0
230
-1.0
  0
SOLID
  5
BD7
  8
0
  6
CONTINUOUS
 10
426.10110219719388
 20
565.33703957434716
 30
0.0
 11
425.60160008467091
 21
564.13113479985975
 31
0.0
 12
435.2608583475614
 22
564.13113479985975
 32
0.0
 13
435.2608583475614
 23
564.13113479985975
 33
0.0
210
0.0
220
0.0
230
1.0
  0
SOLID
  5
BD8
  8
0
  6
CONTINUOUS
 10
-426.10110219719388
 20
565.33703957434716
 30
0.0
 11
-434.76135623503831
 21
565.33703957434716
 31
0.0
 12
-435.2608583475614
 22
564.13113479985975
 32
0.0
 13
-435.2608583475614
 23
564.13113479985975
 33
0.0
210
0.0
220
0.0
230
-1.0
  0
SOLID
  5
BD9
  8
0
  6
CONTINUOUS
 10
425.60160008467091
 20
564.13113479985975
 30
0.0
 11
425.43122921611621
 21
562.83703957434739
 31
0.0
 12
435.43122921611609
 22
562.83703957434739
 32
0.0
 13
435.43122921611609
 23
562.83703957434739
 33
0.0
210
0.0
220
0.0
230
1.0
  0
SOLID
  5
BDA
  8
0
  6
CONTINUOUS
 10
-425.60160008467091
 20
564.13113479985975
 30
0.0
 11
-435.2608583475614
 21
564.13113479985975
 31
0.0
 12
-435.43122921611609
 22
562.83703957434739
 32
0.0
 13
-435.43122921611609
 23
562.83703957434739
 33
0.0
210
0.0
220
0.0
230
-1.0
  0
SOLID
  5
BDB
  8
0
  6
CONTINUOUS
 10
425.43122921611621
 20
562.83703957434739
 30
0.0
 11
425.60160008467091
 21
561.54294434883479
 31
0.0
 12
435.2608583475614
 22
561.54294434883479
 32
0.0
 13
435.2608583475614
 23
561.54294434883479
 33
0.0
210
0.0
220
0.0
230
1.0
  0
SOLID
  5
BDC
  8
0
  6
CONTINUOUS
 10
-425.43122921611621
 20
562.83703957434739
 30
0.0
 11
-435.43122921611609
 21
562.83703957434739
 31
0.0
 12
-435.2608583475614
 22
561.54294434883479
 32
0.0
 13
-435.2608583475614
 23
561.54294434883479
 33
0.0
210
0.0
220
0.0
230
-1.0
  0
SOLID
  5
BDD
  8
0
  6
CONTINUOUS
 10
425.60160008467091
 20
561.54294434883479
 30
0.0
 11
426.10110219719388
 21
560.3370395743475
 31
0.0
 12
434.76135623503831
 22
560.3370395743475
 32
0.0
 13
434.76135623503831
 23
560.3370395743475
 33
0.0
210
0.0
220
0.0
230
1.0
  0
SOLID
  5
BDE
  8
0
  6
CONTINUOUS
 10
-425.60160008467091
 20
561.54294434883479
 30
0.0
 11
-435.2608583475614
 21
561.54294434883479
 31
0.0
 12
-434.76135623503831
 22
560.3370395743475
 32
0.0
 13
-434.76135623503831
 23
560.3370395743475
 33
0.0
210
0.0
220
0.0
230
-1.0
  0
SOLID
  5
BDF
  8
0
  6
CONTINUOUS
 10
426.10110219719388
 20
560.3370395743475
 30
0.0
 11
426.8956953101835
 21
559.30150566841462
 31
0.0
 12
433.96676312204897
 22
559.30150566841462
 32
0.0
 13
433.96676312204897
 23
559.30150566841462
 33
0.0
210
0.0
220
0.0
230
1.0
  0
SOLID
  5
BE0
  8
0
  6
CONTINUOUS
 10
-426.10110219719388
 20
560.3370395743475
 30
0.0
 11
-434.76135623503831
 21
560.3370395743475
 31
0.0
 12
-433.96676312204897
 22
559.30150566841462
 32
0.0
 13
-433.96676312204897
 23
559.30150566841462
 33
0.0
210
0.0
220
0.0
230
-1.0
  0
SOLID
  5
BE1
  8
0
  6
CONTINUOUS
 10
426.8956953101835
 20
559.30150566841462
 30
0.0
 11
427.93122921611609
 21
558.50691255542529
 31
0.0
 12
432.93122921611632
 22
558.50691255542529
 32
0.0
 13
432.93122921611632
 23
558.50691255542529
 33
0.0
210
0.0
220
0.0
230
1.0
  0
SOLID
  5
BE2
  8
0
  6
CONTINUOUS
 10
-426.8956953101835
 20
559.30150566841462
 30
0.0
 11
-433.96676312204897
 21
559.30150566841462
 31
0.0
 12
-432.93122921611632
 22
558.50691255542529
 32
0.0
 13
-432.93122921611632
 23
558.50691255542529
 33
0.0
210
0.0
220
0.0
230
-1.0
  0
SOLID
  5
BE3
  8
0
  6
CONTINUOUS
 10
-429.13713399060339
 20
558.00741044290203
 30
0.0
 11
-431.7253244416288
 21
558.00741044290203
 31
0.0
 12
-430.43122921611621
 22
557.83703957434739
 32
0.0
 13
-430.43122921611621
 23
557.83703957434739
 33
0.0
210
0.0
220
0.0
230
-1.0
  0
SOLID
  5
BE4
  8
0
  6
CONTINUOUS
 10
427.93122921611609
 20
558.50691255542529
 30
0.0
 11
429.13713399060339
 21
558.00741044290203
 31
0.0
 12
431.7253244416288
 22
558.00741044290203
 32
0.0
 13
431.7253244416288
 23
558.00741044290203
 33
0.0
210
0.0
220
0.0
230
1.0
  0
SOLID
  5
BE5
  8
0
  6
CONTINUOUS
 10
-427.93122921611609
 20
558.50691255542529
 30
0.0
 11
-432.93122921611632
 21
558.50691255542529
 31
0.0
 12
-431.7253244416288
 22
558.00741044290203
 32
0.0
 13
-431.7253244416288
 23
558.00741044290203
 33
0.0
210
0.0
220
0.0
230
-1.0
  0
LINE
  5
BE6
  8
0
  6
CONTINUOUS
 10
430.43122921611621
 20
567.83703957434716
 30
0.0
 11
429.13713399060339
 21
567.66666870579274
 31
0.0
  0
LINE
  5
BE7
  8
0
  6
CONTINUOUS
 10
431.7253244416288
 20
567.66666870579274
 30
0.0
 11
430.43122921611621
 21
567.83703957434716
 31
0.0
  0
LINE
  5
BE8
  8
0
  6
CONTINUOUS
 10
429.13713399060339
 20
567.66666870579274
 30
0.0
 11
427.93122921611632
 21
567.16716659326937
 31
0.0
  0
LINE
  5
BE9
  8
0
  6
CONTINUOUS
 10
431.7253244416288
 20
567.66666870579274
 30
0.0
 11
432.93122921611632
 21
567.16716659326937
 31
0.0
  0
LINE
  5
BEA
  8
0
  6
CONTINUOUS
 10
427.93122921611632
 20
567.16716659326937
 30
0.0
 11
426.8956953101835
 21
566.37257348028015
 31
0.0
  0
LINE
  5
BEB
  8
0
  6
CONTINUOUS
 10
432.93122921611632
 20
567.16716659326937
 30
0.0
 11
433.96676312204897
 21
566.37257348028015
 31
0.0
  0
LINE
  5
BEC
  8
0
  6
CONTINUOUS
 10
426.8956953101835
 20
566.37257348028015
 30
0.0
 11
426.10110219719388
 21
565.33703957434716
 31
0.0
  0
LINE
  5
BED
  8
0
  6
CONTINUOUS
 10
433.96676312204897
 20
566.37257348028015
 30
0.0
 11
434.76135623503831
 21
565.33703957434716
 31
0.0
  0
LINE
  5
BEE
  8
0
  6
CONTINUOUS
 10
426.10110219719388
 20
565.33703957434716
 30
0.0
 11
425.60160008467091
 21
564.13113479985975
 31
0.0
  0
LINE
  5
BEF
  8
0
  6
CONTINUOUS
 10
434.76135623503831
 20
565.33703957434716
 30
0.0
 11
435.2608583475614
 21
564.13113479985975
 31
0.0
  0
LINE
  5
BF0
  8
0
  6
CONTINUOUS
 10
425.60160008467091
 20
564.13113479985975
 30
0.0
 11
425.43122921611621
 21
562.83703957434739
 31
0.0
  0
LINE
  5
BF1
  8
0
  6
CONTINUOUS
 10
435.2608583475614
 20
564.13113479985975
 30
0.0
 11
435.43122921611609
 21
562.83703957434739
 31
0.0
  0
LINE
  5
BF2
  8
0
  6
CONTINUOUS
 10
425.43122921611621
 20
562.83703957434739
 30
0.0
 11
425.60160008467091
 21
561.54294434883479
 31
0.0
  0
LINE
  5
BF3
  8
0
  6
CONTINUOUS
 10
435.43122921611609
 20
562.83703957434739
 30
0.0
 11
435.2608583475614
 21
561.54294434883479
 31
0.0
  0
LINE
  5
BF4
  8
0
  6
CONTINUOUS
 10
425.60160008467091
 20
561.54294434883479
 30
0.0
 11
426.10110219719388
 21
560.3370395743475
 31
0.0
  0
LINE
  5
BF5
  8
0
  6
CONTINUOUS
 10
435.2608583475614
 20
561.54294434883479
 30
0.0
 11
434.76135623503831
 21
560.3370395743475
 31
0.0
  0
LINE
  5
BF6
  8
0
  6
CONTINUOUS
 10
426.10110219719388
 20
560.3370395743475
 30
0.0
 11
426.8956953101835
 21
559.30150566841462
 31
0.0
  0
LINE
  5
BF7
  8
0
  6
CONTINUOUS
 10
434.76135623503831
 20
560.3370395743475
 30
0.0
 11
433.96676312204897
 21
559.30150566841462
 31
0.0
  0
LINE
  5
BF8
  8
0
  6
CONTINUOUS
 10
426.8956953101835
 20
559.30150566841462
 30
0.0
 11
427.93122921611609
 21
558.50691255542529
 31
0.0
  0
LINE
  5
BF9
  8
0
  6
CONTINUOUS
 10
433.96676312204897
 20
559.30150566841462
 30
0.0
 11
432.93122921611632
 21
558.50691255542529
 31
0.0
  0
LINE
  5
BFA
  8
0
  6
CONTINUOUS
 10
431.7253244416288
 20
558.00741044290203
 30
0.0
 11
430.43122921611621
 21
557.83703957434739
 31
0.0
  0
LINE
  5
BFB
  8
0
  6
CONTINUOUS
 10
430.43122921611621
 20
557.83703957434739
 30
0.0
 11
429.13713399060339
 21
558.00741044290203
 31
0.0
  0
LINE
  5
BFC
  8
0
  6
CONTINUOUS
 10
427.93122921611609
 20
558.50691255542529
 30
0.0
 11
429.13713399060339
 21
558.00741044290203
 31
0.0
  0
LINE
  5
BFD
  8
0
  6
CONTINUOUS
 10
432.93122921611632
 20
558.50691255542529
 30
0.0
 11
431.7253244416288
 21
558.00741044290203
 31
0.0
  0
ENDBLK
  5
BFF
  8
0
  0
BLOCK
  8
0
  2
*U18
 70
     1
 10
0.0
 20
0.0
 30
0.0
  3
*U18
  1

  0
TEXT
  5
C01
  8
0
 10
352.87503322314569
 20
-448.24418118767119
 30
0.0
 40
25.0
  1
Stop end flashing
  7
ARIAL
  0
ENDBLK
  5
C03
  8
0
  0
BLOCK
  8
0
  2
*U19
 70
     1
 10
0.0
 20
0.0
 30
0.0
  3
*U19
  1

  0
TEXT
  5
C05
  8
0
 10
1181.033563844215
 20
-239.09334174121389
 30
0.0
 40
25.0
  1
Underlay over first batten
  7
ARIAL
  0
ENDBLK
  5
C07
  8
0
  0
BLOCK
  8
0
  2
*U20
 70
     1
 10
0.0
 20
0.0
 30
0.0
  3
*U20
  1

  0
TEXT
  5
C09
  8
0
 10
1393.8309068491731
 20
80.575726524228656
 30
0.0
 40
25.0
  1
Tile batten
  7
ARIAL
  0
ENDBLK
  5
C0B
  8
0
  0
BLOCK
  8
0
  2
*U21
 70
     1
 10
0.0
 20
0.0
 30
0.0
  3
*U21
  1

  0
TEXT
  5
C0D
  8
0
 10
1253.0402633418221
 20
1002.7564725998
 30
0.0
 40
25.0
  1
Wall cladding
  7
ARIAL
  0
ENDBLK
  5
C0F
  8
0
  0
BLOCK
  8
0
  2
*U22
 70
     1
 10
0.0
 20
0.0
 30
0.0
  3
*U22
  1

  0
TEXT
  5
C11
  8
0
 10
1250.908612591481
 20
899.44488264587062
 30
0.0
 40
25.0
  1
Building paper
  7
ARIAL
  0
ENDBLK
  5
C13
  8
0
  0
BLOCK
  8
0
  2
*U23
 70
     1
 10
0.0
 20
0.0
 30
0.0
  3
*U23
  1

  0
TEXT
  5
C15
  8
0
 10
344.18754821188918
 20
-346.18796278664382
 30
0.0
 40
25.0
  1
The turn-up
  7
ARIAL
  0
ENDBLK
  5
C17
  8
0
  0
BLOCK
  8
0
  2
*U24
 70
     1
 10
0.0
 20
0.0
 30
0.0
  3
*U24
  1

  0
TEXT
  5
C19
  8
0
 10
1249.663728553282
 20
802.00385749886459
 30
0.0
 40
25.0
  1
112 A.E.Apron Flashing
  7
ARIAL
  0
TEXT
  5
C1A
  8
0
 10
1251.351995947552
 20
762.89836633857885
 30
0.0
 40
25.0
  1
(Side Flashing)
  7
ARIAL
  0
ENDBLK
  5
C1C
  8
0
  0
BLOCK
  8
0
  2
*U25
 70
     1
 10
0.0
 20
0.0
 30
0.0
  3
*U25
  1

  0
TEXT
  5
C1E
  8
0
 10
44.937658709645362
 20
789.16375217050552
 30
0.0
 40
25.0
  1
Wall cladding
  7
ARIAL
  0
ENDBLK
  5
C20
  8
0
  0
BLOCK
  8
0
  2
*U26
 70
     1
 10
0.0
 20
0.0
 30
0.0
  3
*U26
  1

  0
TEXT
  5
C22
  8
0
 10
42.806007959304289
 20
685.85216221657572
 30
0.0
 40
25.0
  1
Building paper
  7
ARIAL
  0
ENDBLK
  5
C24
  8
0
  0
ENDSEC
  0
SECTION
  2
ENTITIES
  0
INSERT
  5
530
  8
0
  2
*U6
 10
0.0
 20
0.0
 30
0.0
  0
INSERT
  5
597
  8
0
  6
CONTINUOUS
 62
   250
  2
*U7
 10
0.0
 20
0.0
 30
0.0
1001
REVIT
1002
{
1070
     3
1000
274314
1002
}
1001
ACAD
1002
{
1000
R14_HATCH_DATA
1000
597
1011
1.0
1021
0.0
1031
0.0
1021
0.0
1031
0.0
1011
0.0
1021
0.0
1031
0.0
1021
1.0
1031
0.0
1011
0.0
1021
0.0
1031
0.0
1021
0.0
1031
1.0
1040
0.0
1010
0.0
1020
0.0
1030
1.0
1000
SOLID
1070
     1
1070
     0
1071
        1
1071
        0
1071
       24
1070
     1
1040
1864.84877511841
1040
248.46935817982731
1040
1865.495822731167
1040
248.5545436141046
1070
     1
1040
1865.495822731167
1040
248.5545436141046
1040
1866.09877511841
1040
248.80429467036609
1070
     1
1040
1866.09877511841
1040
248.80429467036609
1040
1866.6165420713769
1040
249.20159122686101
1070
     1
1040
1866.6165420713769
1040
249.20159122686101
1040
1867.013838627872
1040
249.7193581798274
1070
     1
1040
1867.013838627872
1040
249.7193581798274
1040
1867.263589684133
1040
250.3223105670709
1070
     1
1040
1867.263589684133
1040
250.3223105670709
1040
1867.3487751184109
1040
250.96935817982731
1070
     1
1040
1867.3487751184109
1040
250.96935817982731
1040
1867.263589684133
1040
251.61640579258349
1070
     1
1040
1867.263589684133
1040
251.61640579258349
1040
1867.013838627872
1040
252.2193581798272
1070
     1
1040
1867.013838627872
1040
252.2193581798272
1040
1866.6165420713769
1040
252.73712513279361
1070
     1
1040
1866.6165420713769
1040
252.73712513279361
1040
1866.0987751184109
1040
253.1344216892883
1070
     1
1040
1866.0987751184109
1040
253.1344216892883
1040
1865.495822731167
1040
253.3841727455499
1070
     1
1040
1865.495822731167
1040
253.3841727455499
1040
1864.84877511841
1040
253.4693581798272
1070
     1
1040
1864.84877511841
1040
253.4693581798272
1040
1864.2017275056539
1040
253.3841727455499
1070
     1
1040
1864.2017275056539
1040
253.3841727455499
1040
1863.5987751184109
1040
253.13442168928839
1070
     1
1040
1863.5987751184109
1040
253.13442168928839
1040
1863.081008165444
1040
252.73712513279361
1070
     1
1040
1863.081008165444
1040
252.73712513279361
1040
1862.68371160895
1040
252.21935817982731
1070
     1
1040
1862.68371160895
1040
252.21935817982731
1040
1862.4339605526879
1040
251.61640579258361
1070
     1
1040
1862.4339605526879
1040
251.61640579258361
1040
1862.3487751184109
1040
250.96935817982731
1070
     1
1040
1862.3487751184109
1040
250.96935817982731
1040
1862.4339605526879
1040
250.3223105670711
1070
     1
1040
1862.4339605526879
1040
250.3223105670711
1040
1862.68371160895
1040
249.7193581798274
1070
     1
1040
1862.68371160895
1040
249.7193581798274
1040
1863.081008165444
1040
249.20159122686101
1070
     1
1040
1863.081008165444
1040
249.20159122686101
1040
1863.5987751184109
1040
248.80429467036629
1070
     1
1040
1863.5987751184109
1040
248.80429467036629
1040
1864.2017275056539
1040
248.5545436141046
1070
     1
1040
1864.2017275056539
1040
248.5545436141046
1040
1864.84877511841
1040
248.46935817982731
1071
        0
1070
     0
1070
     1
1071
        1
1040
-767.62525250415047
1040
0.0
1040
0.0
1002
}
  0
LINE
  5
598
  8
0
 62
   250
 10
1863.4718029920541
 20
248.8827466291938
 30
0.0
 11
1800.075904707234
 21
152.8149968964122
 31
0.0
1001
REVIT
1002
{
1070
     3
1000
274314
1002
}
  0
INSERT
  5
599
  8
0
  2
*U8
 10
0.0
 20
0.0
 30
0.0
  0
INSERT
  5
59B
  8
0
  6
CONTINUOUS
  2
*U9
 10
0.0
 20
0.0
 30
0.0
1001
REVIT
1002
{
1070
     3
1000
450047
1002
}
1001
ACAD
1002
{
1000
R14_HATCH_DATA
1000
59B
1011
1.0
1021
0.0
1031
0.0
1021
0.0
1031
0.0
1011
0.0
1021
0.0
1031
0.0
1021
1.0
1031
0.0
1011
0.0
1021
0.0
1031
0.0
1021
0.0
1031
1.0
1040
0.0
1010
0.0
1020
0.0
1030
1.0
1000
SOLID
1070
     1
1070
     0
1071
        1
1071
        0
1071
       24
1070
     1
1040
196.67259324633969
1040
-35.628093784215658
1040
197.96668847185231
1040
-35.457722915661272
1070
     1
1040
197.96668847185231
1040
-35.457722915661272
1040
199.17259324633969
1040
-34.958220803138111
1070
     1
1040
199.17259324633969
1040
-34.958220803138111
1040
200.2081271522726
1040
-34.163627690148417
1070
     1
1040
200.2081271522726
1040
-34.163627690148417
1040
201.0027202652619
1040
-33.128093784215693
1070
     1
1040
201.0027202652619
1040
-33.128093784215679
1040
201.50222237778519
1040
-31.922189009728289
1070
     1
1040
201.50222237778519
1040
-31.922189009728289
1040
201.67259324633969
1040
-30.628093784215981
1070
     1
1040
201.67259324633969
1040
-30.628093784215981
1040
201.50222237778519
1040
-29.333998558703129
1070
     1
1040
201.50222237778519
1040
-29.333998558703129
1040
201.0027202652619
1040
-28.128093784215739
1070
     1
1040
201.0027202652619
1040
-28.128093784215739
1040
200.2081271522726
1040
-27.092559878283019
1070
     1
1040
200.2081271522726
1040
-27.092559878283019
1040
199.17259324633969
1040
-26.297966765293591
1070
     1
1040
199.17259324633969
1040
-26.297966765293591
1040
197.96668847185231
1040
-25.798464652770431
1070
     1
1040
197.96668847185231
1040
-25.798464652770431
1040
196.67259324633989
1040
-25.628093784215761
1070
     1
1040
196.67259324633989
1040
-25.628093784215761
1040
195.37849802082721
1040
-25.798464652770431
1070
     1
1040
195.37849802082721
1040
-25.798464652770431
1040
194.1725932463398
1040
-26.297966765293591
1070
     1
1040
194.1725932463398
1040
-26.297966765293591
1040
193.13705934040701
1040
-27.092559878283019
1070
     1
1040
193.13705934040701
1040
-27.092559878283019
1040
192.34246622741759
1040
-28.128093784215739
1070
     1
1040
192.34246622741759
1040
-28.128093784215739
1040
191.8429641148945
1040
-29.333998558703129
1070
     1
1040
191.8429641148945
1040
-29.333998558703129
1040
191.6725932463398
1040
-30.628093784215711
1070
     1
1040
191.6725932463398
1040
-30.628093784215711
1040
191.8429641148945
1040
-31.922189009728289
1070
     1
1040
191.8429641148945
1040
-31.922189009728289
1040
192.34246622741759
1040
-33.128093784215679
1070
     1
1040
192.34246622741759
1040
-33.128093784215679
1040
193.13705934040701
1040
-34.163627690148409
1070
     1
1040
193.13705934040701
1040
-34.163627690148417
1040
194.1725932463398
1040
-34.958220803137841
1070
     1
1040
194.1725932463398
1040
-34.958220803137841
1040
195.37849802082721
1040
-35.457722915661272
1070
     1
1040
195.37849802082721
1040
-35.457722915661272
1040
196.67259324633969
1040
-35.628093784215658
1071
        0
1070
     0
1070
     1
1071
        1
1040
0.0
1040
-60.0
1040
0.0
1002
}
  0
INSERT
  5
59C
  8
0
  6
CONTINUOUS
  2
*U10
 10
0.0
 20
0.0
 30
0.0
1001
REVIT
1002
{
1070
     3
1000
450047
1002
}
1001
ACAD
1002
{
1000
R14_HATCH_DATA
1000
59C
1011
1.0
1021
0.0
1031
0.0
1021
0.0
1031
0.0
1011
0.0
1021
0.0
1031
0.0
1021
1.0
1031
0.0
1011
0.0
1021
0.0
1031
0.0
1021
0.0
1031
1.0
1040
0.0
1010
0.0
1020
0.0
1030
1.0
1000
SOLID
1070
     1
1070
     0
1071
        1
1071
        0
1071
       24
1070
     1
1040
827.55697685247753
1040
-248.53371894346611
1040
828.85107207798978
1040
-248.36334807491141
1070
     1
1040
828.85107207798978
1040
-248.36334807491141
1040
830.05697685247719
1040
-247.8638459623883
1070
     1
1040
830.05697685247719
1040
-247.8638459623883
1040
831.09251075840984
1040
-247.06925284939891
1070
     1
1040
831.09251075840984
1040
-247.06925284939891
1040
831.9220159433504
1040
-245.9494337458716
1070
     1
1040
831.9220159433504
1040
-245.9494337458716
1040
832.38660598392266
1040
-244.8278141689787
1070
     1
1040
832.38660598392266
1040
-244.8278141689787
1040
832.55697685247742
1040
-243.53371894346611
1070
     1
1040
832.55697685247742
1040
-243.53371894346611
1040
832.38660598392266
1040
-242.23962371795361
1070
     1
1040
832.38660598392266
1040
-242.23962371795361
1040
831.88710387139929
1040
-241.0337189434662
1070
     1
1040
831.88710387139929
1040
-241.0337189434662
1040
831.09251075840984
1040
-239.9981850375334
1070
     1
1040
831.09251075840984
1040
-239.9981850375334
1040
830.05697685247719
1040
-239.2035919245441
1070
     1
1040
830.05697685247719
1040
-239.2035919245441
1040
828.85107207798978
1040
-238.7040898120209
1070
     1
1040
828.85107207798978
1040
-238.7040898120209
1040
827.55697685247753
1040
-238.5337189434662
1070
     1
1040
827.55697685247753
1040
-238.5337189434662
1040
826.26288162696505
1040
-238.7040898120209
1070
     1
1040
826.26288162696505
1040
-238.7040898120209
1040
825.05697685247742
1040
-239.2035919245441
1070
     1
1040
825.05697685247742
1040
-239.2035919245441
1040
824.02144294654477
1040
-239.9981850375334
1070
     1
1040
824.02144294654477
1040
-239.9981850375334
1040
823.22684983355532
1040
-241.0337189434662
1070
     1
1040
823.22684983355532
1040
-241.0337189434662
1040
822.72734772103206
1040
-242.23962371795361
1070
     1
1040
822.72734772103206
1040
-242.23962371795361
1040
822.55697685247742
1040
-243.53371894346611
1070
     1
1040
822.55697685247742
1040
-243.53371894346611
1040
822.72734772103206
1040
-244.8278141689787
1070
     1
1040
822.72734772103206
1040
-244.8278141689787
1040
823.22684983355532
1040
-246.03371894346611
1070
     1
1040
823.22684983355532
1040
-246.03371894346611
1040
824.02144294654477
1040
-247.06925284939891
1070
     1
1040
824.02144294654477
1040
-247.06925284939891
1040
825.05697685247742
1040
-247.8638459623883
1070
     1
1040
825.05697685247742
1040
-247.8638459623883
1040
826.26288162696505
1040
-248.36334807491141
1070
     1
1040
826.26288162696505
1040
-248.36334807491141
1040
827.55697685247753
1040
-248.53371894346611
1071
        0
1070
     0
1070
     1
1071
        1
1040
0.0
1040
-60.0
1040
0.0
1002
}
  0
INSERT
  5
59D
  8
0
  6
CONTINUOUS
  2
*U11
 10
0.0
 20
0.0
 30
0.0
1001
REVIT
1002
{
1070
     3
1000
450047
1002
}
1001
ACAD
1002
{
1000
R14_HATCH_DATA
1000
59D
1011
1.0
1021
0.0
1031
0.0
1021
0.0
1031
0.0
1011
0.0
1021
0.0
1031
0.0
1021
1.0
1031
0.0
1011
0.0
1021
0.0
1031
0.0
1021
0.0
1031
1.0
1040
0.0
1010
0.0
1020
0.0
1030
1.0
1000
SOLID
1070
     1
1070
     0
1071
        1
1071
        0
1071
       24
1070
     1
1040
1264.7231721033161
1040
242.1963016351051
1040
1266.0172673288289
1040
242.36667250365969
1070
     1
1040
1266.0172673288289
1040
242.36667250365969
1040
1267.2231721033161
1040
242.8661746161826
1070
     1
1040
1267.2231721033161
1040
242.8661746161826
1040
1268.258706009249
1040
243.66076772917199
1070
     1
1040
1268.258706009249
1040
243.66076772917199
1040
1269.0532991222381
1040
244.69630163510479
1070
     1
1040
1269.0532991222381
1040
244.69630163510479
1040
1269.5528012347611
1040
245.9022064095922
1070
     1
1040
1269.5528012347611
1040
245.9022064095922
1040
1269.7231721033161
1040
247.19630163510499
1070
     1
1040
1269.7231721033161
1040
247.19630163510499
1040
1269.5528012347611
1040
248.4903968606173
1070
     1
1040
1269.5528012347611
1040
248.4903968606173
1040
1269.0532991222381
1040
249.69630163510499
1070
     1
1040
1269.0532991222381
1040
249.69630163510499
1040
1268.258706009249
1040
250.73183554103741
1070
     1
1040
1268.258706009249
1040
250.73183554103741
1040
1267.2231721033161
1040
251.5264286540272
1070
     1
1040
1267.2231721033161
1040
251.5264286540272
1040
1266.0172673288289
1040
252.02593076655029
1070
     1
1040
1266.0172673288289
1040
252.02593076655029
1040
1264.7231721033161
1040
252.1963016351049
1070
     1
1040
1264.7231721033161
1040
252.1963016351049
1040
1263.4290768778039
1040
252.02593076655029
1070
     1
1040
1263.4290768778039
1040
252.02593076655029
1040
1262.2231721033161
1040
251.5264286540272
1070
     1
1040
1262.2231721033161
1040
251.5264286540272
1040
1261.187638197383
1040
250.73183554103741
1070
     1
1040
1261.187638197383
1040
250.73183554103741
1040
1260.3930450843941
1040
249.69630163510499
1070
     1
1040
1260.3930450843941
1040
249.69630163510499
1040
1259.8935429718711
1040
248.49039686061761
1070
     1
1040
1259.8935429718711
1040
248.49039686061761
1040
1259.723172103317
1040
247.19630163510499
1070
     1
1040
1259.723172103317
1040
247.19630163510499
1040
1259.8935429718711
1040
245.9022064095922
1070
     1
1040
1259.8935429718711
1040
245.9022064095922
1040
1260.3930450843941
1040
244.69630163510479
1070
     1
1040
1260.3930450843941
1040
244.69630163510479
1040
1261.187638197383
1040
243.66076772917199
1070
     1
1040
1261.187638197383
1040
243.66076772917199
1040
1262.2231721033161
1040
242.8661746161826
1070
     1
1040
1262.2231721033161
1040
242.8661746161826
1040
1263.4290768778039
1040
242.36667250365969
1070
     1
1040
1263.4290768778039
1040
242.36667250365969
1040
1264.7231721033161
1040
242.1963016351051
1071
        0
1070
     0
1070
     1
1071
        1
1040
0.0
1040
-60.0
1040
0.0
1002
}
  0
INSERT
  5
59E
  8
0
  6
CONTINUOUS
  2
*U12
 10
0.0
 20
0.0
 30
0.0
1001
REVIT
1002
{
1070
     3
1000
450047
1002
}
1001
ACAD
1002
{
1000
R14_HATCH_DATA
1000
59E
1011
1.0
1021
0.0
1031
0.0
1021
0.0
1031
0.0
1011
0.0
1021
0.0
1031
0.0
1021
1.0
1031
0.0
1011
0.0
1021
0.0
1031
0.0
1021
0.0
1031
1.0
1040
0.0
1010
0.0
1020
0.0
1030
1.0
1000
SOLID
1070
     1
1070
     0
1071
        1
1071
        0
1071
       24
1070
     1
1040
864.06734449660769
1040
894.66857113462459
1040
865.36143972212017
1040
894.83894200317911
1070
     1
1040
865.36143972212017
1040
894.83894200317911
1040
866.56734449660757
1040
895.33844411570249
1070
     1
1040
866.56734449660757
1040
895.33844411570249
1040
867.60287840254045
1040
896.13303722869193
1070
     1
1040
867.60287840254045
1040
896.13303722869193
1040
868.39747151552967
1040
897.16857113462459
1070
     1
1040
868.39747151552967
1040
897.16857113462459
1040
868.89697362805327
1040
898.37447590911222
1070
     1
1040
868.89697362805327
1040
898.37447590911222
1040
869.0673444966078
1040
899.66857113462447
1070
     1
1040
869.0673444966078
1040
899.66857113462447
1040
868.89697362805327
1040
900.96266636013706
1070
     1
1040
868.89697362805327
1040
900.96266636013706
1040
868.39747151552967
1040
902.16857113462447
1070
     1
1040
868.39747151552967
1040
902.16857113462447
1040
867.60287840254045
1040
903.20410504055735
1070
     1
1040
867.60287840254045
1040
903.20410504055735
1040
866.56734449660757
1040
903.9986981535468
1070
     1
1040
866.56734449660757
1040
903.9986981535468
1040
865.36143972212017
1040
904.49820026606994
1070
     1
1040
865.36143972212017
1040
904.49820026606994
1040
864.06734449660769
1040
904.66857113462436
1070
     1
1040
864.06734449660769
1040
904.66857113462436
1040
862.7732492710951
1040
904.49820026606994
1070
     1
1040
862.7732492710951
1040
904.49820026606994
1040
861.56734449660769
1040
903.9986981535468
1070
     1
1040
861.56734449660769
1040
903.9986981535468
1040
860.53181059067504
1040
903.20410504055735
1070
     1
1040
860.53181059067504
1040
903.20410504055735
1040
859.73721747768559
1040
902.16857113462447
1070
     1
1040
859.73721747768559
1040
902.16857113462447
1040
859.23771536516267
1040
900.96266636013706
1070
     1
1040
859.23771536516267
1040
900.96266636013706
1040
859.06734449660803
1040
899.66857113462447
1070
     1
1040
859.06734449660803
1040
899.66857113462447
1040
859.23771536516267
1040
898.37447590911222
1070
     1
1040
859.23771536516267
1040
898.37447590911222
1040
859.73721747768559
1040
897.16857113462459
1070
     1
1040
859.73721747768559
1040
897.16857113462459
1040
860.53181059067504
1040
896.13303722869193
1070
     1
1040
860.53181059067504
1040
896.13303722869193
1040
861.56734449660769
1040
895.33844411570249
1070
     1
1040
861.56734449660769
1040
895.33844411570249
1040
862.7732492710951
1040
894.83894200317911
1070
     1
1040
862.7732492710951
1040
894.83894200317911
1040
864.06734449660769
1040
894.66857113462459
1071
        0
1070
     0
1070
     1
1071
        1
1040
0.0
1040
-60.0
1040
0.0
1002
}
  0
INSERT
  5
59F
  8
0
  6
CONTINUOUS
  2
*U13
 10
0.0
 20
0.0
 30
0.0
1001
REVIT
1002
{
1070
     3
1000
450047
1002
}
1001
ACAD
1002
{
1000
R14_HATCH_DATA
1000
59F
1011
1.0
1021
0.0
1031
0.0
1021
0.0
1031
0.0
1011
0.0
1021
0.0
1031
0.0
1021
1.0
1031
0.0
1011
0.0
1021
0.0
1031
0.0
1021
0.0
1031
1.0
1040
0.0
1010
0.0
1020
0.0
1030
1.0
1000
SOLID
1070
     1
1070
     0
1071
        1
1071
        0
1071
       24
1070
     1
1040
1006.538910362685
1040
830.65260154790565
1040
1007.833005588197
1040
830.8229724164604
1070
     1
1040
1007.833005588197
1040
830.8229724164604
1040
1009.038910362685
1040
831.32247452898355
1070
     1
1040
1009.038910362685
1040
831.32247452898355
1040
1010.074444268617
1040
832.11706764197311
1070
     1
1040
1010.074444268617
1040
832.11706764197311
1040
1010.869037381607
1040
833.15260154790576
1070
     1
1040
1010.869037381607
1040
833.15260154790576
1040
1011.36853949413
1040
834.35850632239328
1070
     1
1040
1011.36853949413
1040
834.35850632239328
1040
1011.538910362685
1040
835.65260154790576
1070
     1
1040
1011.538910362685
1040
835.65260154790576
1040
1011.36853949413
1040
836.94669677341847
1070
     1
1040
1011.36853949413
1040
836.94669677341847
1040
1010.869037381607
1040
838.15260154790565
1070
     1
1040
1010.869037381607
1040
838.15260154790565
1040
1010.074444268617
1040
839.18813545383853
1070
     1
1040
1010.074444268617
1040
839.18813545383853
1040
1009.038910362685
1040
839.98272856682797
1070
     1
1040
1009.038910362685
1040
839.98272856682797
1040
1007.833005588197
1040
840.48223067935101
1070
     1
1040
1007.833005588197
1040
840.48223067935101
1040
1006.538910362685
1040
840.65260154790565
1070
     1
1040
1006.538910362685
1040
840.65260154790565
1040
1005.2448151371721
1040
840.48223067935101
1070
     1
1040
1005.2448151371721
1040
840.48223067935101
1040
1004.038910362685
1040
839.98272856682797
1070
     1
1040
1004.038910362685
1040
839.98272856682797
1040
1003.003376456752
1040
839.18813545383853
1070
     1
1040
1003.003376456752
1040
839.18813545383853
1040
1002.208783343762
1040
838.15260154790565
1070
     1
1040
1002.208783343762
1040
838.15260154790565
1040
1001.70928123124
1040
836.94669677341847
1070
     1
1040
1001.70928123124
1040
836.94669677341847
1040
1001.538910362685
1040
835.65260154790576
1070
     1
1040
1001.538910362685
1040
835.65260154790576
1040
1001.70928123124
1040
834.35850632239328
1070
     1
1040
1001.70928123124
1040
834.35850632239328
1040
1002.208783343762
1040
833.15260154790576
1070
     1
1040
1002.208783343762
1040
833.15260154790576
1040
1003.003376456752
1040
832.11706764197311
1070
     1
1040
1003.003376456752
1040
832.11706764197311
1040
1004.038910362685
1040
831.32247452898355
1070
     1
1040
1004.038910362685
1040
831.32247452898355
1040
1005.2448151371721
1040
830.8229724164604
1070
     1
1040
1005.2448151371721
1040
830.8229724164604
1040
1006.538910362685
1040
830.65260154790565
1071
        0
1070
     0
1070
     1
1071
        1
1040
0.0
1040
-60.0
1040
0.0
1002
}
  0
INSERT
  5
5A0
  8
0
  6
CONTINUOUS
  2
*U14
 10
0.0
 20
0.0
 30
0.0
1001
REVIT
1002
{
1070
     3
1000
450047
1002
}
1001
ACAD
1002
{
1000
R14_HATCH_DATA
1000
5A0
1011
1.0
1021
0.0
1031
0.0
1021
0.0
1031
0.0
1011
0.0
1021
0.0
1031
0.0
1021
1.0
1031
0.0
1011
0.0
1021
0.0
1031
0.0
1021
0.0
1031
1.0
1040
0.0
1010
0.0
1020
0.0
1030
1.0
1000
SOLID
1070
     1
1070
     0
1071
        1
1071
        0
1071
       24
1070
     1
1040
242.82170873260941
1040
153.09516157512729
1040
244.1158039581222
1040
153.26553244368199
1070
     1
1040
244.1158039581222
1040
153.26553244368199
1040
245.32170873260961
1040
153.76503455620539
1070
     1
1040
245.32170873260961
1040
153.76503455620539
1040
246.35724263854229
1040
154.55962766919481
1070
     1
1040
246.35724263854229
1040
154.55962766919481
1040
247.15183575153171
1040
155.59516157512761
1070
     1
1040
247.15183575153171
1040
155.59516157512761
1040
247.6513378640548
1040
156.80106634961501
1070
     1
1040
247.6513378640548
1040
156.80106634961501
1040
247.82170873260969
1040
158.09516157512749
1070
     1
1040
247.82170873260969
1040
158.09516157512749
1040
247.6513378640548
1040
159.38925680064011
1070
     1
1040
247.6513378640548
1040
159.38925680064011
1040
247.15183575153171
1040
160.59516157512749
1070
     1
1040
247.15183575153171
1040
160.59516157512749
1040
246.35724263854229
1040
161.6306954810602
1070
     1
1040
246.35724263854229
1040
161.6306954810602
1040
245.32170873260961
1040
162.4252885940497
1070
     1
1040
245.32170873260961
1040
162.4252885940497
1040
244.1158039581222
1040
162.92479070657279
1070
     1
1040
244.1158039581222
1040
162.92479070657279
1040
242.82170873260941
1040
163.09516157512749
1070
     1
1040
242.82170873260941
1040
163.09516157512749
1040
241.52761350709699
1040
162.92479070657279
1070
     1
1040
241.52761350709699
1040
162.92479070657279
1040
240.32170873260961
1040
162.4252885940497
1070
     1
1040
240.32170873260961
1040
162.4252885940497
1040
239.2861748266769
1040
161.6306954810602
1070
     1
1040
239.2861748266769
1040
161.6306954810602
1040
238.4915817136874
1040
160.59516157512749
1070
     1
1040
238.4915817136874
1040
160.59516157512749
1040
237.99207960116419
1040
159.38925680064011
1070
     1
1040
237.99207960116419
1040
159.38925680064011
1040
237.82170873260961
1040
158.09516157512749
1070
     1
1040
237.82170873260961
1040
158.09516157512749
1040
237.99207960116419
1040
156.80106634961501
1070
     1
1040
237.99207960116419
1040
156.80106634961501
1040
238.49158171368731
1040
155.59516157512761
1070
     1
1040
238.49158171368731
1040
155.59516157512761
1040
239.2861748266769
1040
154.55962766919481
1070
     1
1040
239.2861748266769
1040
154.55962766919481
1040
240.32170873260941
1040
153.76503455620539
1070
     1
1040
240.32170873260941
1040
153.76503455620539
1040
241.52761350709699
1040
153.26553244368199
1070
     1
1040
241.52761350709699
1040
153.26553244368199
1040
242.82170873260941
1040
153.09516157512729
1071
        0
1070
     0
1070
     1
1071
        1
1040
0.0
1040
-60.0
1040
0.0
1002
}
  0
INSERT
  5
5A1
  8
0
  6
CONTINUOUS
  2
*U15
 10
0.0
 20
0.0
 30
0.0
1001
REVIT
1002
{
1070
     3
1000
450047
1002
}
1001
ACAD
1002
{
1000
R14_HATCH_DATA
1000
5A1
1011
1.0
1021
0.0
1031
0.0
1021
0.0
1031
0.0
1011
0.0
1021
0.0
1031
0.0
1021
1.0
1031
0.0
1011
0.0
1021
0.0
1031
0.0
1021
0.0
1031
1.0
1040
0.0
1010
0.0
1020
0.0
1030
1.0
1000
SOLID
1070
     1
1070
     0
1071
        1
1071
        0
1071
       24
1070
     1
1040
1124.3131877763781
1040
738.8002132237151
1040
1125.6072830018909
1040
738.97058409226975
1070
     1
1040
1125.6072830018909
1040
738.97058409226975
1040
1126.8131877763781
1040
739.47008620479301
1070
     1
1040
1126.8131877763781
1040
739.47008620479301
1040
1127.848721682311
1040
740.26467931778245
1070
     1
1040
1127.848721682311
1040
740.26467931778245
1040
1128.6433147953001
1040
741.30021322371522
1070
     1
1040
1128.6433147953001
1040
741.30021322371522
1040
1129.1428169078231
1040
742.50611799820251
1070
     1
1040
1129.1428169078231
1040
742.50611799820251
1040
1129.3131877763781
1040
743.8002132237151
1070
     1
1040
1129.3131877763781
1040
743.8002132237151
1040
1129.1428169078231
1040
745.09430844922758
1070
     1
1040
1129.1428169078231
1040
745.09430844922758
1040
1128.6433147953001
1040
746.3002132237151
1070
     1
1040
1128.6433147953001
1040
746.3002132237151
1040
1127.848721682311
1040
747.33574712964787
1070
     1
1040
1127.848721682311
1040
747.33574712964787
1040
1126.8131877763781
1040
748.13034024263732
1070
     1
1040
1126.8131877763781
1040
748.13034024263732
1040
1125.6072830018909
1040
748.62984235516046
1070
     1
1040
1125.6072830018909
1040
748.62984235516046
1040
1124.3131877763781
1040
748.80021322371499
1070
     1
1040
1124.3131877763781
1040
748.80021322371499
1040
1123.0190925508659
1040
748.62984235516046
1070
     1
1040
1123.0190925508659
1040
748.62984235516046
1040
1121.8131877763781
1040
748.13034024263732
1070
     1
1040
1121.8131877763781
1040
748.13034024263732
1040
1120.777653870445
1040
747.33574712964787
1070
     1
1040
1120.777653870445
1040
747.33574712964787
1040
1119.9830607574561
1040
746.3002132237151
1070
     1
1040
1119.9830607574561
1040
746.3002132237151
1040
1119.4835586449331
1040
745.09430844922758
1070
     1
1040
1119.4835586449331
1040
745.09430844922758
1040
1119.3131877763781
1040
743.8002132237151
1070
     1
1040
1119.3131877763781
1040
743.8002132237151
1040
1119.4835586449331
1040
742.50611799820251
1070
     1
1040
1119.4835586449331
1040
742.50611799820251
1040
1119.9830607574561
1040
741.30021322371522
1070
     1
1040
1119.9830607574561
1040
741.30021322371522
1040
1120.777653870445
1040
740.26467931778245
1070
     1
1040
1120.777653870445
1040
740.26467931778245
1040
1121.8131877763781
1040
739.47008620479301
1070
     1
1040
1121.8131877763781
1040
739.47008620479301
1040
1123.0190925508659
1040
738.97058409226975
1070
     1
1040
1123.0190925508659
1040
738.97058409226975
1040
1124.3131877763781
1040
738.8002132237151
1071
        0
1070
     0
1070
     1
1071
        1
1040
0.0
1040
-60.0
1040
0.0
1002
}
  0
INSERT
  5
5A2
  8
0
  6
CONTINUOUS
  2
*U16
 10
0.0
 20
0.0
 30
0.0
1001
REVIT
1002
{
1070
     3
1000
450047
1002
}
1001
ACAD
1002
{
1000
R14_HATCH_DATA
1000
5A2
1011
1.0
1021
0.0
1031
0.0
1021
0.0
1031
0.0
1011
0.0
1021
0.0
1031
0.0
1021
1.0
1031
0.0
1011
0.0
1021
0.0
1031
0.0
1021
0.0
1031
1.0
1040
0.0
1010
0.0
1020
0.0
1030
1.0
1000
SOLID
1070
     1
1070
     0
1071
        1
1071
        0
1071
       24
1070
     1
1040
585.5992331052646
1040
758.01402588130168
1040
586.89332833077719
1040
758.18439674985632
1070
     1
1040
586.89332833077719
1040
758.18439674985632
1040
588.09923310526437
1040
758.68389886237958
1070
     1
1040
588.09923310526437
1040
758.68389886237958
1040
589.1347670111976
1040
759.4784919753688
1070
     1
1040
589.1347670111976
1040
759.4784919753688
1040
589.9293601241867
1040
760.51402588130156
1070
     1
1040
589.9293601241867
1040
760.51402588130156
1040
590.42886223670985
1040
761.71993065578908
1070
     1
1040
590.42886223670985
1040
761.71993065578908
1040
590.59923310526449
1040
763.01402588130168
1070
     1
1040
590.59923310526449
1040
763.01402588130168
1040
590.42886223670985
1040
764.30812110681416
1070
     1
1040
590.42886223670985
1040
764.30812110681416
1040
589.9293601241867
1040
765.51402588130156
1070
     1
1040
589.9293601241867
1040
765.51402588130156
1040
589.1347670111976
1040
766.54955978723433
1070
     1
1040
589.1347670111976
1040
766.54955978723433
1040
588.09923310526437
1040
767.34415290022366
1070
     1
1040
588.09923310526437
1040
767.34415290022366
1040
586.89332833077719
1040
767.84365501274692
1070
     1
1040
586.89332833077719
1040
767.84365501274692
1040
585.5992331052646
1040
768.01402588130156
1070
     1
1040
585.5992331052646
1040
768.01402588130156
1040
584.30513787975201
1040
767.84365501274692
1070
     1
1040
584.30513787975201
1040
767.84365501274692
1040
583.09923310526449
1040
767.34415290022366
1070
     1
1040
583.09923310526449
1040
767.34415290022366
1040
582.06369919933184
1040
766.54955978723433
1070
     1
1040
582.06369919933184
1040
766.54955978723433
1040
581.26910608634228
1040
765.51402588130156
1070
     1
1040
581.26910608634228
1040
765.51402588130156
1040
580.76960397381924
1040
764.30812110681416
1070
     1
1040
580.76960397381924
1040
764.30812110681416
1040
580.5992331052646
1040
763.01402588130168
1070
     1
1040
580.5992331052646
1040
763.01402588130168
1040
580.76960397381924
1040
761.71993065578908
1070
     1
1040
580.76960397381924
1040
761.71993065578908
1040
581.26910608634228
1040
760.51402588130156
1070
     1
1040
581.26910608634228
1040
760.51402588130156
1040
582.06369919933184
1040
759.4784919753688
1070
     1
1040
582.06369919933184
1040
759.4784919753688
1040
583.09923310526449
1040
758.68389886237958
1070
     1
1040
583.09923310526449
1040
758.68389886237958
1040
584.30513787975201
1040
758.18439674985632
1070
     1
1040
584.30513787975201
1040
758.18439674985632
1040
585.5992331052646
1040
758.01402588130168
1071
        0
1070
     0
1070
     1
1071
        1
1040
0.0
1040
-60.0
1040
0.0
1002
}
  0
INSERT
  5
5A3
  8
0
  6
CONTINUOUS
  2
*U17
 10
0.0
 20
0.0
 30
0.0
1001
REVIT
1002
{
1070
     3
1000
450047
1002
}
1001
ACAD
1002
{
1000
R14_HATCH_DATA
1000
5A3
1011
1.0
1021
0.0
1031
0.0
1021
0.0
1031
0.0
1011
0.0
1021
0.0
1031
0.0
1021
1.0
1031
0.0
1011
0.0
1021
0.0
1031
0.0
1021
0.0
1031
1.0
1040
0.0
1010
0.0
1020
0.0
1030
1.0
1000
SOLID
1070
     1
1070
     0
1071
        1
1071
        0
1071
       24
1070
     1
1040
430.43122921611621
1040
557.83703957434739
1040
431.7253244416288
1040
558.00741044290203
1070
     1
1040
431.7253244416288
1040
558.00741044290203
1040
432.93122921611632
1040
558.50691255542529
1070
     1
1040
432.93122921611632
1040
558.50691255542529
1040
433.96676312204897
1040
559.30150566841462
1070
     1
1040
433.96676312204897
1040
559.30150566841462
1040
434.76135623503831
1040
560.3370395743475
1070
     1
1040
434.76135623503831
1040
560.3370395743475
1040
435.2608583475614
1040
561.54294434883479
1070
     1
1040
435.2608583475614
1040
561.54294434883479
1040
435.43122921611609
1040
562.83703957434739
1070
     1
1040
435.43122921611609
1040
562.83703957434739
1040
435.2608583475614
1040
564.13113479985975
1070
     1
1040
435.2608583475614
1040
564.13113479985975
1040
434.76135623503831
1040
565.33703957434716
1070
     1
1040
434.76135623503831
1040
565.33703957434716
1040
433.96676312204897
1040
566.37257348028015
1070
     1
1040
433.96676312204897
1040
566.37257348028015
1040
432.93122921611632
1040
567.16716659326937
1070
     1
1040
432.93122921611632
1040
567.16716659326937
1040
431.7253244416288
1040
567.66666870579274
1070
     1
1040
431.7253244416288
1040
567.66666870579274
1040
430.43122921611621
1040
567.83703957434716
1070
     1
1040
430.43122921611621
1040
567.83703957434716
1040
429.13713399060339
1040
567.66666870579274
1070
     1
1040
429.13713399060339
1040
567.66666870579274
1040
427.93122921611632
1040
567.16716659326937
1070
     1
1040
427.93122921611632
1040
567.16716659326937
1040
426.8956953101835
1040
566.37257348028015
1070
     1
1040
426.8956953101835
1040
566.37257348028015
1040
426.10110219719388
1040
565.33703957434716
1070
     1
1040
426.10110219719388
1040
565.33703957434716
1040
425.60160008467091
1040
564.13113479985975
1070
     1
1040
425.60160008467091
1040
564.13113479985975
1040
425.43122921611621
1040
562.83703957434739
1070
     1
1040
425.43122921611621
1040
562.83703957434739
1040
425.60160008467091
1040
561.54294434883479
1070
     1
1040
425.60160008467091
1040
561.54294434883479
1040
426.10110219719388
1040
560.3370395743475
1070
     1
1040
426.10110219719388
1040
560.3370395743475
1040
426.8956953101835
1040
559.30150566841462
1070
     1
1040
426.8956953101835
1040
559.30150566841462
1040
427.93122921611609
1040
558.50691255542529
1070
     1
1040
427.93122921611609
1040
558.50691255542529
1040
429.13713399060339
1040
558.00741044290203
1070
     1
1040
429.13713399060339
1040
558.00741044290203
1040
430.43122921611621
1040
557.83703957434739
1071
        0
1070
     0
1070
     1
1071
        1
1040
0.0
1040
-60.0
1040
0.0
1002
}
  0
LINE
  5
5A4
  8
0
 10
198.3823906558959
 20
-35.326667271804752
 30
0.0
 11
344.44392817539659
 21
-436.70806129538681
 31
0.0
1001
REVIT
1002
{
1070
     3
1000
450047
1002
}
  0
LINE
  5
5A5
  8
0
 10
832.55166188606324
 20
-243.30323810854719
 30
0.0
 11
1173.7791300106551
 21
-227.5572218489296
 31
0.0
1001
REVIT
1002
{
1070
     3
1000
450047
1002
}
  0
LINE
  5
5A6
  8
0
 10
1267.7818194956581
 20
243.2409664875712
 30
0.0
 11
1384.649460737304
 21
92.11184641651289
 31
0.0
1001
REVIT
1002
{
1070
     3
1000
450047
1002
}
  0
LINE
  5
5A7
  8
0
 10
868.85367439609081
 20
901.11461611777838
 30
0.0
 11
1243.4665934918901
 21
1014.2925924920841
 31
0.0
1001
REVIT
1002
{
1070
     3
1000
450047
1002
}
  0
LINE
  5
5A8
  8
0
 10
1011.3038743143589
 20
837.16756641193103
 30
0.0
 11
1243.4665934918901
 21
910.98100253815483
 31
0.0
1001
REVIT
1002
{
1070
     3
1000
450047
1002
}
  0
LINE
  5
5A9
  8
0
 10
243.74116961959359
 20
153.18042946876531
 30
0.0
 11
335.00610210002009
 21
-334.65184289435962
 31
0.0
1001
REVIT
1002
{
1070
     3
1000
450047
1002
}
  0
LINE
  5
5AA
  8
0
 10
1128.9292160388579
 20
745.72174466503191
 30
0.0
 11
1243.4665934918901
 21
793.40064944360165
 31
0.0
1001
REVIT
1002
{
1070
     3
1000
450047
1002
}
  0
LINE
  5
5AB
  8
0
 10
580.63938302304291
 20
763.64639220068545
 30
0.0
 11
290.01716057532212
 21
800.69987206278984
 31
0.0
1001
REVIT
1002
{
1070
     3
1000
450047
1002
}
  0
LINE
  5
5AC
  8
0
 10
426.97303697771542
 20
566.44825909720441
 30
0.0
 11
301.58166478095342
 21
697.38828210886004
 31
0.0
1001
REVIT
1002
{
1070
     3
1000
450047
1002
}
  0
INSERT
  5
5AD
  8
0
  2
*U18
 10
0.0
 20
0.0
 30
0.0
  0
INSERT
  5
5AE
  8
0
  2
*U19
 10
0.0
 20
0.0
 30
0.0
  0
INSERT
  5
5AF
  8
0
  2
*U20
 10
0.0
 20
0.0
 30
0.0
  0
INSERT
  5
5B0
  8
0
  2
*U21
 10
0.0
 20
0.0
 30
0.0
  0
INSERT
  5
5B1
  8
0
  2
*U22
 10
0.0
 20
0.0
 30
0.0
  0
INSERT
  5
5B2
  8
0
  2
*U23
 10
0.0
 20
0.0
 30
0.0
  0
INSERT
  5
5B3
  8
0
  2
*U24
 10
0.0
 20
0.0
 30
0.0
  0
INSERT
  5
5B4
  8
0
  2
*U25
 10
0.0
 20
0.0
 30
0.0
  0
INSERT
  5
5B5
  8
0
  2
*U26
 10
0.0
 20
0.0
 30
0.0
  0
ARC
  5
7DD
  8
0
 10
178.02206153924519
 20
-39.812076598734961
 30
0.0
 40
3.6000000000000019
 50
230.19799954432111
 51
244.01748877495061
1001
REVIT
1002
{
1070
     3
1000
450041
1002
}
  0
ARC
  5
7DE
  8
0
 10
178.02206153924519
 20
-39.812076598734961
 30
0.0
 40
3.6000000000000019
 50
196.14657674123089
 51
219.66825068339941
1001
REVIT
1002
{
1070
     3
1000
450041
1002
}
  0
ARC
  5
7FF
  8
0
 10
721.52298107762851
 20
948.26886515544345
 30
0.0
 40
151.37924263756639
 50
237.32240276340221
 51
262.87660312482711
1001
REVIT
1002
{
1070
     3
1000
450041
1002
}
  0
ARC
  5
800
  8
0
 10
683.38990202806326
 20
743.2487081440562
 30
0.0
 40
58.128435875939708
 50
35.742146501485138
 51
70.544570061310566
1001
REVIT
1002
{
1070
     3
1000
450041
1002
}
  0
ARC
  5
801
  8
0
 10
797.38935678912753
 20
873.78954909551658
 30
0.0
 40
117.4462851081466
 50
235.32402336042111
 51
261.19915359378319
1001
REVIT
1002
{
1070
     3
1000
450041
1002
}
  0
ARC
  5
802
  8
0
 10
770.05368834826504
 20
644.96524196859741
 30
0.0
 40
113.1491530954969
 50
61.50154153997974
 51
85.251698544754476
1001
REVIT
1002
{
1070
     3
1000
450041
1002
}
  0
ARC
  5
803
  8
0
 10
921.41258380522356
 20
839.36897318349918
 30
0.0
 40
136.01296759262769
 50
224.28312805246529
 51
255.13525253089099
1001
REVIT
1002
{
1070
     3
1000
450041
1002
}
  0
ARC
  5
804
  8
0
 10
505.64577978819398
 20
-848.89751289788626
 30
0.0
 40
1602.7189429207881
 50
75.06582182057474
 51
76.252553968872107
1001
REVIT
1002
{
1070
     3
1000
450041
1002
}
  0
ARC
  5
805
  8
0
 10
1039.15282416169
 20
822.47879460390243
 30
0.0
 40
172.0220065609852
 50
225.5467767025745
 51
247.0309223504525
1001
REVIT
1002
{
1070
     3
1000
450041
1002
}
  0
ARC
  5
806
  8
0
 10
1002.606429835056
 20
766.63957326156265
 30
0.0
 40
107.0074099745086
 50
253.39345334676261
 51
276.21482727108969
1001
REVIT
1002
{
1070
     3
1000
450041
1002
}
  0
ARC
  5
807
  8
0
 10
1003.229262966825
 20
610.89746832144795
 30
0.0
 40
50.565955659887749
 50
26.972486387812118
 51
77.480324973989354
1001
REVIT
1002
{
1070
     3
1000
450041
1002
}
  0
ARC
  5
808
  8
0
 10
1098.7794346806829
 20
684.67280020865269
 30
0.0
 40
71.648081357879775
 50
225.20127625729489
 51
268.59879025971401
1001
REVIT
1002
{
1070
     3
1000
450041
1002
}
  0
POLYLINE
  5
809
  8
0
 66
     1
 10
0.0
 20
0.0
 30
0.0
 70
   128
1001
REVIT
1002
{
1070
     3
1000
450041
1002
}
  0
VERTEX
  5
C25
  8
0
 10
831.77842246630962
 20
-284.81562080861079
 30
0.0
  0
VERTEX
  5
C26
  8
0
 10
931.10765107909765
 20
-329.173510622859
 30
0.0
  0
VERTEX
  5
C27
  8
0
 10
931.10765107909765
 20
-339.05637421393959
 30
0.0
  0
VERTEX
  5
C28
  8
0
 10
927.65374685412439
 20
-342.64568878387831
 30
0.0
  0
VERTEX
  5
C29
  8
0
 10
927.65374685412439
 20
-345.2811190748331
 30
0.0
  0
VERTEX
  5
C2A
  8
0
 10
931.10765107909765
 20
-343.66837722311061
 30
0.0
  0
VERTEX
  5
C2B
  8
0
 10
928.00355432750951
 20
-342.28216710547792
 30
0.0
  0
SEQEND
  5
C2C
  8
0
  0
POLYLINE
  5
80A
  8
0
 66
     1
 10
0.0
 20
0.0
 30
0.0
 70
   128
1001
REVIT
1002
{
1070
     3
1000
450041
1002
}
  0
VERTEX
  5
C2D
  8
0
 10
826.45962120622846
 20
-294.17007122351907
 30
0.0
  0
VERTEX
  5
C2E
  8
0
 10
923.21301285058678
 20
-337.3776582112904
 30
0.0
  0
VERTEX
  5
C2F
  8
0
 10
931.10765107909765
 20
-329.173510622859
 30
0.0
  0
SEQEND
  5
C30
  8
0
  0
POLYLINE
  5
80B
  8
0
 66
     1
 10
0.0
 20
0.0
 30
0.0
 70
   128
1001
REVIT
1002
{
1070
     3
1000
450041
1002
}
  0
VERTEX
  5
C31
  8
0
 10
825.6256617115838
 20
-296.58157277155198
 30
0.0
  0
VERTEX
  5
C32
  8
0
 10
922.2261830720231
 20
-339.72089180532168
 30
0.0
  0
VERTEX
  5
C33
  8
0
 10
922.2261830720231
 20
-455.67982460733441
 30
0.0
  0
VERTEX
  5
C34
  8
0
 10
187.26663339452179
 20
-127.46571101935299
 30
0.0
  0
VERTEX
  5
C35
  8
0
 10
187.26663339452179
 20
-48.322234009188641
 30
0.0
  0
SEQEND
  5
C36
  8
0
  0
POLYLINE
  5
80C
  8
0
 66
     1
 10
0.0
 20
0.0
 30
0.0
 70
   128
1001
REVIT
1002
{
1070
     3
1000
450041
1002
}
  0
VERTEX
  5
C37
  8
0
 10
928.86669490888255
 20
-436.88425648691731
 30
0.0
  0
VERTEX
  5
C38
  8
0
 10
931.10765107909765
 20
-437.88501012474592
 30
0.0
  0
VERTEX
  5
C39
  8
0
 10
931.10765107909765
 20
-447.76787371582662
 30
0.0
  0
VERTEX
  5
C3A
  8
0
 10
923.21301285058678
 20
-455.97202130425779
 30
0.0
  0
SEQEND
  5
C3B
  8
0
  0
POLYLINE
  5
80D
  8
0
 66
     1
 10
0.0
 20
0.0
 30
0.0
 70
   128
1001
REVIT
1002
{
1070
     3
1000
450041
1002
}
  0
VERTEX
  5
C3C
  8
0
 10
931.10765107909765
 20
-343.66837722311061
 30
0.0
  0
VERTEX
  5
C3D
  8
0
 10
931.10765107909765
 20
-433.27300711557501
 30
0.0
  0
VERTEX
  5
C3E
  8
0
 10
927.65374685412405
 20
-438.8388944037298
 30
0.0
  0
VERTEX
  5
C3F
  8
0
 10
927.65374685412405
 20
-441.47432469468458
 30
0.0
  0
VERTEX
  5
C40
  8
0
 10
931.10765107909765
 20
-437.88501012474592
 30
0.0
  0
SEQEND
  5
C41
  8
0
  0
POLYLINE
  5
80E
  8
0
 66
     1
 10
0.0
 20
0.0
 30
0.0
 70
   128
1001
REVIT
1002
{
1070
     3
1000
450041
1002
}
  0
VERTEX
  5
C42
  8
0
 10
165.3622813442023
 20
-9.0298740923650769
 30
0.0
  0
VERTEX
  5
C43
  8
0
 10
59.961490602378831
 20
-199.8202309642848
 30
0.0
  0
VERTEX
  5
C44
  8
0
 10
-15.30747690979841
 20
-166.2070376075456
 30
0.0
  0
VERTEX
  5
C45
  8
0
 10
-27.642849141846138
 20
-150.4966484410958
 30
0.0
  0
VERTEX
  5
C46
  8
0
 10
47.626118370331078
 20
-184.10984179783489
 30
0.0
  0
VERTEX
  5
C47
  8
0
 10
59.961490602378788
 20
-199.8202309642848
 30
0.0
  0
SEQEND
  5
C48
  8
0
  0
POLYLINE
  5
80F
  8
0
 66
     1
 10
0.0
 20
0.0
 30
0.0
 70
   128
1001
REVIT
1002
{
1070
     3
1000
450041
1002
}
  0
VERTEX
  5
C49
  8
0
 10
-27.642849141846138
 20
-150.4966484410958
 30
0.0
  0
VERTEX
  5
C4A
  8
0
 10
120.8791338894187
 20
118.3491727944383
 30
0.0
  0
VERTEX
  5
C4B
  8
0
 10
176.52023723318399
 20
93.501280932846086
 30
0.0
  0
SEQEND
  5
C4C
  8
0
  0
POLYLINE
  5
810
  8
0
 66
     1
 10
0.0
 20
0.0
 30
0.0
 70
   128
1001
REVIT
1002
{
1070
     3
1000
450041
1002
}
  0
VERTEX
  5
C4D
  8
0
 10
220.8188458656916
 20
299.2542037665055
 30
0.0
  0
VERTEX
  5
C4E
  8
0
 10
408.0465994514916
 20
638.1629507650066
 30
0.0
  0
VERTEX
  5
C4F
  8
0
 10
411.38812569855691
 20
636.67071071493478
 30
0.0
  0
SEQEND
  5
C50
  8
0
  0
POLYLINE
  5
811
  8
0
 66
     1
 10
0.0
 20
0.0
 30
0.0
 70
   128
1001
REVIT
1002
{
1070
     3
1000
450041
1002
}
  0
VERTEX
  5
C51
  8
0
 10
507.98631142776458
 20
819.06798173707386
 30
0.0
  0
VERTEX
  5
C52
  8
0
 10
599.05424584419393
 20
983.91383900828214
 30
0.0
  0
VERTEX
  5
C53
  8
0
 10
602.39577209125889
 20
982.42159895821032
 30
0.0
  0
SEQEND
  5
C54
  8
0
  0
LINE
  5
812
  8
0
 10
47.626118370331049
 20
-184.10984179783489
 30
0.0
 11
158.1362469558745
 21
15.929140095981451
 31
0.0
1001
REVIT
1002
{
1070
     3
1000
450041
1002
}
  0
POLYLINE
  5
813
  8
0
 66
     1
 10
0.0
 20
0.0
 30
0.0
 70
   128
1001
REVIT
1002
{
1070
     3
1000
450041
1002
}
  0
VERTEX
  5
C55
  8
0
 10
855.76008743701209
 20
-242.68660566483791
 30
0.0
  0
VERTEX
  5
C56
  8
0
 10
952.47314251527882
 20
-285.87617937515648
 30
0.0
  0
VERTEX
  5
C57
  8
0
 10
962.34144030091716
 20
-298.44449070831638
 30
0.0
  0
VERTEX
  5
C58
  8
0
 10
940.9759488647361
 20
-337.11905573921638
 30
0.0
  0
VERTEX
  5
C59
  8
0
 10
931.10765107909765
 20
-332.71212666161369
 30
0.0
  0
SEQEND
  5
C5A
  8
0
  0
POLYLINE
  5
814
  8
0
 66
     1
 10
0.0
 20
0.0
 30
0.0
 70
   128
1001
REVIT
1002
{
1070
     3
1000
450041
1002
}
  0
VERTEX
  5
C5B
  8
0
 10
833.87654021072149
 20
-281.12982024656759
 30
0.0
  0
VERTEX
  5
C5C
  8
0
 10
931.10765107909765
 20
-324.55074440605642
 30
0.0
  0
VERTEX
  5
C5D
  8
0
 10
952.47314251527882
 20
-285.87617937515648
 30
0.0
  0
SEQEND
  5
C5E
  8
0
  0
LINE
  5
815
  8
0
 10
940.9759488647361
 20
-337.11905573921638
 30
0.0
 11
931.10765107909765
 21
-324.55074440605642
 31
0.0
1001
REVIT
1002
{
1070
     3
1000
450041
1002
}
  0
LINE
  5
816
  8
0
 10
903.62241514786035
 20
-264.06069553245942
 30
0.0
 11
1028.708149924965
 21
-37.637802404766717
 31
0.0
1001
REVIT
1002
{
1070
     3
1000
450041
1002
}
  0
LINE
  5
817
  8
0
 10
1053.690127554634
 20
7.5831147608908287
 30
0.0
 11
1185.958166895259
 21
247.00699622265699
 31
0.0
1001
REVIT
1002
{
1070
     3
1000
450041
1002
}
  0
LINE
  5
818
  8
0
 10
1210.9401445249271
 20
292.22791338831428
 30
0.0
 11
1343.2081838655511
 21
531.65179485008059
 31
0.0
1001
REVIT
1002
{
1070
     3
1000
450041
1002
}
  0
LINE
  5
819
  8
0
 10
1352.283845451522
 20
625.64973345766225
 30
0.0
 11
1352.283845451522
 21
583.9760654220903
 31
0.0
1001
REVIT
1002
{
1070
     3
1000
450041
1002
}
  0
POLYLINE
  5
81A
  8
0
 66
     1
 10
0.0
 20
0.0
 30
0.0
 70
   128
1001
REVIT
1002
{
1070
     3
1000
450041
1002
}
  0
VERTEX
  5
C5F
  8
0
 10
1121.844700979012
 20
686.88428611560414
 30
0.0
  0
VERTEX
  5
C60
  8
0
 10
1446.938634903298
 20
541.7056604312254
 30
0.0
  0
VERTEX
  5
C61
  8
0
 10
1456.8069326889361
 20
529.13734909806533
 30
0.0
  0
VERTEX
  5
C62
  8
0
 10
1435.4414412527551
 20
490.4627840671655
 30
0.0
  0
VERTEX
  5
C63
  8
0
 10
1258.0251898420249
 20
569.69233856227595
 30
0.0
  0
SEQEND
  5
C64
  8
0
  0
POLYLINE
  5
81B
  8
0
 66
     1
 10
0.0
 20
0.0
 30
0.0
 70
   128
1001
REVIT
1002
{
1070
     3
1000
450041
1002
}
  0
VERTEX
  5
C65
  8
0
 10
1261.860721992073
 20
576.14087038229695
 30
0.0
  0
VERTEX
  5
C66
  8
0
 10
1425.573143467117
 20
503.0310954003254
 30
0.0
  0
VERTEX
  5
C67
  8
0
 10
1446.938634903298
 20
541.7056604312254
 30
0.0
  0
SEQEND
  5
C68
  8
0
  0
LINE
  5
81C
  8
0
 10
1435.4414412527551
 20
490.4627840671655
 30
0.0
 11
1425.573143467117
 21
503.0310954003254
 31
0.0
1001
REVIT
1002
{
1070
     3
1000
450041
1002
}
  0
LINE
  5
81D
  8
0
 10
329.53606088469178
 20
-123.9919601922782
 30
0.0
 11
348.38170117466149
 21
-96.929065095872815
 31
0.0
1001
REVIT
1002
{
1070
     3
1000
450041
1002
}
  0
POLYLINE
  5
81E
  8
0
 66
     1
 10
0.0
 20
0.0
 30
0.0
 70
   128
1001
REVIT
1002
{
1070
     3
1000
450041
1002
}
  0
VERTEX
  5
C69
  8
0
 10
321.07627374524219
 20
-101.7101022531575
 30
0.0
  0
VERTEX
  5
C6A
  8
0
 10
320.60330244670502
 20
-102.38930298282099
 30
0.0
  0
VERTEX
  5
C6B
  8
0
 10
327.02585455666758
 20
-124.5730569789111
 30
0.0
  0
VERTEX
  5
C6C
  8
0
 10
284.7104563020801
 20
-95.655448852609624
 30
0.0
  0
SEQEND
  5
C6D
  8
0
  0
POLYLINE
  5
81F
  8
0
 66
     1
 10
0.0
 20
0.0
 30
0.0
 70
   128
1001
REVIT
1002
{
1070
     3
1000
450041
1002
}
  0
VERTEX
  5
C6E
  8
0
 10
282.54753399187302
 20
-94.391889298011534
 30
0.0
  0
VERTEX
  5
C6F
  8
0
 10
176.1301763450964
 20
-42.528879517389008
 30
0.0
  0
VERTEX
  5
C70
  8
0
 10
154.6546268339776
 20
31.64853455863053
 30
0.0
  0
VERTEX
  5
C71
  8
0
 10
320.60330244670502
 20
-102.38930298282099
 30
0.0
  0
SEQEND
  5
C72
  8
0
  0
POLYLINE
  5
820
  8
0
 66
     1
 10
0.0
 20
0.0
 30
0.0
 70
   128
1001
REVIT
1002
{
1070
     3
1000
450041
1002
}
  0
VERTEX
  5
C73
  8
0
 10
326.87716979800001
 20
-121.7466311575557
 30
0.0
  0
VERTEX
  5
C74
  8
0
 10
329.38148060122302
 20
-123.458033659273
 30
0.0
  0
VERTEX
  5
C75
  8
0
 10
347.9801783754898
 20
-96.749755296206516
 30
0.0
  0
SEQEND
  5
C76
  8
0
  0
POLYLINE
  5
821
  8
0
 66
     1
 10
0.0
 20
0.0
 30
0.0
 70
   128
1001
REVIT
1002
{
1070
     3
1000
450041
1002
}
  0
VERTEX
  5
C77
  8
0
 10
327.49882585520481
 20
-123.89385624924761
 30
0.0
  0
VERTEX
  5
C78
  8
0
 10
321.07627374524219
 20
-101.7101022531575
 30
0.0
  0
VERTEX
  5
C79
  8
0
 10
155.12759813251481
 20
32.327735288294051
 30
0.0
  0
SEQEND
  5
C7A
  8
0
  0
POLYLINE
  5
822
  8
0
 66
     1
 10
0.0
 20
0.0
 30
0.0
 70
   128
1001
REVIT
1002
{
1070
     3
1000
450041
1002
}
  0
VERTEX
  5
C7B
  8
0
 10
153.12488985054441
 20
37.129004230716568
 30
0.0
  0
VERTEX
  5
C7C
  8
0
 10
155.490060901513
 20
40.525459594002008
 30
0.0
  0
VERTEX
  5
C7D
  8
0
 10
176.52023723318391
 20
56.871360743199581
 30
0.0
  0
SEQEND
  5
C7E
  8
0
  0
POLYLINE
  5
823
  8
0
 66
     1
 10
0.0
 20
0.0
 30
0.0
 70
   128
1001
REVIT
1002
{
1070
     3
1000
450041
1002
}
  0
VERTEX
  5
C7F
  8
0
 10
176.52023723318391
 20
55.50927756625785
 30
0.0
  0
VERTEX
  5
C80
  8
0
 10
156.33591147018041
 20
39.820821678782181
 30
0.0
  0
VERTEX
  5
C81
  8
0
 10
153.9802953949399
 20
36.438087542358623
 30
0.0
  0
VERTEX
  5
C82
  8
0
 10
155.18334406038429
 20
32.282708935442571
 30
0.0
  0
SEQEND
  5
C83
  8
0
  0
LINE
  5
824
  8
0
 10
155.49006090151289
 20
40.525459594002108
 30
0.0
 11
156.33591147018029
 21
39.820821678782181
 31
0.0
1001
REVIT
1002
{
1070
     3
1000
450041
1002
}
  0
LINE
  5
825
  8
0
 10
819.64497221179147
 20
-226.14883711328829
 30
0.0
 11
855.60655871056849
 21
-242.2083607171285
 31
0.0
1001
REVIT
1002
{
1070
     3
1000
450041
1002
}
  0
POLYLINE
  5
826
  8
0
 66
     1
 10
0.0
 20
0.0
 30
0.0
 70
   128
1001
REVIT
1002
{
1070
     3
1000
450041
1002
}
  0
VERTEX
  5
C84
  8
0
 10
789.37206077324549
 20
-277.0455119576564
 30
0.0
  0
VERTEX
  5
C85
  8
0
 10
826.37040689766093
 20
-293.56802586032609
 30
0.0
  0
VERTEX
  5
C86
  8
0
 10
855.60655871056861
 20
-242.2083607171285
 30
0.0
  0
VERTEX
  5
C87
  8
0
 10
973.88531140740531
 20
-58.544414350059981
 30
0.0
  0
VERTEX
  5
C88
  8
0
 10
993.99820452114079
 20
-22.137229661134239
 30
0.0
  0
SEQEND
  5
C89
  8
0
  0
POLYLINE
  5
827
  8
0
 66
     1
 10
0.0
 20
0.0
 30
0.0
 70
   128
1001
REVIT
1002
{
1070
     3
1000
450041
1002
}
  0
VERTEX
  5
C8A
  8
0
 10
787.63526048246604
 20
-279.96552709557432
 30
0.0
  0
VERTEX
  5
C8B
  8
0
 10
825.18118955622185
 20
-296.73257752057691
 30
0.0
  0
VERTEX
  5
C8C
  8
0
 10
822.92024840816657
 20
-308.84582801420771
 30
0.0
  0
VERTEX
  5
C8D
  8
0
 10
781.46799442826193
 20
-290.33431292169928
 30
0.0
  0
SEQEND
  5
C8E
  8
0
  0
LINE
  5
828
  8
0
 10
1308.8353580612049
 20
547.00181861375279
 30
0.0
 11
1176.5673187205809
 21
307.57793715198687
 31
0.0
1001
REVIT
1002
{
1070
     3
1000
450041
1002
}
  0
LINE
  5
829
  8
0
 10
1151.5853410909119
 20
262.35701998632942
 30
0.0
 11
1019.317301750288
 21
22.933138524563269
 31
0.0
1001
REVIT
1002
{
1070
     3
1000
450041
1002
}
  0
POLYLINE
  5
82A
  8
0
 66
     1
 10
0.0
 20
0.0
 30
0.0
 70
   128
1001
REVIT
1002
{
1070
     3
1000
450041
1002
}
  0
VERTEX
  5
C8F
  8
0
 10
994.33532412061913
 20
-22.287778641094238
 30
0.0
  0
VERTEX
  5
C90
  8
0
 10
974.09853286944735
 20
-58.9192365037865
 30
0.0
  0
VERTEX
  5
C91
  8
0
 10
855.81271588855839
 20
-242.5941523328905
 30
0.0
  0
VERTEX
  5
C92
  8
0
 10
826.60395729000913
 20
-293.90569533177728
 30
0.0
  0
SEQEND
  5
C93
  8
0
  0
POLYLINE
  5
82B
  8
0
 66
     1
 10
0.0
 20
0.0
 30
0.0
 70
   128
1001
REVIT
1002
{
1070
     3
1000
450041
1002
}
  0
VERTEX
  5
C94
  8
0
 10
825.65258341685774
 20
-296.43733665997797
 30
0.0
  0
VERTEX
  5
C95
  8
0
 10
823.39164226880234
 20
-308.55058715360877
 30
0.0
  0
VERTEX
  5
C96
  8
0
 10
822.92024840816657
 20
-308.84582801420771
 30
0.0
  0
SEQEND
  5
C97
  8
0
  0
LINE
  5
82C
  8
0
 10
343.38577540814418
 20
-94.698012587298251
 30
0.0
 11
357.66532737300747
 21
-101.0748948152217
 31
0.0
1001
REVIT
1002
{
1070
     3
1000
450041
1002
}
  0
LINE
  5
82D
  8
0
 10
368.83171103930903
 20
-106.0615158049437
 30
0.0
 11
383.27655724133871
 21
-112.5122142062288
 31
0.0
1001
REVIT
1002
{
1070
     3
1000
450041
1002
}
  0
LINE
  5
82E
  8
0
 10
462.31074407738458
 20
-147.80685809094629
 30
0.0
 11
476.59029604224719
 21
-154.18374031886941
 31
0.0
1001
REVIT
1002
{
1070
     3
1000
450041
1002
}
  0
LINE
  5
82F
  8
0
 10
487.75667970854909
 20
-159.17036130859171
 30
0.0
 11
502.20152591057717
 21
-165.62105970987611
 31
0.0
1001
REVIT
1002
{
1070
     3
1000
450041
1002
}
  0
LINE
  5
830
  8
0
 10
581.23571274662447
 20
-200.91570359459419
 30
0.0
 11
595.51526471148634
 21
-207.29258582251711
 31
0.0
1001
REVIT
1002
{
1070
     3
1000
450041
1002
}
  0
LINE
  5
831
  8
0
 10
606.68164837778863
 20
-212.27920681223941
 30
0.0
 11
621.12649457981593
 21
-218.72990521352349
 31
0.0
1001
REVIT
1002
{
1070
     3
1000
450041
1002
}
  0
LINE
  5
832
  8
0
 10
700.16068141586493
 20
-254.0245490982422
 30
0.0
 11
714.44023338072532
 21
-260.40143132616458
 31
0.0
1001
REVIT
1002
{
1070
     3
1000
450041
1002
}
  0
LINE
  5
833
  8
0
 10
725.60661704702864
 20
-265.38805231588748
 30
0.0
 11
740.05146324905513
 21
-271.83875071717102
 31
0.0
1001
REVIT
1002
{
1070
     3
1000
450041
1002
}
  0
LINE
  5
834
  8
0
 10
1018.980182150809
 20
23.08368750452345
 30
0.0
 11
1151.2482214914339
 21
262.50756896628968
 31
0.0
1001
REVIT
1002
{
1070
     3
1000
450041
1002
}
  0
LINE
  5
835
  8
0
 10
1176.2301991211029
 20
307.72848613194742
 30
0.0
 11
1308.4982384617269
 21
547.15236759371328
 31
0.0
1001
REVIT
1002
{
1070
     3
1000
450041
1002
}
  0
POLYLINE
  5
836
  8
0
 66
     1
 10
0.0
 20
0.0
 30
0.0
 70
   128
1001
REVIT
1002
{
1070
     3
1000
450041
1002
}
  0
VERTEX
  5
C98
  8
0
 10
1333.480216091396
 20
592.37328475937045
 30
0.0
  0
VERTEX
  5
C99
  8
0
 10
1368.8160791683749
 20
656.33620078101535
 30
0.0
  0
VERTEX
  5
C9A
  8
0
 10
1368.8160791683749
 20
655.57541758705884
 30
0.0
  0
VERTEX
  5
C9B
  8
0
 10
1333.817335690874
 20
592.22273577941075
 30
0.0
  0
SEQEND
  5
C9C
  8
0
  0
LINE
  5
837
  8
0
 10
930.78334997243701
 20
-39.296182154847408
 30
0.0
 11
973.88531140740531
 21
-58.544414350059952
 31
0.0
1001
REVIT
1002
{
1070
     3
1000
450041
1002
}
  0
LINE
  5
838
  8
0
 10
1031.1249520650831
 20
807.1404103424361
 30
0.0
 11
1368.8160791683749
 21
656.33620078101535
 31
0.0
1001
REVIT
1002
{
1070
     3
1000
450041
1002
}
  0
POLYLINE
  5
839
  8
0
 66
     1
 10
0.0
 20
0.0
 30
0.0
 70
   128
1001
REVIT
1002
{
1070
     3
1000
450041
1002
}
  0
VERTEX
  5
C9D
  8
0
 10
336.6346961084194
 20
309.46201212716443
 30
0.0
  0
VERTEX
  5
C9E
  8
0
 10
336.6346961084194
 20
499.65781061632271
 30
0.0
  0
VERTEX
  5
C9F
  8
0
 10
335.88200643329742
 20
499.99394254989028
 30
0.0
  0
VERTEX
  5
CA0
  8
0
 10
335.88200643329742
 20
309.79814406073189
 30
0.0
  0
VERTEX
  5
CA1
  8
0
 10
336.6346961084194
 20
309.46201212716443
 30
0.0
  0
VERTEX
  5
CA2
  8
0
 10
550.30847784988464
 20
696.24181506511673
 30
0.0
  0
SEQEND
  5
CA3
  8
0
  0
POLYLINE
  5
83A
  8
0
 66
     1
 10
0.0
 20
0.0
 30
0.0
 70
   128
1001
REVIT
1002
{
1070
     3
1000
450041
1002
}
  0
VERTEX
  5
CA4
  8
0
 10
1030.7035451377239
 20
872.72613177741755
 30
0.0
  0
VERTEX
  5
CA5
  8
0
 10
1031.1249520650831
 20
873.16711604003649
 30
0.0
  0
VERTEX
  5
CA6
  8
0
 10
638.82259305910895
 20
1048.359303251048
 30
0.0
  0
VERTEX
  5
CA7
  8
0
 10
335.88200643329748
 20
499.99394254989028
 30
0.0
  0
SEQEND
  5
CA8
  8
0
  0
POLYLINE
  5
83B
  8
0
 66
     1
 10
0.0
 20
0.0
 30
0.0
 70
   128
1001
REVIT
1002
{
1070
     3
1000
450041
1002
}
  0
VERTEX
  5
CA9
  8
0
 10
336.63469610841918
 20
499.65781061632288
 30
0.0
  0
VERTEX
  5
CAA
  8
0
 10
639.29648212095503
 20
1047.518502726964
 30
0.0
  0
VERTEX
  5
CAB
  8
0
 10
639.29648212095503
 20
1044.121289061643
 30
0.0
  0
SEQEND
  5
CAC
  8
0
  0
POLYLINE
  5
83C
  8
0
 66
     1
 10
0.0
 20
0.0
 30
0.0
 70
   128
1001
REVIT
1002
{
1070
     3
1000
450041
1002
}
  0
VERTEX
  5
CAD
  8
0
 10
565.36227135232002
 20
686.12196272844835
 30
0.0
  0
VERTEX
  5
CAE
  8
0
 10
565.36227135232002
 20
876.31776121760629
 30
0.0
  0
VERTEX
  5
CAF
  8
0
 10
550.30847784988441
 20
883.04039988895431
 30
0.0
  0
VERTEX
  5
CB0
  8
0
 10
550.30847784988441
 20
692.84460139979603
 30
0.0
  0
VERTEX
  5
CB1
  8
0
 10
565.36227135232002
 20
686.12196272844824
 30
0.0
  0
VERTEX
  5
CB2
  8
0
 10
655.77947169185609
 20
849.78989917111835
 30
0.0
  0
SEQEND
  5
CB3
  8
0
  0
POLYLINE
  5
83D
  8
0
 66
     1
 10
0.0
 20
0.0
 30
0.0
 70
   128
1001
REVIT
1002
{
1070
     3
1000
450041
1002
}
  0
VERTEX
  5
CB4
  8
0
 10
565.36227135231991
 20
876.31776121760629
 30
0.0
  0
VERTEX
  5
CB5
  8
0
 10
647.3514817049022
 20
1024.7298423103621
 30
0.0
  0
VERTEX
  5
CB6
  8
0
 10
647.3514817049022
 20
853.55362367012015
 30
0.0
  0
VERTEX
  5
CB7
  8
0
 10
911.10402965821231
 20
735.76849009228806
 30
0.0
  0
SEQEND
  5
CB8
  8
0
  0
POLYLINE
  5
83E
  8
0
 66
     1
 10
0.0
 20
0.0
 30
0.0
 70
   128
1001
REVIT
1002
{
1070
     3
1000
450041
1002
}
  0
VERTEX
  5
CB9
  8
0
 10
507.98631142776458
 20
811.52710599188595
 30
0.0
  0
VERTEX
  5
CBA
  8
0
 10
507.98631142776458
 20
846.49350511789146
 30
0.0
  0
VERTEX
  5
CBB
  8
0
 10
432.71734391558732
 20
880.10669847463078
 30
0.0
  0
VERTEX
  5
CBC
  8
0
 10
408.04659945149177
 20
854.46873726078297
 30
0.0
  0
VERTEX
  5
CBD
  8
0
 10
408.04659945149177
 20
638.16295076500626
 30
0.0
  0
SEQEND
  5
CBE
  8
0
  0
POLYLINE
  5
83F
  8
0
 66
     1
 10
0.0
 20
0.0
 30
0.0
 70
   128
1001
REVIT
1002
{
1070
     3
1000
450041
1002
}
  0
VERTEX
  5
CBF
  8
0
 10
483.31556696366903
 20
766.86956492912225
 30
0.0
  0
VERTEX
  5
CC0
  8
0
 10
483.31556696366903
 20
820.85554390404377
 30
0.0
  0
VERTEX
  5
CC1
  8
0
 10
507.98631142776458
 20
846.49350511789146
 30
0.0
  0
SEQEND
  5
CC2
  8
0
  0
LINE
  5
840
  8
0
 10
408.04659945149177
 20
854.46873726078297
 30
0.0
 11
483.31556696366903
 21
820.85554390404377
 31
0.0
1001
REVIT
1002
{
1070
     3
1000
450041
1002
}
  0
POLYLINE
  5
841
  8
0
 66
     1
 10
0.0
 20
0.0
 30
0.0
 70
   128
1001
REVIT
1002
{
1070
     3
1000
450041
1002
}
  0
VERTEX
  5
CC3
  8
0
 10
220.81884586569171
 20
174.74949811526929
 30
0.0
  0
VERTEX
  5
CC4
  8
0
 10
220.81884586569171
 20
548.06763658870375
 30
0.0
  0
VERTEX
  5
CC5
  8
0
 10
145.5498783535144
 20
581.68082994544284
 30
0.0
  0
VERTEX
  5
CC6
  8
0
 10
120.8791338894188
 20
556.04286873159504
 30
0.0
  0
VERTEX
  5
CC7
  8
0
 10
120.8791338894188
 20
118.3491727944383
 30
0.0
  0
SEQEND
  5
CC8
  8
0
  0
POLYLINE
  5
842
  8
0
 66
     1
 10
0.0
 20
0.0
 30
0.0
 70
   128
1001
REVIT
1002
{
1070
     3
1000
450041
1002
}
  0
VERTEX
  5
CC9
  8
0
 10
196.14810140159611
 20
130.09195705250571
 30
0.0
  0
VERTEX
  5
CCA
  8
0
 10
196.14810140159611
 20
522.42967537485595
 30
0.0
  0
VERTEX
  5
CCB
  8
0
 10
220.81884586569149
 20
548.06763658870375
 30
0.0
  0
SEQEND
  5
CCC
  8
0
  0
LINE
  5
843
  8
0
 10
120.8791338894188
 20
556.04286873159504
 30
0.0
 11
196.14810140159591
 21
522.42967537485595
 31
0.0
1001
REVIT
1002
{
1070
     3
1000
450041
1002
}
  0
POLYLINE
  5
844
  8
0
 66
     1
 10
0.0
 20
0.0
 30
0.0
 70
   128
1001
REVIT
1002
{
1070
     3
1000
450041
1002
}
  0
VERTEX
  5
CCD
  8
0
 10
208.95174134908351
 20
-137.6548453195542
 30
0.0
  0
VERTEX
  5
CCE
  8
0
 10
196.14810140159619
 20
-150.96045208174499
 30
0.0
  0
VERTEX
  5
CCF
  8
0
 10
196.14810140159619
 20
-131.93706760252451
 30
0.0
  0
SEQEND
  5
CD0
  8
0
  0
POLYLINE
  5
845
  8
0
 66
     1
 10
0.0
 20
0.0
 30
0.0
 70
   128
1001
REVIT
1002
{
1070
     3
1000
450041
1002
}
  0
VERTEX
  5
CD1
  8
0
 10
196.14810140159619
 20
-150.96045208174499
 30
0.0
  0
VERTEX
  5
CD2
  8
0
 10
120.87913388941899
 20
-117.3472587250059
 30
0.0
  0
VERTEX
  5
CD3
  8
0
 10
120.87913388941899
 20
-89.550670169435506
 30
0.0
  0
SEQEND
  5
CD4
  8
0
  0
POLYLINE
  5
846
  8
0
 66
     1
 10
0.0
 20
0.0
 30
0.0
 70
   128
1001
REVIT
1002
{
1070
     3
1000
450041
1002
}
  0
VERTEX
  5
CD5
  8
0
 10
493.1967141797291
 20
541.90419368136861
 30
0.0
  0
VERTEX
  5
CD6
  8
0
 10
496.79802540248721
 20
533.55018731457085
 30
0.0
  0
VERTEX
  5
CD7
  8
0
 10
490.05205911929778
 20
526.5397453649955
 30
0.0
  0
VERTEX
  5
CD8
  8
0
 10
490.05205911929778
 20
553.8736234405925
 30
0.0
  0
SEQEND
  5
CD9
  8
0
  0
POLYLINE
  5
847
  8
0
 66
     1
 10
0.0
 20
0.0
 30
0.0
 70
   129
1001
REVIT
1002
{
1070
     3
1000
450041
1002
}
  0
VERTEX
  5
CDA
  8
0
 10
1045.7884996562091
 20
311.92244041791372
 30
0.0
  0
VERTEX
  5
CDB
  8
0
 10
1049.3898108789681
 20
303.56843405111579
 30
0.0
  0
VERTEX
  5
CDC
  8
0
 10
1057.4184212341811
 20
294.05299209995252
 30
0.0
  0
VERTEX
  5
CDD
  8
0
 10
1053.817110011423
 20
302.4069984667496
 30
0.0
  0
SEQEND
  5
CDE
  8
0
  0
POLYLINE
  5
848
  8
0
 66
     1
 10
0.0
 20
0.0
 30
0.0
 70
   129
1001
REVIT
1002
{
1070
     3
1000
450041
1002
}
  0
VERTEX
  5
CDF
  8
0
 10
1208.718760391318
 20
588.2310233599361
 30
0.0
  0
VERTEX
  5
CE0
  8
0
 10
1046.644933837402
 20
315.74256886679962
 30
0.0
  0
VERTEX
  5
CE1
  8
0
 10
1054.673544192616
 20
306.22712691563652
 30
0.0
  0
VERTEX
  5
CE2
  8
0
 10
1216.7473707465319
 20
578.71558140877369
 30
0.0
  0
SEQEND
  5
CE3
  8
0
  0
POLYLINE
  5
849
  8
0
 66
     1
 10
0.0
 20
0.0
 30
0.0
 70
   129
1001
REVIT
1002
{
1070
     3
1000
450041
1002
}
  0
VERTEX
  5
CE4
  8
0
 10
1205.744950754422
 20
598.44758333657785
 30
0.0
  0
VERTEX
  5
CE5
  8
0
 10
1209.208151352
 20
590.41395390215655
 30
0.0
  0
VERTEX
  5
CE6
  8
0
 10
1217.236761707213
 20
580.89851195099357
 30
0.0
  0
VERTEX
  5
CE7
  8
0
 10
1213.7735611096359
 20
588.93214138541578
 30
0.0
  0
SEQEND
  5
CE8
  8
0
  0
POLYLINE
  5
84A
  8
0
 66
     1
 10
0.0
 20
0.0
 30
0.0
 70
   129
1001
REVIT
1002
{
1070
     3
1000
450041
1002
}
  0
VERTEX
  5
CE9
  8
0
 10
1035.208136650522
 20
311.2998030766413
 30
0.0
  0
VERTEX
  5
CEA
  8
0
 10
1038.8094478732801
 20
302.94579670984291
 30
0.0
  0
VERTEX
  5
CEB
  8
0
 10
1041.785100677934
 20
305.13818652689628
 30
0.0
  0
VERTEX
  5
CEC
  8
0
 10
1038.183789455175
 20
313.49219289369393
 30
0.0
  0
SEQEND
  5
CED
  8
0
  0
POLYLINE
  5
84B
  8
0
 66
     1
 10
0.0
 20
0.0
 30
0.0
 70
   129
1001
REVIT
1002
{
1070
     3
1000
450041
1002
}
  0
VERTEX
  5
CEE
  8
0
 10
1198.1383973856309
 20
587.60838601866431
 30
0.0
  0
VERTEX
  5
CEF
  8
0
 10
1036.0645708317149
 20
315.11993152552748
 30
0.0
  0
VERTEX
  5
CF0
  8
0
 10
1039.0402236363691
 20
317.31232134258107
 30
0.0
  0
VERTEX
  5
CF1
  8
0
 10
1201.1140501902839
 20
589.80077583571767
 30
0.0
  0
SEQEND
  5
CF2
  8
0
  0
POLYLINE
  5
84C
  8
0
 66
     1
 10
0.0
 20
0.0
 30
0.0
 70
   129
1001
REVIT
1002
{
1070
     3
1000
450041
1002
}
  0
VERTEX
  5
CF3
  8
0
 10
1195.1645877487349
 20
597.82494599530673
 30
0.0
  0
VERTEX
  5
CF4
  8
0
 10
1198.6277883463131
 20
589.79131656088543
 30
0.0
  0
VERTEX
  5
CF5
  8
0
 10
1201.6034411509661
 20
591.98370637793835
 30
0.0
  0
VERTEX
  5
CF6
  8
0
 10
1198.140240553389
 20
600.01733581235965
 30
0.0
  0
SEQEND
  5
CF7
  8
0
  0
POLYLINE
  5
84D
  8
0
 66
     1
 10
0.0
 20
0.0
 30
0.0
 70
   129
1001
REVIT
1002
{
1070
     3
1000
450041
1002
}
  0
VERTEX
  5
CF8
  8
0
 10
1187.5660331008571
 20
595.85069136088578
 30
0.0
  0
VERTEX
  5
CF9
  8
0
 10
1025.492206546942
 20
323.3622368677498
 30
0.0
  0
VERTEX
  5
CFA
  8
0
 10
1027.0321602724071
 20
319.153882144737
 30
0.0
  0
VERTEX
  5
CFB
  8
0
 10
1189.105986826321
 20
591.64233663787297
 30
0.0
  0
SEQEND
  5
CFC
  8
0
  0
POLYLINE
  5
84E
  8
0
 66
     1
 10
0.0
 20
0.0
 30
0.0
 70
   129
1001
REVIT
1002
{
1070
     3
1000
450041
1002
}
  0
VERTEX
  5
CFD
  8
0
 10
1007.3278333229121
 20
323.16710521429081
 30
0.0
  0
VERTEX
  5
CFE
  8
0
 10
1010.9291445456701
 20
314.81309884749282
 30
0.0
  0
VERTEX
  5
CFF
  8
0
 10
1021.376706331677
 20
316.07845560220159
 30
0.0
  0
VERTEX
  5
D00
  8
0
 10
1017.775395108918
 20
324.43246196899958
 30
0.0
  0
SEQEND
  5
D01
  8
0
  0
POLYLINE
  5
84F
  8
0
 66
     1
 10
0.0
 20
0.0
 30
0.0
 70
   129
1001
REVIT
1002
{
1070
     3
1000
450041
1002
}
  0
VERTEX
  5
D02
  8
0
 10
1170.2580940580201
 20
599.47568815631462
 30
0.0
  0
VERTEX
  5
D03
  8
0
 10
1008.184267504105
 20
326.98723366317739
 30
0.0
  0
VERTEX
  5
D04
  8
0
 10
1018.631829290112
 20
328.25259041788598
 30
0.0
  0
VERTEX
  5
D05
  8
0
 10
1180.705655844027
 20
600.74104491102298
 30
0.0
  0
SEQEND
  5
D06
  8
0
  0
POLYLINE
  5
850
  8
0
 66
     1
 10
0.0
 20
0.0
 30
0.0
 70
   129
1001
REVIT
1002
{
1070
     3
1000
450041
1002
}
  0
VERTEX
  5
D07
  8
0
 10
1167.284284421125
 20
609.69224813295637
 30
0.0
  0
VERTEX
  5
D08
  8
0
 10
1170.747485018702
 20
601.65861869853461
 30
0.0
  0
VERTEX
  5
D09
  8
0
 10
1181.19504680471
 20
602.92397545324343
 30
0.0
  0
VERTEX
  5
D0A
  8
0
 10
1177.7318462071321
 20
610.95760488766496
 30
0.0
  0
SEQEND
  5
D0B
  8
0
  0
POLYLINE
  5
851
  8
0
 66
     1
 10
0.0
 20
0.0
 30
0.0
 70
   129
1001
REVIT
1002
{
1070
     3
1000
450041
1002
}
  0
VERTEX
  5
D0C
  8
0
 10
926.86353098696895
 20
365.0312859215615
 30
0.0
  0
VERTEX
  5
D0D
  8
0
 10
930.46484220972775
 20
356.67727955476391
 30
0.0
  0
VERTEX
  5
D0E
  8
0
 10
938.49345256494155
 20
347.1618376036007
 30
0.0
  0
VERTEX
  5
D0F
  8
0
 10
934.89214134218287
 20
355.51584397039773
 30
0.0
  0
SEQEND
  5
D10
  8
0
  0
POLYLINE
  5
852
  8
0
 66
     1
 10
0.0
 20
0.0
 30
0.0
 70
   128
1001
REVIT
1002
{
1070
     3
1000
450041
1002
}
  0
VERTEX
  5
D11
  8
0
 10
1075.304487691554
 20
616.97956253956966
 30
0.0
  0
VERTEX
  5
D12
  8
0
 10
927.71996516816228
 20
368.85141437044791
 30
0.0
  0
VERTEX
  5
D13
  8
0
 10
935.74857552337585
 20
359.3359724192847
 30
0.0
  0
VERTEX
  5
D14
  8
0
 10
1087.200663614811
 20
613.96650895483651
 30
0.0
  0
SEQEND
  5
D15
  8
0
  0
POLYLINE
  5
853
  8
0
 66
     1
 10
0.0
 20
0.0
 30
0.0
 70
   129
1001
REVIT
1002
{
1070
     3
1000
450041
1002
}
  0
VERTEX
  5
D16
  8
0
 10
916.2831679812823
 20
364.40864858028948
 30
0.0
  0
VERTEX
  5
D17
  8
0
 10
919.88447920403985
 20
356.05464221349109
 30
0.0
  0
VERTEX
  5
D18
  8
0
 10
922.86013200869354
 20
358.24703203054452
 30
0.0
  0
VERTEX
  5
D19
  8
0
 10
919.25882078593554
 20
366.60103839734228
 30
0.0
  0
SEQEND
  5
D1A
  8
0
  0
POLYLINE
  5
854
  8
0
 66
     1
 10
0.0
 20
0.0
 30
0.0
 70
   128
1001
REVIT
1002
{
1070
     3
1000
450041
1002
}
  0
VERTEX
  5
D1B
  8
0
 10
1067.1264095142069
 20
620.39579374385414
 30
0.0
  0
VERTEX
  5
D1C
  8
0
 10
917.13960216247528
 20
368.22877702917577
 30
0.0
  0
VERTEX
  5
D1D
  8
0
 10
920.11525496712898
 20
370.4211668462292
 30
0.0
  0
VERTEX
  5
D1E
  8
0
 10
1068.42678847672
 20
619.77161046083415
 30
0.0
  0
SEQEND
  5
D1F
  8
0
  0
POLYLINE
  5
855
  8
0
 66
     1
 10
0.0
 20
0.0
 30
0.0
 70
   128
1001
REVIT
1002
{
1070
     3
1000
450041
1002
}
  0
VERTEX
  5
D20
  8
0
 10
1055.7905080168539
 20
627.35439350925742
 30
0.0
  0
VERTEX
  5
D21
  8
0
 10
906.56723787770227
 20
376.4710823713981
 30
0.0
  0
VERTEX
  5
D22
  8
0
 10
908.10719160316671
 20
372.26272764838501
 30
0.0
  0
VERTEX
  5
D23
  8
0
 10
1058.6299657089089
 20
625.33084453183017
 30
0.0
  0
SEQEND
  5
D24
  8
0
  0
POLYLINE
  5
856
  8
0
 66
     1
 10
0.0
 20
0.0
 30
0.0
 70
   129
1001
REVIT
1002
{
1070
     3
1000
450041
1002
}
  0
VERTEX
  5
D25
  8
0
 10
888.40286465367183
 20
376.27595071793911
 30
0.0
  0
VERTEX
  5
D26
  8
0
 10
892.00417587642983
 20
367.92194435114101
 30
0.0
  0
VERTEX
  5
D27
  8
0
 10
902.45173766243749
 20
369.18730110584983
 30
0.0
  0
VERTEX
  5
D28
  8
0
 10
898.85042643967915
 20
377.54130747264782
 30
0.0
  0
SEQEND
  5
D29
  8
0
  0
POLYLINE
  5
857
  8
0
 66
     1
 10
0.0
 20
0.0
 30
0.0
 70
   128
1001
REVIT
1002
{
1070
     3
1000
450041
1002
}
  0
VERTEX
  5
D2A
  8
0
 10
1044.181048252841
 20
640.56002306114885
 30
0.0
  0
VERTEX
  5
D2B
  8
0
 10
889.25929883486515
 20
380.0960791668254
 30
0.0
  0
VERTEX
  5
D2C
  8
0
 10
899.70686062087259
 20
381.361435921534
 30
0.0
  0
VERTEX
  5
D2D
  8
0
 10
1049.295057810037
 20
632.85828479077736
 30
0.0
  0
SEQEND
  5
D2E
  8
0
  0
POLYLINE
  5
858
  8
0
 66
     1
 10
0.0
 20
0.0
 30
0.0
 70
   129
1001
REVIT
1002
{
1070
     3
1000
450041
1002
}
  0
VERTEX
  5
D2F
  8
0
 10
807.93856231772941
 20
418.1401314252098
 30
0.0
  0
VERTEX
  5
D30
  8
0
 10
811.53987354048797
 20
409.78612505841193
 30
0.0
  0
VERTEX
  5
D31
  8
0
 10
819.56848389570212
 20
400.2706831072486
 30
0.0
  0
VERTEX
  5
D32
  8
0
 10
815.96717267294355
 20
408.62468947404591
 30
0.0
  0
SEQEND
  5
D33
  8
0
  0
POLYLINE
  5
859
  8
0
 66
     1
 10
0.0
 20
0.0
 30
0.0
 70
   128
1001
REVIT
1002
{
1070
     3
1000
450041
1002
}
  0
VERTEX
  5
D34
  8
0
 10
957.09435863085878
 20
671.29024022231886
 30
0.0
  0
VERTEX
  5
D35
  8
0
 10
808.79499649892307
 20
421.96025987409593
 30
0.0
  0
VERTEX
  5
D36
  8
0
 10
816.82360685413676
 20
412.44481792293288
 30
0.0
  0
VERTEX
  5
D37
  8
0
 10
967.64906489340251
 20
666.02182559398466
 30
0.0
  0
SEQEND
  5
D38
  8
0
  0
POLYLINE
  5
85A
  8
0
 66
     1
 10
0.0
 20
0.0
 30
0.0
 70
   129
1001
REVIT
1002
{
1070
     3
1000
450041
1002
}
  0
VERTEX
  5
D39
  8
0
 10
797.35819931204264
 20
417.51749408393709
 30
0.0
  0
VERTEX
  5
D3A
  8
0
 10
800.95951053480053
 20
409.16348771713899
 30
0.0
  0
VERTEX
  5
D3B
  8
0
 10
803.93516333945422
 20
411.35587753419242
 30
0.0
  0
VERTEX
  5
D3C
  8
0
 10
800.33385211669565
 20
419.70988390099001
 30
0.0
  0
SEQEND
  5
D3D
  8
0
  0
POLYLINE
  5
85B
  8
0
 66
     1
 10
0.0
 20
0.0
 30
0.0
 70
   128
1001
REVIT
1002
{
1070
     3
1000
450041
1002
}
  0
VERTEX
  5
D3E
  8
0
 10
949.49054528704562
 20
675.67196067484781
 30
0.0
  0
VERTEX
  5
D3F
  8
0
 10
798.21463349323574
 20
421.33762253282379
 30
0.0
  0
VERTEX
  5
D40
  8
0
 10
801.1902862978892
 20
423.53001234987721
 30
0.0
  0
VERTEX
  5
D41
  8
0
 10
950.71981084848369
 20
674.928217181739
 30
0.0
  0
SEQEND
  5
D42
  8
0
  0
POLYLINE
  5
85C
  8
0
 66
     1
 10
0.0
 20
0.0
 30
0.0
 70
   128
1001
REVIT
1002
{
1070
     3
1000
450041
1002
}
  0
VERTEX
  5
D43
  8
0
 10
938.40280836997351
 20
683.04778994842263
 30
0.0
  0
VERTEX
  5
D44
  8
0
 10
787.64226920846227
 20
429.57992787504611
 30
0.0
  0
VERTEX
  5
D45
  8
0
 10
789.18222293392694
 20
425.37157315203308
 30
0.0
  0
VERTEX
  5
D46
  8
0
 10
941.24866631332111
 20
681.03500146588863
 30
0.0
  0
SEQEND
  5
D47
  8
0
  0
POLYLINE
  5
85D
  8
0
 66
     1
 10
0.0
 20
0.0
 30
0.0
 70
   129
1001
REVIT
1002
{
1070
     3
1000
450041
1002
}
  0
VERTEX
  5
D48
  8
0
 10
769.47789598443251
 20
429.38479622158678
 30
0.0
  0
VERTEX
  5
D49
  8
0
 10
773.07920720719039
 20
421.03078985478879
 30
0.0
  0
VERTEX
  5
D4A
  8
0
 10
783.52676899319783
 20
422.29614660949761
 30
0.0
  0
VERTEX
  5
D4B
  8
0
 10
779.92545777043904
 20
430.65015297629577
 30
0.0
  0
SEQEND
  5
D4C
  8
0
  0
POLYLINE
  5
85E
  8
0
 66
     1
 10
0.0
 20
0.0
 30
0.0
 70
   128
1001
REVIT
1002
{
1070
     3
1000
450041
1002
}
  0
VERTEX
  5
D4D
  8
0
 10
925.21507788069414
 20
693.59993398791585
 30
0.0
  0
VERTEX
  5
D4E
  8
0
 10
770.33433016562572
 20
433.2049246704733
 30
0.0
  0
VERTEX
  5
D4F
  8
0
 10
780.78189195163293
 20
434.47028142518201
 30
0.0
  0
VERTEX
  5
D50
  8
0
 10
931.67676237323576
 20
688.16398944932575
 30
0.0
  0
SEQEND
  5
D51
  8
0
  0
POLYLINE
  5
85F
  8
0
 66
     1
 10
0.0
 20
0.0
 30
0.0
 70
   129
1001
REVIT
1002
{
1070
     3
1000
450041
1002
}
  0
VERTEX
  5
D52
  8
0
 10
689.0135936484902
 20
471.2489769288577
 30
0.0
  0
VERTEX
  5
D53
  8
0
 10
692.61490487124865
 20
462.89497056206051
 30
0.0
  0
VERTEX
  5
D54
  8
0
 10
700.64351522646268
 20
453.37952861089639
 30
0.0
  0
VERTEX
  5
D55
  8
0
 10
697.04220400370411
 20
461.73353497769438
 30
0.0
  0
SEQEND
  5
D56
  8
0
  0
POLYLINE
  5
860
  8
0
 66
     1
 10
0.0
 20
0.0
 30
0.0
 70
   128
1001
REVIT
1002
{
1070
     3
1000
450041
1002
}
  0
VERTEX
  5
D57
  8
0
 10
841.21315093817009
 20
729.51644330295335
 30
0.0
  0
VERTEX
  5
D58
  8
0
 10
689.87002782968375
 20
475.06910537774371
 30
0.0
  0
VERTEX
  5
D59
  8
0
 10
697.8986381848971
 20
465.55366342658073
 30
0.0
  0
VERTEX
  5
D5A
  8
0
 10
851.01904981396137
 20
722.98908778411305
 30
0.0
  0
SEQEND
  5
D5B
  8
0
  0
POLYLINE
  5
861
  8
0
 66
     1
 10
0.0
 20
0.0
 30
0.0
 70
   129
1001
REVIT
1002
{
1070
     3
1000
450041
1002
}
  0
VERTEX
  5
D5C
  8
0
 10
678.43323064280276
 20
470.62633958758522
 30
0.0
  0
VERTEX
  5
D5D
  8
0
 10
682.03454186556098
 20
462.27233322078712
 30
0.0
  0
VERTEX
  5
D5E
  8
0
 10
685.01019467021445
 20
464.4647230378406
 30
0.0
  0
VERTEX
  5
D5F
  8
0
 10
681.40888344745611
 20
472.81872940463819
 30
0.0
  0
SEQEND
  5
D60
  8
0
  0
POLYLINE
  5
862
  8
0
 66
     1
 10
0.0
 20
0.0
 30
0.0
 70
   128
1001
REVIT
1002
{
1070
     3
1000
450041
1002
}
  0
VERTEX
  5
D61
  8
0
 10
834.24206455585124
 20
734.96194311776026
 30
0.0
  0
VERTEX
  5
D62
  8
0
 10
679.28966482399619
 20
474.44646803647191
 30
0.0
  0
VERTEX
  5
D63
  8
0
 10
682.26531762864988
 20
476.63885785352528
 30
0.0
  0
VERTEX
  5
D64
  8
0
 10
835.3630462717839
 20
734.03614618434187
 30
0.0
  0
SEQEND
  5
D65
  8
0
  0
POLYLINE
  5
863
  8
0
 66
     1
 10
0.0
 20
0.0
 30
0.0
 70
   128
1001
REVIT
1002
{
1070
     3
1000
450041
1002
}
  0
VERTEX
  5
D66
  8
0
 10
824.25389405926376
 20
744.18643087556541
 30
0.0
  0
VERTEX
  5
D67
  8
0
 10
668.71730053922295
 20
482.68877337869418
 30
0.0
  0
VERTEX
  5
D68
  8
0
 10
670.25725426468739
 20
478.48041865568121
 30
0.0
  0
VERTEX
  5
D69
  8
0
 10
826.79452521710857
 20
741.66047640676379
 30
0.0
  0
SEQEND
  5
D6A
  8
0
  0
POLYLINE
  5
864
  8
0
 66
     1
 10
0.0
 20
0.0
 30
0.0
 70
   129
1001
REVIT
1002
{
1070
     3
1000
450041
1002
}
  0
VERTEX
  5
D6B
  8
0
 10
650.55292731519285
 20
482.49364172523508
 30
0.0
  0
VERTEX
  5
D6C
  8
0
 10
654.15423853795119
 20
474.13963535843698
 30
0.0
  0
VERTEX
  5
D6D
  8
0
 10
664.60180032395817
 20
475.40499211314579
 30
0.0
  0
VERTEX
  5
D6E
  8
0
 10
661.00048910119972
 20
483.75899847994401
 30
0.0
  0
SEQEND
  5
D6F
  8
0
  0
POLYLINE
  5
865
  8
0
 66
     1
 10
0.0
 20
0.0
 30
0.0
 70
   128
1001
REVIT
1002
{
1070
     3
1000
450041
1002
}
  0
VERTEX
  5
D70
  8
0
 10
808.96855894708165
 20
751.21195341184898
 30
0.0
  0
VERTEX
  5
D71
  8
0
 10
651.40936149638651
 20
486.31377017412183
 30
0.0
  0
VERTEX
  5
D72
  8
0
 10
661.85692328239384
 20
487.57912692883048
 30
0.0
  0
VERTEX
  5
D73
  8
0
 10
816.76609980209503
 20
748.02193249568711
 30
0.0
  0
SEQEND
  5
D74
  8
0
  0
POLYLINE
  5
866
  8
0
 66
     1
 10
0.0
 20
0.0
 30
0.0
 70
   129
1001
REVIT
1002
{
1070
     3
1000
450041
1002
}
  0
VERTEX
  5
D75
  8
0
 10
570.08862497925088
 20
524.35782243250594
 30
0.0
  0
VERTEX
  5
D76
  8
0
 10
573.68993620200922
 20
516.00381606570841
 30
0.0
  0
VERTEX
  5
D77
  8
0
 10
581.71854655722348
 20
506.4883741145448
 30
0.0
  0
VERTEX
  5
D78
  8
0
 10
578.11723533446434
 20
514.84238048134227
 30
0.0
  0
SEQEND
  5
D79
  8
0
  0
POLYLINE
  5
867
  8
0
 66
     1
 10
0.0
 20
0.0
 30
0.0
 70
   128
1001
REVIT
1002
{
1070
     3
1000
450041
1002
}
  0
VERTEX
  5
D7A
  8
0
 10
723.74941600576653
 20
785.0820045581188
 30
0.0
  0
VERTEX
  5
D7B
  8
0
 10
570.94505916044409
 20
528.17795088139201
 30
0.0
  0
VERTEX
  5
D7C
  8
0
 10
578.97366951565778
 20
518.66250893022891
 30
0.0
  0
VERTEX
  5
D7D
  8
0
 10
732.1234839046183
 20
776.14736701048128
 30
0.0
  0
SEQEND
  5
D7E
  8
0
  0
POLYLINE
  5
868
  8
0
 66
     1
 10
0.0
 20
0.0
 30
0.0
 70
   129
1001
REVIT
1002
{
1070
     3
1000
450041
1002
}
  0
VERTEX
  5
D7F
  8
0
 10
559.50826197356332
 20
523.73518509123346
 30
0.0
  0
VERTEX
  5
D80
  8
0
 10
563.10957319632143
 20
515.38117872443513
 30
0.0
  0
VERTEX
  5
D81
  8
0
 10
566.08522600097513
 20
517.57356854148861
 30
0.0
  0
VERTEX
  5
D82
  8
0
 10
562.4839147782169
 20
525.9275749082866
 30
0.0
  0
SEQEND
  5
D83
  8
0
  0
POLYLINE
  5
869
  8
0
 66
     1
 10
0.0
 20
0.0
 30
0.0
 70
   128
1001
REVIT
1002
{
1070
     3
1000
450041
1002
}
  0
VERTEX
  5
D84
  8
0
 10
716.90581942878259
 20
790.74184805048264
 30
0.0
  0
VERTEX
  5
D85
  8
0
 10
560.36469615475687
 20
527.55531354011987
 30
0.0
  0
VERTEX
  5
D86
  8
0
 10
563.34034895941033
 20
529.74770335717335
 30
0.0
  0
VERTEX
  5
D87
  8
0
 10
718.07406234313794
 20
789.89550954159552
 30
0.0
  0
SEQEND
  5
D88
  8
0
  0
POLYLINE
  5
86A
  8
0
 66
     1
 10
0.0
 20
0.0
 30
0.0
 70
   128
1001
REVIT
1002
{
1070
     3
1000
450041
1002
}
  0
VERTEX
  5
D89
  8
0
 10
705.22485828286733
 20
797.12031237795713
 30
0.0
  0
VERTEX
  5
D8A
  8
0
 10
549.79233186998329
 20
535.79761888234225
 30
0.0
  0
VERTEX
  5
D8B
  8
0
 10
551.33228559544784
 20
531.58926415932922
 30
0.0
  0
VERTEX
  5
D8C
  8
0
 10
708.42804079006271
 20
795.70827986093263
 30
0.0
  0
SEQEND
  5
D8D
  8
0
  0
POLYLINE
  5
86B
  8
0
 66
     1
 10
0.0
 20
0.0
 30
0.0
 70
   129
1001
REVIT
1002
{
1070
     3
1000
450041
1002
}
  0
VERTEX
  5
D8E
  8
0
 10
531.62795864595341
 20
535.60248722888343
 30
0.0
  0
VERTEX
  5
D8F
  8
0
 10
535.22926986871187
 20
527.24848086208522
 30
0.0
  0
VERTEX
  5
D90
  8
0
 10
545.67683165471851
 20
528.51383761679381
 30
0.0
  0
VERTEX
  5
D91
  8
0
 10
542.07552043196006
 20
536.86784398359225
 30
0.0
  0
SEQEND
  5
D92
  8
0
  0
POLYLINE
  5
86C
  8
0
 66
     1
 10
0.0
 20
0.0
 30
0.0
 70
   128
1001
REVIT
1002
{
1070
     3
1000
450041
1002
}
  0
VERTEX
  5
D93
  8
0
 10
688.05386834545914
 20
800.97555640624
 30
0.0
  0
VERTEX
  5
D94
  8
0
 10
532.48439282714673
 20
539.42261567776995
 30
0.0
  0
VERTEX
  5
D95
  8
0
 10
542.93195461315383
 20
540.68797243247855
 30
0.0
  0
VERTEX
  5
D96
  8
0
 10
696.65573946710708
 20
799.13782485053457
 30
0.0
  0
SEQEND
  5
D97
  8
0
  0
POLYLINE
  5
86D
  8
0
 66
     1
 10
0.0
 20
0.0
 30
0.0
 70
   129
1001
REVIT
1002
{
1070
     3
1000
450041
1002
}
  0
VERTEX
  5
D98
  8
0
 10
1180.53585060823
 20
635.03190072381835
 30
0.0
  0
VERTEX
  5
D99
  8
0
 10
1168.3854140826591
 20
614.60384185295334
 30
0.0
  0
VERTEX
  5
D9A
  8
0
 10
1178.8329758686671
 20
615.86919860766193
 30
0.0
  0
VERTEX
  5
D9B
  8
0
 10
1188.7922956242401
 20
632.61341762007874
 30
0.0
  0
SEQEND
  5
D9C
  8
0
  0
POLYLINE
  5
86E
  8
0
 66
     1
 10
0.0
 20
0.0
 30
0.0
 70
   129
1001
REVIT
1002
{
1070
     3
1000
450041
1002
}
  0
VERTEX
  5
D9D
  8
0
 10
1196.327516859491
 20
628.85765314341302
 30
0.0
  0
VERTEX
  5
D9E
  8
0
 10
1185.6933531254961
 20
610.97884505752461
 30
0.0
  0
VERTEX
  5
D9F
  8
0
 10
1187.2333068509599
 20
606.77049033451283
 30
0.0
  0
VERTEX
  5
DA0
  8
0
 10
1199.168127420767
 20
626.83604244040691
 30
0.0
  0
SEQEND
  5
DA1
  8
0
  0
POLYLINE
  5
86F
  8
0
 66
     1
 10
0.0
 20
0.0
 30
0.0
 70
   129
1001
REVIT
1002
{
1070
     3
1000
450041
1002
}
  0
VERTEX
  5
DA2
  8
0
 10
1208.2006515341229
 20
622.80228273522471
 30
0.0
  0
VERTEX
  5
DA3
  8
0
 10
1196.2657174102701
 20
602.73653971530382
 30
0.0
  0
VERTEX
  5
DA4
  8
0
 10
1199.2413702149231
 20
604.92892953235707
 30
0.0
  0
VERTEX
  5
DA5
  8
0
 10
1209.8754297822461
 20
622.80756248684986
 30
0.0
  0
SEQEND
  5
DA6
  8
0
  0
POLYLINE
  5
870
  8
0
 66
     1
 10
0.0
 20
0.0
 30
0.0
 70
   129
1001
REVIT
1002
{
1070
     3
1000
450041
1002
}
  0
VERTEX
  5
DA7
  8
0
 10
1216.8054321045661
 20
620.10344975676776
 30
0.0
  0
VERTEX
  5
DA8
  8
0
 10
1206.846080415957
 20
603.35917705657596
 30
0.0
  0
VERTEX
  5
DA9
  8
0
 10
1214.8746907711709
 20
593.84373510541275
 30
0.0
  0
VERTEX
  5
DAA
  8
0
 10
1227.0248266879639
 20
614.27128857436981
 30
0.0
  0
SEQEND
  5
DAB
  8
0
  0
LINE
  5
871
  8
0
 10
494.05314836092191
 20
545.72432213025468
 30
0.0
 11
653.15119604502183
 21
813.20971473245925
 31
0.0
1001
REVIT
1002
{
1070
     3
1000
450041
1002
}
  0
POLYLINE
  5
872
  8
0
 66
     1
 10
0.0
 20
0.0
 30
0.0
 70
   128
1001
REVIT
1002
{
1070
     3
1000
450041
1002
}
  0
VERTEX
  5
DAC
  8
0
 10
1094.1280382141611
 20
273.8470736383357
 30
0.0
  0
VERTEX
  5
DAD
  8
0
 10
1097.7293494369189
 20
265.49306727153822
 30
0.0
  0
VERTEX
  5
DAE
  8
0
 10
1097.9586055678201
 20
265.85300848667219
 30
0.0
  0
VERTEX
  5
DAF
  8
0
 10
1094.357294345062
 20
274.20701485346967
 30
0.0
  0
SEQEND
  5
DB0
  8
0
  0
LINE
  5
873
  8
0
 10
1257.0582989492691
 20
550.15565658035848
 30
0.0
 11
1094.984472395354
 21
277.66720208722222
 31
0.0
1001
REVIT
1002
{
1070
     3
1000
450041
1002
}
  0
LINE
  5
874
  8
0
 10
1254.0844893123731
 20
560.37221655700205
 30
0.0
 11
1257.547689909951
 21
552.33858712258007
 31
0.0
1001
REVIT
1002
{
1070
     3
1000
450041
1002
}
  0
POLYLINE
  5
875
  8
0
 66
     1
 10
0.0
 20
0.0
 30
0.0
 70
   128
1001
REVIT
1002
{
1070
     3
1000
450041
1002
}
  0
VERTEX
  5
DB1
  8
0
 10
1255.292527364637
 20
565.09801885657839
 30
0.0
  0
VERTEX
  5
DB2
  8
0
 10
1271.343209287732
 20
592.08340942690324
 30
0.0
  0
VERTEX
  5
DB3
  8
0
 10
1271.2363008970001
 20
592.26920084732456
 30
0.0
  0
VERTEX
  5
DB4
  8
0
 10
1255.1856189739069
 20
565.28381027699879
 30
0.0
  0
SEQEND
  5
DB5
  8
0
  0
LINE
  5
876
  8
0
 10
1257.776946040852
 20
552.69852833771392
 30
0.0
 11
1254.313745443274
 21
560.73215777213511
 31
0.0
1001
REVIT
1002
{
1070
     3
1000
450041
1002
}
  0
LINE
  5
877
  8
0
 10
1095.0913807860829
 20
277.48141066680159
 30
0.0
 11
1257.1652073399989
 21
549.96986515993797
 31
0.0
1001
REVIT
1002
{
1070
     3
1000
450041
1002
}
  0
POLYLINE
  5
878
  8
0
 66
     1
 10
0.0
 20
0.0
 30
0.0
 70
   128
1001
REVIT
1002
{
1070
     3
1000
450041
1002
}
  0
VERTEX
  5
DB6
  8
0
 10
1126.3351435129071
 20
330.0103402231727
 30
0.0
  0
VERTEX
  5
DB7
  8
0
 10
1289.6886179330061
 20
257.06086180380152
 30
0.0
  0
VERTEX
  5
DB8
  8
0
 10
1299.5569157186439
 20
244.4925504706417
 30
0.0
  0
VERTEX
  5
DB9
  8
0
 10
1278.191424282463
 20
205.81798543974151
 30
0.0
  0
VERTEX
  5
DBA
  8
0
 10
1100.7751728717319
 20
285.0475399348519
 30
0.0
  0
SEQEND
  5
DBB
  8
0
  0
POLYLINE
  5
879
  8
0
 66
     1
 10
0.0
 20
0.0
 30
0.0
 70
   128
1001
REVIT
1002
{
1070
     3
1000
450041
1002
}
  0
VERTEX
  5
DBC
  8
0
 10
1104.6107050217811
 20
291.49607175487319
 30
0.0
  0
VERTEX
  5
DBD
  8
0
 10
1268.3231264968249
 20
218.38629677290149
 30
0.0
  0
VERTEX
  5
DBE
  8
0
 10
1289.6886179330061
 20
257.06086180380152
 30
0.0
  0
SEQEND
  5
DBF
  8
0
  0
LINE
  5
87A
  8
0
 10
1278.191424282463
 20
205.81798543974151
 30
0.0
 11
1268.3231264968249
 21
218.38629677290149
 31
0.0
1001
REVIT
1002
{
1070
     3
1000
450041
1002
}
  0
POLYLINE
  5
87B
  8
0
 66
     1
 10
0.0
 20
0.0
 30
0.0
 70
   128
1001
REVIT
1002
{
1070
     3
1000
450041
1002
}
  0
VERTEX
  5
DC0
  8
0
 10
969.08512654261449
 20
45.365541595748788
 30
0.0
  0
VERTEX
  5
DC1
  8
0
 10
1132.4386009627131
 20
-27.583936823622452
 30
0.0
  0
VERTEX
  5
DC2
  8
0
 10
1142.3068987483509
 20
-40.15224815678237
 30
0.0
  0
VERTEX
  5
DC3
  8
0
 10
1120.94140731217
 20
-78.826813187682404
 30
0.0
  0
VERTEX
  5
DC4
  8
0
 10
943.52515590143958
 20
0.4027413074280659
 30
0.0
  0
SEQEND
  5
DC5
  8
0
  0
POLYLINE
  5
87C
  8
0
 66
     1
 10
0.0
 20
0.0
 30
0.0
 70
   128
1001
REVIT
1002
{
1070
     3
1000
450041
1002
}
  0
VERTEX
  5
DC6
  8
0
 10
947.36068805148864
 20
6.8512731274493737
 30
0.0
  0
VERTEX
  5
DC7
  8
0
 10
1111.0731095265321
 20
-66.25850185452245
 30
0.0
  0
VERTEX
  5
DC8
  8
0
 10
1132.4386009627131
 20
-27.583936823622452
 30
0.0
  0
SEQEND
  5
DC9
  8
0
  0
LINE
  5
87D
  8
0
 10
1120.94140731217
 20
-78.826813187682404
 30
0.0
 11
1111.0731095265321
 21
-66.25850185452245
 31
0.0
1001
REVIT
1002
{
1070
     3
1000
450041
1002
}
  0
LINE
  5
87E
  8
0
 10
512.58508831931965
 20
576.88135584379756
 30
0.0
 11
507.57374339477138
 21
585.59035319552584
 31
0.0
1001
REVIT
1002
{
1070
     3
1000
450041
1002
}
  0
POLYLINE
  5
87F
  8
0
 66
     1
 10
0.0
 20
0.0
 30
0.0
 70
   128
1001
REVIT
1002
{
1070
     3
1000
450041
1002
}
  0
VERTEX
  5
DCA
  8
0
 10
335.94669720943659
 20
257.25939505394479
 30
0.0
  0
VERTEX
  5
DCB
  8
0
 10
339.54800843219459
 20
248.90538868714711
 30
0.0
  0
VERTEX
  5
DCC
  8
0
 10
332.80204214900527
 20
241.89494673757179
 30
0.0
  0
VERTEX
  5
DCD
  8
0
 10
332.80204214900527
 20
269.22882481316969
 30
0.0
  0
SEQEND
  5
DCE
  8
0
  0
POLYLINE
  5
880
  8
0
 66
     1
 10
0.0
 20
0.0
 30
0.0
 70
   129
1001
REVIT
1002
{
1070
     3
1000
450041
1002
}
  0
VERTEX
  5
DCF
  8
0
 10
888.53848268591616
 20
27.277641790489682
 30
0.0
  0
VERTEX
  5
DD0
  8
0
 10
892.13979390867519
 20
18.923635423692001
 30
0.0
  0
VERTEX
  5
DD1
  8
0
 10
900.16840426388899
 20
9.4081934725286782
 30
0.0
  0
VERTEX
  5
DD2
  8
0
 10
896.56709304113042
 20
17.762199839325699
 30
0.0
  0
SEQEND
  5
DD3
  8
0
  0
POLYLINE
  5
881
  8
0
 66
     1
 10
0.0
 20
0.0
 30
0.0
 70
   128
1001
REVIT
1002
{
1070
     3
1000
450041
1002
}
  0
VERTEX
  5
DD4
  8
0
 10
1050.6029611450081
 20
302.13061848605309
 30
0.0
  0
VERTEX
  5
DD5
  8
0
 10
889.39491686711006
 20
31.097770239375819
 30
0.0
  0
VERTEX
  5
DD6
  8
0
 10
897.42352722232363
 20
21.582328288212629
 30
0.0
  0
VERTEX
  5
DD7
  8
0
 10
1058.6405520195531
 20
292.630275134616
 30
0.0
  0
SEQEND
  5
DD8
  8
0
  0
POLYLINE
  5
882
  8
0
 66
     1
 10
0.0
 20
0.0
 30
0.0
 70
   129
1001
REVIT
1002
{
1070
     3
1000
450041
1002
}
  0
VERTEX
  5
DD9
  8
0
 10
877.95811968022974
 20
26.655004449217241
 30
0.0
  0
VERTEX
  5
DDA
  8
0
 10
881.55943090298717
 20
18.300998082419039
 30
0.0
  0
VERTEX
  5
DDB
  8
0
 10
884.53508370764075
 20
20.493387899472491
 30
0.0
  0
VERTEX
  5
DDC
  8
0
 10
880.93377248488275
 20
28.84739426627014
 30
0.0
  0
SEQEND
  5
DDD
  8
0
  0
POLYLINE
  5
883
  8
0
 66
     1
 10
0.0
 20
0.0
 30
0.0
 70
   129
1001
REVIT
1002
{
1070
     3
1000
450041
1002
}
  0
VERTEX
  5
DDE
  8
0
 10
1040.888380415339
 20
302.96358739124048
 30
0.0
  0
VERTEX
  5
DDF
  8
0
 10
878.8145538614225
 20
30.475132898103691
 30
0.0
  0
VERTEX
  5
DE0
  8
0
 10
881.79020666607596
 20
32.667522715157112
 30
0.0
  0
VERTEX
  5
DE1
  8
0
 10
1043.8640332199921
 20
305.1559772082939
 30
0.0
  0
SEQEND
  5
DE2
  8
0
  0
POLYLINE
  5
884
  8
0
 66
     1
 10
0.0
 20
0.0
 30
0.0
 70
   128
1001
REVIT
1002
{
1070
     3
1000
450041
1002
}
  0
VERTEX
  5
DE3
  8
0
 10
1028.9390842205969
 20
308.89091038210222
 30
0.0
  0
VERTEX
  5
DE4
  8
0
 10
868.24218957664982
 20
38.717438240325961
 30
0.0
  0
VERTEX
  5
DE5
  8
0
 10
869.78214330211426
 20
34.50908351731313
 30
0.0
  0
VERTEX
  5
DE6
  8
0
 10
1030.740476785237
 20
305.12210266520759
 30
0.0
  0
SEQEND
  5
DE7
  8
0
  0
POLYLINE
  5
885
  8
0
 66
     1
 10
0.0
 20
0.0
 30
0.0
 70
   129
1001
REVIT
1002
{
1070
     3
1000
450041
1002
}
  0
VERTEX
  5
DE8
  8
0
 10
850.07781635261949
 20
38.522306586866911
 30
0.0
  0
VERTEX
  5
DE9
  8
0
 10
853.67912757537738
 20
30.168300220069028
 30
0.0
  0
VERTEX
  5
DEA
  8
0
 10
864.12668936138448
 20
31.433656974777811
 30
0.0
  0
VERTEX
  5
DEB
  8
0
 10
860.52537813862557
 20
39.787663341575723
 30
0.0
  0
SEQEND
  5
DEC
  8
0
  0
POLYLINE
  5
886
  8
0
 66
     1
 10
0.0
 20
0.0
 30
0.0
 70
   128
1001
REVIT
1002
{
1070
     3
1000
450041
1002
}
  0
VERTEX
  5
DED
  8
0
 10
1023.355228854744
 20
315.9274308031957
 30
0.0
  0
VERTEX
  5
DEE
  8
0
 10
861.3818123198198
 20
43.607791790462237
 30
0.0
  0
VERTEX
  5
DEF
  8
0
 10
850.93425053381247
 20
42.342435035753503
 30
0.0
  0
VERTEX
  5
DF0
  8
0
 10
1013.008077087728
 20
314.83088952889079
 30
0.0
  0
VERTEX
  5
DF1
  8
0
 10
1022.90103473531
 20
316.0290753869711
 30
0.0
  0
SEQEND
  5
DF2
  8
0
  0
POLYLINE
  5
887
  8
0
 66
     1
 10
0.0
 20
0.0
 30
0.0
 70
   129
1001
REVIT
1002
{
1070
     3
1000
450041
1002
}
  0
VERTEX
  5
DF3
  8
0
 10
769.6135140166765
 20
80.38648729413768
 30
0.0
  0
VERTEX
  5
DF4
  8
0
 10
773.21482523943553
 20
72.032480927340004
 30
0.0
  0
VERTEX
  5
DF5
  8
0
 10
781.24343559464944
 20
62.517038976176657
 30
0.0
  0
VERTEX
  5
DF6
  8
0
 10
777.64212437189019
 20
70.8710453429739
 30
0.0
  0
SEQEND
  5
DF7
  8
0
  0
POLYLINE
  5
888
  8
0
 66
     1
 10
0.0
 20
0.0
 30
0.0
 70
   128
1001
REVIT
1002
{
1070
     3
1000
450041
1002
}
  0
VERTEX
  5
DF8
  8
0
 10
931.67799247576852
 20
355.23946398970128
 30
0.0
  0
VERTEX
  5
DF9
  8
0
 10
770.46994819786994
 20
84.206615743023974
 30
0.0
  0
VERTEX
  5
DFA
  8
0
 10
778.4985585530834
 20
74.691173791860905
 30
0.0
  0
VERTEX
  5
DFB
  8
0
 10
939.71558335031318
 20
345.7391206382631
 30
0.0
  0
SEQEND
  5
DFC
  8
0
  0
POLYLINE
  5
889
  8
0
 66
     1
 10
0.0
 20
0.0
 30
0.0
 70
   129
1001
REVIT
1002
{
1070
     3
1000
450041
1002
}
  0
VERTEX
  5
DFD
  8
0
 10
759.03315101099008
 20
79.763849952865542
 30
0.0
  0
VERTEX
  5
DFE
  8
0
 10
762.63446223374774
 20
71.409843586067154
 30
0.0
  0
VERTEX
  5
DFF
  8
0
 10
765.61011503840098
 20
73.60223340312055
 30
0.0
  0
VERTEX
  5
E00
  8
0
 10
762.00880381564298
 20
81.956239769918568
 30
0.0
  0
SEQEND
  5
E01
  8
0
  0
POLYLINE
  5
88A
  8
0
 66
     1
 10
0.0
 20
0.0
 30
0.0
 70
   129
1001
REVIT
1002
{
1070
     3
1000
450041
1002
}
  0
VERTEX
  5
E02
  8
0
 10
921.96341174609836
 20
356.07243289488849
 30
0.0
  0
VERTEX
  5
E03
  8
0
 10
759.88958519218295
 20
83.583978401751949
 30
0.0
  0
VERTEX
  5
E04
  8
0
 10
762.86523799683664
 20
85.776368218805445
 30
0.0
  0
VERTEX
  5
E05
  8
0
 10
924.93906455075194
 20
358.26482271194152
 30
0.0
  0
SEQEND
  5
E06
  8
0
  0
POLYLINE
  5
88B
  8
0
 66
     1
 10
0.0
 20
0.0
 30
0.0
 70
   128
1001
REVIT
1002
{
1070
     3
1000
450041
1002
}
  0
VERTEX
  5
E07
  8
0
 10
910.01411555135667
 20
361.99975588575131
 30
0.0
  0
VERTEX
  5
E08
  8
0
 10
749.31722090740971
 20
91.826283743974244
 30
0.0
  0
VERTEX
  5
E09
  8
0
 10
750.85717463287449
 20
87.617929020961085
 30
0.0
  0
VERTEX
  5
E0A
  8
0
 10
911.81550811599789
 20
358.23094816885612
 30
0.0
  0
SEQEND
  5
E0B
  8
0
  0
POLYLINE
  5
88C
  8
0
 66
     1
 10
0.0
 20
0.0
 30
0.0
 70
   129
1001
REVIT
1002
{
1070
     3
1000
450041
1002
}
  0
VERTEX
  5
E0C
  8
0
 10
731.1528476833796
 20
91.631152090515201
 30
0.0
  0
VERTEX
  5
E0D
  8
0
 10
734.75415890613726
 20
83.277145723717069
 30
0.0
  0
VERTEX
  5
E0E
  8
0
 10
745.20172069214505
 20
84.542502478425888
 30
0.0
  0
VERTEX
  5
E0F
  8
0
 10
741.6004094693867
 20
92.896508845223906
 30
0.0
  0
SEQEND
  5
E10
  8
0
  0
POLYLINE
  5
88D
  8
0
 66
     1
 10
0.0
 20
0.0
 30
0.0
 70
   128
1001
REVIT
1002
{
1070
     3
1000
450041
1002
}
  0
VERTEX
  5
E11
  8
0
 10
904.43026018550472
 20
369.03627630684349
 30
0.0
  0
VERTEX
  5
E12
  8
0
 10
742.45684365058025
 20
96.716637294110356
 30
0.0
  0
VERTEX
  5
E13
  8
0
 10
732.00928186457259
 20
95.451280539401438
 30
0.0
  0
VERTEX
  5
E14
  8
0
 10
894.08310841848765
 20
367.93973503253829
 30
0.0
  0
VERTEX
  5
E15
  8
0
 10
903.97606606607178
 20
369.137920890619
 30
0.0
  0
SEQEND
  5
E16
  8
0
  0
POLYLINE
  5
88E
  8
0
 66
     1
 10
0.0
 20
0.0
 30
0.0
 70
   129
1001
REVIT
1002
{
1070
     3
1000
450041
1002
}
  0
VERTEX
  5
E17
  8
0
 10
650.68854534743684
 20
133.49533279778601
 30
0.0
  0
VERTEX
  5
E18
  8
0
 10
654.28985657019575
 20
125.1413264309881
 30
0.0
  0
VERTEX
  5
E19
  8
0
 10
662.31846692540955
 20
115.62588447982471
 30
0.0
  0
VERTEX
  5
E1A
  8
0
 10
658.71715570265121
 20
123.9798908466221
 30
0.0
  0
SEQEND
  5
E1B
  8
0
  0
POLYLINE
  5
88F
  8
0
 66
     1
 10
0.0
 20
0.0
 30
0.0
 70
   128
1001
REVIT
1002
{
1070
     3
1000
450041
1002
}
  0
VERTEX
  5
E1C
  8
0
 10
812.75302380652931
 20
408.34830949334918
 30
0.0
  0
VERTEX
  5
E1D
  8
0
 10
651.54497952863062
 20
137.3154612466721
 30
0.0
  0
VERTEX
  5
E1E
  8
0
 10
659.57358988384431
 20
127.800019295509
 30
0.0
  0
VERTEX
  5
E1F
  8
0
 10
820.7906146810742
 20
398.8479661419122
 30
0.0
  0
SEQEND
  5
E20
  8
0
  0
POLYLINE
  5
890
  8
0
 66
     1
 10
0.0
 20
0.0
 30
0.0
 70
   129
1001
REVIT
1002
{
1070
     3
1000
450041
1002
}
  0
VERTEX
  5
E21
  8
0
 10
640.10818234175031
 20
132.87269545651321
 30
0.0
  0
VERTEX
  5
E22
  8
0
 10
643.70949356450785
 20
124.5186890897151
 30
0.0
  0
VERTEX
  5
E23
  8
0
 10
646.68514636916154
 20
126.71107890676851
 30
0.0
  0
VERTEX
  5
E24
  8
0
 10
643.08383514640298
 20
135.0650852735661
 30
0.0
  0
SEQEND
  5
E25
  8
0
  0
POLYLINE
  5
891
  8
0
 66
     1
 10
0.0
 20
0.0
 30
0.0
 70
   129
1001
REVIT
1002
{
1070
     3
1000
450041
1002
}
  0
VERTEX
  5
E26
  8
0
 10
803.03844307685881
 20
409.18127839853639
 30
0.0
  0
VERTEX
  5
E27
  8
0
 10
640.9646165229434
 20
136.69282390539991
 30
0.0
  0
VERTEX
  5
E28
  8
0
 10
643.94026932759675
 20
138.8852137224533
 30
0.0
  0
VERTEX
  5
E29
  8
0
 10
806.0140958815125
 20
411.3736682155901
 30
0.0
  0
SEQEND
  5
E2A
  8
0
  0
POLYLINE
  5
892
  8
0
 66
     1
 10
0.0
 20
0.0
 30
0.0
 70
   128
1001
REVIT
1002
{
1070
     3
1000
450041
1002
}
  0
VERTEX
  5
E2B
  8
0
 10
791.08914688211712
 20
415.10860138939978
 30
0.0
  0
VERTEX
  5
E2C
  8
0
 10
630.3922522381697
 20
144.93512924762231
 30
0.0
  0
VERTEX
  5
E2D
  8
0
 10
631.93220596363426
 20
140.7267745246092
 30
0.0
  0
VERTEX
  5
E2E
  8
0
 10
792.89053944675834
 20
411.33979367250407
 30
0.0
  0
SEQEND
  5
E2F
  8
0
  0
POLYLINE
  5
893
  8
0
 66
     1
 10
0.0
 20
0.0
 30
0.0
 70
   129
1001
REVIT
1002
{
1070
     3
1000
450041
1002
}
  0
VERTEX
  5
E30
  8
0
 10
612.22787901414006
 20
144.73999759416279
 30
0.0
  0
VERTEX
  5
E31
  8
0
 10
615.82919023689794
 20
136.38599122736491
 30
0.0
  0
VERTEX
  5
E32
  8
0
 10
626.27675202290516
 20
137.6513479820737
 30
0.0
  0
VERTEX
  5
E33
  8
0
 10
622.67544080014659
 20
146.005354348872
 30
0.0
  0
SEQEND
  5
E34
  8
0
  0
POLYLINE
  5
894
  8
0
 66
     1
 10
0.0
 20
0.0
 30
0.0
 70
   128
1001
REVIT
1002
{
1070
     3
1000
450041
1002
}
  0
VERTEX
  5
E35
  8
0
 10
785.50529151626495
 20
422.14512181049218
 30
0.0
  0
VERTEX
  5
E36
  8
0
 10
623.53187498134037
 20
149.8254827977581
 30
0.0
  0
VERTEX
  5
E37
  8
0
 10
613.08431319533327
 20
148.56012604304939
 30
0.0
  0
VERTEX
  5
E38
  8
0
 10
775.15813974924913
 20
421.04858053618688
 30
0.0
  0
VERTEX
  5
E39
  8
0
 10
785.05109739683235
 20
422.24676639426752
 30
0.0
  0
SEQEND
  5
E3A
  8
0
  0
POLYLINE
  5
895
  8
0
 66
     1
 10
0.0
 20
0.0
 30
0.0
 70
   129
1001
REVIT
1002
{
1070
     3
1000
450041
1002
}
  0
VERTEX
  5
E3B
  8
0
 10
531.76357667819798
 20
186.60417830143379
 30
0.0
  0
VERTEX
  5
E3C
  8
0
 10
535.36488790095643
 20
178.25017193463651
 30
0.0
  0
VERTEX
  5
E3D
  8
0
 10
543.39349825617035
 20
168.73472998347279
 30
0.0
  0
VERTEX
  5
E3E
  8
0
 10
539.79218703341155
 20
177.08873635027061
 30
0.0
  0
SEQEND
  5
E3F
  8
0
  0
POLYLINE
  5
896
  8
0
 66
     1
 10
0.0
 20
0.0
 30
0.0
 70
   128
1001
REVIT
1002
{
1070
     3
1000
450041
1002
}
  0
VERTEX
  5
E40
  8
0
 10
693.82805513728988
 20
461.45715499699719
 30
0.0
  0
VERTEX
  5
E41
  8
0
 10
532.62001085939107
 20
190.42430675032011
 30
0.0
  0
VERTEX
  5
E42
  8
0
 10
540.6486212146051
 20
180.9088647991569
 30
0.0
  0
VERTEX
  5
E43
  8
0
 10
701.86564601183522
 20
451.95681164555879
 30
0.0
  0
SEQEND
  5
E44
  8
0
  0
POLYLINE
  5
897
  8
0
 66
     1
 10
0.0
 20
0.0
 30
0.0
 70
   129
1001
REVIT
1002
{
1070
     3
1000
450041
1002
}
  0
VERTEX
  5
E45
  8
0
 10
521.18321367251042
 20
185.98154096016151
 30
0.0
  0
VERTEX
  5
E46
  8
0
 10
524.78452489526865
 20
177.62753459336321
 30
0.0
  0
VERTEX
  5
E47
  8
0
 10
527.76017769992222
 20
179.81992441041689
 30
0.0
  0
VERTEX
  5
E48
  8
0
 10
524.15886647716366
 20
188.17393077721439
 30
0.0
  0
SEQEND
  5
E49
  8
0
  0
POLYLINE
  5
898
  8
0
 66
     1
 10
0.0
 20
0.0
 30
0.0
 70
   129
1001
REVIT
1002
{
1070
     3
1000
450041
1002
}
  0
VERTEX
  5
E4A
  8
0
 10
684.11347440762006
 20
462.29012390218429
 30
0.0
  0
VERTEX
  5
E4B
  8
0
 10
522.03964785370408
 20
189.801669409048
 30
0.0
  0
VERTEX
  5
E4C
  8
0
 10
525.01530065835743
 20
191.99405922610151
 30
0.0
  0
VERTEX
  5
E4D
  8
0
 10
687.08912721227387
 20
464.48251371923789
 30
0.0
  0
SEQEND
  5
E4E
  8
0
  0
POLYLINE
  5
899
  8
0
 66
     1
 10
0.0
 20
0.0
 30
0.0
 70
   128
1001
REVIT
1002
{
1070
     3
1000
450041
1002
}
  0
VERTEX
  5
E4F
  8
0
 10
672.16417821287757
 20
468.217446893047
 30
0.0
  0
VERTEX
  5
E50
  8
0
 10
511.4672835689305
 20
198.0439747512705
 30
0.0
  0
VERTEX
  5
E51
  8
0
 10
513.00723729439505
 20
193.8356200282573
 30
0.0
  0
VERTEX
  5
E52
  8
0
 10
673.96557077751925
 20
464.4486391761514
 30
0.0
  0
SEQEND
  5
E53
  8
0
  0
POLYLINE
  5
89A
  8
0
 66
     1
 10
0.0
 20
0.0
 30
0.0
 70
   129
1001
REVIT
1002
{
1070
     3
1000
450041
1002
}
  0
VERTEX
  5
E54
  8
0
 10
493.30291034490051
 20
197.84884309781131
 30
0.0
  0
VERTEX
  5
E55
  8
0
 10
496.90422156765908
 20
189.49483673101329
 30
0.0
  0
VERTEX
  5
E56
  8
0
 10
507.35178335366589
 20
190.76019348572191
 30
0.0
  0
VERTEX
  5
E57
  8
0
 10
503.75047213090733
 20
199.11419985252019
 30
0.0
  0
SEQEND
  5
E58
  8
0
  0
POLYLINE
  5
89B
  8
0
 66
     1
 10
0.0
 20
0.0
 30
0.0
 70
   128
1001
REVIT
1002
{
1070
     3
1000
450041
1002
}
  0
VERTEX
  5
E59
  8
0
 10
666.58032284702585
 20
475.25396731413969
 30
0.0
  0
VERTEX
  5
E5A
  8
0
 10
504.6069063121015
 20
202.93432830140671
 30
0.0
  0
VERTEX
  5
E5B
  8
0
 10
494.15934452609417
 20
201.66897154669789
 30
0.0
  0
VERTEX
  5
E5C
  8
0
 10
656.23317108000947
 20
474.15742603983409
 30
0.0
  0
VERTEX
  5
E5D
  8
0
 10
666.12612872759439
 20
475.3556118979148
 30
0.0
  0
SEQEND
  5
E5E
  8
0
  0
POLYLINE
  5
89C
  8
0
 66
     1
 10
0.0
 20
0.0
 30
0.0
 70
   129
1001
REVIT
1002
{
1070
     3
1000
450041
1002
}
  0
VERTEX
  5
E5F
  8
0
 10
412.8386080089582
 20
239.71302380508209
 30
0.0
  0
VERTEX
  5
E60
  8
0
 10
416.43991923171671
 20
231.3590174382847
 30
0.0
  0
VERTEX
  5
E61
  8
0
 10
424.46852958693091
 20
221.843575487121
 30
0.0
  0
VERTEX
  5
E62
  8
0
 10
420.86721836417178
 20
230.19758185391839
 30
0.0
  0
SEQEND
  5
E63
  8
0
  0
POLYLINE
  5
89D
  8
0
 66
     1
 10
0.0
 20
0.0
 30
0.0
 70
   128
1001
REVIT
1002
{
1070
     3
1000
450041
1002
}
  0
VERTEX
  5
E64
  8
0
 10
574.90308646805045
 20
514.56600050064515
 30
0.0
  0
VERTEX
  5
E65
  8
0
 10
413.69504219015158
 20
243.5331522539683
 30
0.0
  0
VERTEX
  5
E66
  8
0
 10
421.72365254536538
 20
234.0177103028052
 30
0.0
  0
VERTEX
  5
E67
  8
0
 10
582.94067734259545
 20
505.0656571492072
 30
0.0
  0
SEQEND
  5
E68
  8
0
  0
POLYLINE
  5
89E
  8
0
 66
     1
 10
0.0
 20
0.0
 30
0.0
 70
   129
1001
REVIT
1002
{
1070
     3
1000
450041
1002
}
  0
VERTEX
  5
E69
  8
0
 10
402.25824500327082
 20
239.09038646380981
 30
0.0
  0
VERTEX
  5
E6A
  8
0
 10
405.85955622602921
 20
230.73638009701151
 30
0.0
  0
VERTEX
  5
E6B
  8
0
 10
408.83520903068262
 20
232.92876991406499
 30
0.0
  0
VERTEX
  5
E6C
  8
0
 10
405.23389780792428
 20
241.28277628086269
 30
0.0
  0
SEQEND
  5
E6D
  8
0
  0
POLYLINE
  5
89F
  8
0
 66
     1
 10
0.0
 20
0.0
 30
0.0
 70
   129
1001
REVIT
1002
{
1070
     3
1000
450041
1002
}
  0
VERTEX
  5
E6E
  8
0
 10
565.18850573838051
 20
515.3989694058323
 30
0.0
  0
VERTEX
  5
E6F
  8
0
 10
403.11467918446442
 20
242.91051491269619
 30
0.0
  0
VERTEX
  5
E70
  8
0
 10
406.09033198911789
 20
245.10290472974961
 30
0.0
  0
VERTEX
  5
E71
  8
0
 10
568.16415854303386
 20
517.59135922288556
 30
0.0
  0
SEQEND
  5
E72
  8
0
  0
POLYLINE
  5
8A0
  8
0
 66
     1
 10
0.0
 20
0.0
 30
0.0
 70
   128
1001
REVIT
1002
{
1070
     3
1000
450041
1002
}
  0
VERTEX
  5
E73
  8
0
 10
553.23920954363791
 20
521.32629239669495
 30
0.0
  0
VERTEX
  5
E74
  8
0
 10
392.54231489969089
 20
251.1528202549184
 30
0.0
  0
VERTEX
  5
E75
  8
0
 10
394.08226862515551
 20
246.94446553190519
 30
0.0
  0
VERTEX
  5
E76
  8
0
 10
555.04060210827936
 20
517.55748467979959
 30
0.0
  0
SEQEND
  5
E77
  8
0
  0
POLYLINE
  5
8A1
  8
0
 66
     1
 10
0.0
 20
0.0
 30
0.0
 70
   129
1001
REVIT
1002
{
1070
     3
1000
450041
1002
}
  0
VERTEX
  5
E78
  8
0
 10
374.37794167566108
 20
250.95768860145969
 30
0.0
  0
VERTEX
  5
E79
  8
0
 10
377.97925289841942
 20
242.60368223466151
 30
0.0
  0
VERTEX
  5
E7A
  8
0
 10
388.42681468442618
 20
243.86903898937021
 30
0.0
  0
VERTEX
  5
E7B
  8
0
 10
384.82550346166772
 20
252.22304535616851
 30
0.0
  0
SEQEND
  5
E7C
  8
0
  0
POLYLINE
  5
8A2
  8
0
 66
     1
 10
0.0
 20
0.0
 30
0.0
 70
   128
1001
REVIT
1002
{
1070
     3
1000
450041
1002
}
  0
VERTEX
  5
E7D
  8
0
 10
547.65535417778631
 20
528.36281281778804
 30
0.0
  0
VERTEX
  5
E7E
  8
0
 10
385.68193764286161
 20
256.04317380505472
 30
0.0
  0
VERTEX
  5
E7F
  8
0
 10
375.23437585685429
 20
254.7778170503459
 30
0.0
  0
VERTEX
  5
E80
  8
0
 10
537.30820241077026
 20
527.26627154348262
 30
0.0
  0
VERTEX
  5
E81
  8
0
 10
547.20116005835337
 20
528.46445740156332
 30
0.0
  0
SEQEND
  5
E82
  8
0
  0
LINE
  5
8A3
  8
0
 10
336.80313139062957
 20
261.07952350283091
 30
0.0
 11
498.44209720049082
 21
532.83686345029025
 31
0.0
1001
REVIT
1002
{
1070
     3
1000
450041
1002
}
  0
POLYLINE
  5
8A4
  8
0
 66
     1
 10
0.0
 20
0.0
 30
0.0
 70
   128
1001
REVIT
1002
{
1070
     3
1000
450041
1002
}
  0
VERTEX
  5
E83
  8
0
 10
936.87802124386883
 20
-10.797724989088151
 30
0.0
  0
VERTEX
  5
E84
  8
0
 10
940.47933246662626
 20
-19.151731355885701
 30
0.0
  0
VERTEX
  5
E85
  8
0
 10
940.7085885975273
 20
-18.791790140751651
 30
0.0
  0
VERTEX
  5
E86
  8
0
 10
937.10727737476952
 20
-10.437783773954211
 30
0.0
  0
SEQEND
  5
E87
  8
0
  0
LINE
  5
8A5
  8
0
 10
1099.808281978977
 20
265.510857952935
 30
0.0
 11
937.73445542506101
 21
-6.9775965402016382
 31
0.0
1001
REVIT
1002
{
1070
     3
1000
450041
1002
}
  0
LINE
  5
8A6
  8
0
 10
1096.834472342081
 20
275.72741792957822
 30
0.0
 11
1100.2976729396589
 21
267.69378849515641
 31
0.0
1001
REVIT
1002
{
1070
     3
1000
450041
1002
}
  0
POLYLINE
  5
8A7
  8
0
 66
     1
 10
0.0
 20
0.0
 30
0.0
 70
   128
1001
REVIT
1002
{
1070
     3
1000
450041
1002
}
  0
VERTEX
  5
E88
  8
0
 10
1098.0425103943439
 20
280.45322022915462
 30
0.0
  0
VERTEX
  5
E89
  8
0
 10
1114.0931923174389
 20
307.43861079947948
 30
0.0
  0
VERTEX
  5
E8A
  8
0
 10
1113.986283926708
 20
307.62440221990067
 30
0.0
  0
VERTEX
  5
E8B
  8
0
 10
1097.9356020036139
 20
280.6390116495752
 30
0.0
  0
SEQEND
  5
E8C
  8
0
  0
LINE
  5
8A8
  8
0
 10
1100.5269290705601
 20
268.0537297102897
 30
0.0
 11
1097.0637284729819
 21
276.08735914471129
 31
0.0
1001
REVIT
1002
{
1070
     3
1000
450041
1002
}
  0
LINE
  5
8A9
  8
0
 10
937.84136381579071
 20
-7.1633879606223481
 30
0.0
 11
1099.9151903697059
 21
265.3250665325142
 31
0.0
1001
REVIT
1002
{
1070
     3
1000
450041
1002
}
  0
LINE
  5
8AA
  8
0
 10
355.33507134902698
 20
292.23655721637368
 30
0.0
 11
350.32372642447848
 21
300.94555456810241
 31
0.0
1001
REVIT
1002
{
1070
     3
1000
450041
1002
}
  0
LINE
  5
8AB
  8
0
 10
178.02561658342751
 20
14.484202047815881
 30
0.0
 11
177.7768065202394
 21
14.03382059986942
 31
0.0
1001
REVIT
1002
{
1070
     3
1000
450041
1002
}
  0
POLYLINE
  5
8AC
  8
0
 66
     1
 10
0.0
 20
0.0
 30
0.0
 70
   128
1001
REVIT
1002
{
1070
     3
1000
450041
1002
}
  0
VERTEX
  5
E8D
  8
0
 10
175.7267042506746
 20
-42.568324523364879
 30
0.0
  0
VERTEX
  5
E8E
  8
0
 10
175.55202517871251
 20
-42.749851889851954
 30
0.0
  0
VERTEX
  5
E8F
  8
0
 10
175.55202517871251
 20
-42.243261245720973
 30
0.0
  0
SEQEND
  5
E90
  8
0
  0
LINE
  5
8AD
  8
0
 10
178.02561658342771
 20
15.16364478087951
 30
0.0
 11
177.5172640702171
 21
14.243454745021561
 31
0.0
1001
REVIT
1002
{
1070
     3
1000
450041
1002
}
  0
POLYLINE
  5
8AE
  8
0
 66
     1
 10
0.0
 20
0.0
 30
0.0
 70
   128
1001
REVIT
1002
{
1070
     3
1000
450041
1002
}
  0
VERTEX
  5
E91
  8
0
 10
175.25094930866371
 20
-41.861477795844188
 30
0.0
  0
VERTEX
  5
E92
  8
0
 10
175.25094930866371
 20
-42.61539911642496
 30
0.0
  0
VERTEX
  5
E93
  8
0
 10
175.5520251787126
 20
-42.749851889852003
 30
0.0
  0
SEQEND
  5
E94
  8
0
  0
POLYLINE
  5
8AF
  8
0
 66
     1
 10
0.0
 20
0.0
 30
0.0
 70
   129
1001
REVIT
1002
{
1070
     3
1000
450041
1002
}
  0
VERTEX
  5
E95
  8
0
 10
731.28846571562337
 20
-257.36715683693399
 30
0.0
  0
VERTEX
  5
E96
  8
0
 10
734.88977693838251
 20
-265.72116320373192
 30
0.0
  0
VERTEX
  5
E97
  8
0
 10
742.91838729359597
 20
-275.23660515489507
 30
0.0
  0
VERTEX
  5
E98
  8
0
 10
739.31707607083763
 20
-266.88259878809811
 30
0.0
  0
SEQEND
  5
E99
  8
0
  0
POLYLINE
  5
8B0
  8
0
 66
     1
 10
0.0
 20
0.0
 30
0.0
 70
   128
1001
REVIT
1002
{
1070
     3
1000
450041
1002
}
  0
VERTEX
  5
E9A
  8
0
 10
893.35294417471584
 20
17.485819858629309
 30
0.0
  0
VERTEX
  5
E9B
  8
0
 10
732.14489989681749
 20
-253.54702838804801
 30
0.0
  0
VERTEX
  5
E9C
  8
0
 10
740.17351025203095
 20
-263.06247033921107
 30
0.0
  0
VERTEX
  5
E9D
  8
0
 10
901.39053504926085
 20
7.9854765071920752
 30
0.0
  0
SEQEND
  5
E9E
  8
0
  0
POLYLINE
  5
8B1
  8
0
 66
     1
 10
0.0
 20
0.0
 30
0.0
 70
   129
1001
REVIT
1002
{
1070
     3
1000
450041
1002
}
  0
VERTEX
  5
E9F
  8
0
 10
720.70810270993684
 20
-257.98979417820652
 30
0.0
  0
VERTEX
  5
EA0
  8
0
 10
724.30941393269438
 20
-266.34380054500468
 30
0.0
  0
VERTEX
  5
EA1
  8
0
 10
727.28506673734807
 20
-264.15141072795132
 30
0.0
  0
VERTEX
  5
EA2
  8
0
 10
723.68375551458962
 20
-255.7974043611537
 30
0.0
  0
SEQEND
  5
EA3
  8
0
  0
POLYLINE
  5
8B2
  8
0
 66
     1
 10
0.0
 20
0.0
 30
0.0
 70
   129
1001
REVIT
1002
{
1070
     3
1000
450041
1002
}
  0
VERTEX
  5
EA4
  8
0
 10
883.63836344504557
 20
18.318788763816581
 30
0.0
  0
VERTEX
  5
EA5
  8
0
 10
721.56453689112959
 20
-254.16966572932009
 30
0.0
  0
VERTEX
  5
EA6
  8
0
 10
724.54018969578306
 20
-251.97727591226669
 30
0.0
  0
VERTEX
  5
EA7
  8
0
 10
886.61401624969926
 20
20.511178580870261
 30
0.0
  0
SEQEND
  5
EA8
  8
0
  0
POLYLINE
  5
8B3
  8
0
 66
     1
 10
0.0
 20
0.0
 30
0.0
 70
   128
1001
REVIT
1002
{
1070
     3
1000
450041
1002
}
  0
VERTEX
  5
EA9
  8
0
 10
871.68906725030388
 20
24.246111754678569
 30
0.0
  0
VERTEX
  5
EAA
  8
0
 10
710.99217260635692
 20
-245.92736038709791
 30
0.0
  0
VERTEX
  5
EAB
  8
0
 10
712.53212633182136
 20
-250.1357151101106
 30
0.0
  0
VERTEX
  5
EAC
  8
0
 10
873.49045981494498
 20
20.477304037783949
 30
0.0
  0
SEQEND
  5
EAD
  8
0
  0
POLYLINE
  5
8B4
  8
0
 66
     1
 10
0.0
 20
0.0
 30
0.0
 70
   129
1001
REVIT
1002
{
1070
     3
1000
450041
1002
}
  0
VERTEX
  5
EAE
  8
0
 10
692.82779938232659
 20
-246.12249204055689
 30
0.0
  0
VERTEX
  5
EAF
  8
0
 10
696.42911060508436
 20
-254.4764984073548
 30
0.0
  0
VERTEX
  5
EB0
  8
0
 10
706.87667239109169
 20
-253.21114165264601
 30
0.0
  0
VERTEX
  5
EB1
  8
0
 10
703.27536116833312
 20
-244.8571352858481
 30
0.0
  0
SEQEND
  5
EB2
  8
0
  0
POLYLINE
  5
8B5
  8
0
 66
     1
 10
0.0
 20
0.0
 30
0.0
 70
   128
1001
REVIT
1002
{
1070
     3
1000
450041
1002
}
  0
VERTEX
  5
EB3
  8
0
 10
866.10521188445125
 20
31.282632175771969
 30
0.0
  0
VERTEX
  5
EB4
  8
0
 10
704.13179534952724
 20
-241.0370068369615
 30
0.0
  0
VERTEX
  5
EB5
  8
0
 10
693.68423356351991
 20
-242.30236359167029
 30
0.0
  0
VERTEX
  5
EB6
  8
0
 10
855.75806011743578
 20
30.186090901466951
 30
0.0
  0
VERTEX
  5
EB7
  8
0
 10
865.65101776501785
 20
31.384276759547351
 30
0.0
  0
SEQEND
  5
EB8
  8
0
  0
POLYLINE
  5
8B6
  8
0
 66
     1
 10
0.0
 20
0.0
 30
0.0
 70
   129
1001
REVIT
1002
{
1070
     3
1000
450041
1002
}
  0
VERTEX
  5
EB9
  8
0
 10
612.36349704638371
 20
-204.2583113332862
 30
0.0
  0
VERTEX
  5
EBA
  8
0
 10
615.96480826914251
 20
-212.61231770008391
 30
0.0
  0
VERTEX
  5
EBB
  8
0
 10
623.99341862435654
 20
-222.12775965124709
 30
0.0
  0
VERTEX
  5
EBC
  8
0
 10
620.3921074015974
 20
-213.77375328444981
 30
0.0
  0
SEQEND
  5
EBD
  8
0
  0
POLYLINE
  5
8B7
  8
0
 66
     1
 10
0.0
 20
0.0
 30
0.0
 70
   128
1001
REVIT
1002
{
1070
     3
1000
450041
1002
}
  0
VERTEX
  5
EBE
  8
0
 10
774.42797550547596
 20
70.594665362277567
 30
0.0
  0
VERTEX
  5
EBF
  8
0
 10
613.21993122757704
 20
-200.43818288439991
 30
0.0
  0
VERTEX
  5
EC0
  8
0
 10
621.24854158279061
 20
-209.95362483556289
 30
0.0
  0
VERTEX
  5
EC1
  8
0
 10
782.46556638002085
 20
61.094322010839498
 30
0.0
  0
SEQEND
  5
EC2
  8
0
  0
POLYLINE
  5
8B8
  8
0
 66
     1
 10
0.0
 20
0.0
 30
0.0
 70
   129
1001
REVIT
1002
{
1070
     3
1000
450041
1002
}
  0
VERTEX
  5
EC3
  8
0
 10
601.78313404069718
 20
-204.8809486745582
 30
0.0
  0
VERTEX
  5
EC4
  8
0
 10
605.38444526345472
 20
-213.2349550413567
 30
0.0
  0
VERTEX
  5
EC5
  8
0
 10
608.36009806810853
 20
-211.0425652243033
 30
0.0
  0
VERTEX
  5
EC6
  8
0
 10
604.75878684535019
 20
-202.6885588575054
 30
0.0
  0
SEQEND
  5
EC7
  8
0
  0
POLYLINE
  5
8B9
  8
0
 66
     1
 10
0.0
 20
0.0
 30
0.0
 70
   129
1001
REVIT
1002
{
1070
     3
1000
450041
1002
}
  0
VERTEX
  5
EC8
  8
0
 10
764.71339477580545
 20
71.427634267464498
 30
0.0
  0
VERTEX
  5
EC9
  8
0
 10
602.63956822189016
 20
-201.0608202256719
 30
0.0
  0
VERTEX
  5
ECA
  8
0
 10
605.61522102654385
 20
-198.86843040861839
 30
0.0
  0
VERTEX
  5
ECB
  8
0
 10
767.68904758045903
 20
73.62002408451778
 30
0.0
  0
SEQEND
  5
ECC
  8
0
  0
POLYLINE
  5
8BA
  8
0
 66
     1
 10
0.0
 20
0.0
 30
0.0
 70
   128
1001
REVIT
1002
{
1070
     3
1000
450041
1002
}
  0
VERTEX
  5
ECD
  8
0
 10
752.7640985810641
 20
77.354957258327858
 30
0.0
  0
VERTEX
  5
ECE
  8
0
 10
592.06720393711714
 20
-192.81851488344961
 30
0.0
  0
VERTEX
  5
ECF
  8
0
 10
593.60715766258181
 20
-197.0268696064627
 30
0.0
  0
VERTEX
  5
ED0
  8
0
 10
754.56549114570555
 20
73.586149541432462
 30
0.0
  0
SEQEND
  5
ED1
  8
0
  0
POLYLINE
  5
8BB
  8
0
 66
     1
 10
0.0
 20
0.0
 30
0.0
 70
   129
1001
REVIT
1002
{
1070
     3
1000
450041
1002
}
  0
VERTEX
  5
ED2
  8
0
 10
573.90283071308681
 20
-193.0136465369086
 30
0.0
  0
VERTEX
  5
ED3
  8
0
 10
577.5041419358447
 20
-201.3676529037067
 30
0.0
  0
VERTEX
  5
ED4
  8
0
 10
587.95170372185225
 20
-200.10229614899791
 30
0.0
  0
VERTEX
  5
ED5
  8
0
 10
584.35039249909391
 20
-191.7482897822
 30
0.0
  0
SEQEND
  5
ED6
  8
0
  0
POLYLINE
  5
8BC
  8
0
 66
     1
 10
0.0
 20
0.0
 30
0.0
 70
   128
1001
REVIT
1002
{
1070
     3
1000
450041
1002
}
  0
VERTEX
  5
ED7
  8
0
 10
747.18024321521204
 20
84.391477679419793
 30
0.0
  0
VERTEX
  5
ED8
  8
0
 10
585.20682668028746
 20
-187.92816133331351
 30
0.0
  0
VERTEX
  5
ED9
  8
0
 10
574.75926489427968
 20
-189.19351808802239
 30
0.0
  0
VERTEX
  5
EDA
  8
0
 10
736.83309144819532
 20
83.294936405114484
 30
0.0
  0
VERTEX
  5
EDB
  8
0
 10
746.72604909577933
 20
84.493122263195104
 30
0.0
  0
SEQEND
  5
EDC
  8
0
  0
POLYLINE
  5
8BD
  8
0
 66
     1
 10
0.0
 20
0.0
 30
0.0
 70
   129
1001
REVIT
1002
{
1070
     3
1000
450041
1002
}
  0
VERTEX
  5
EDD
  8
0
 10
493.43852837714439
 20
-151.14946582963779
 30
0.0
  0
VERTEX
  5
EDE
  8
0
 10
497.03983959990319
 20
-159.50347219643569
 30
0.0
  0
VERTEX
  5
EDF
  8
0
 10
505.0684499551171
 20
-169.01891414759911
 30
0.0
  0
VERTEX
  5
EE0
  8
0
 10
501.46713873235859
 20
-160.66490778080171
 30
0.0
  0
SEQEND
  5
EE1
  8
0
  0
POLYLINE
  5
8BE
  8
0
 66
     1
 10
0.0
 20
0.0
 30
0.0
 70
   128
1001
REVIT
1002
{
1070
     3
1000
450041
1002
}
  0
VERTEX
  5
EE2
  8
0
 10
655.50300683623664
 20
123.70351086592549
 30
0.0
  0
VERTEX
  5
EE3
  8
0
 10
494.29496255833811
 20
-147.3293373807517
 30
0.0
  0
VERTEX
  5
EE4
  8
0
 10
502.32357291355169
 20
-156.84477933191491
 30
0.0
  0
VERTEX
  5
EE5
  8
0
 10
663.54059771078164
 20
114.2031675144882
 30
0.0
  0
SEQEND
  5
EE6
  8
0
  0
POLYLINE
  5
8BF
  8
0
 66
     1
 10
0.0
 20
0.0
 30
0.0
 70
   129
1001
REVIT
1002
{
1070
     3
1000
450041
1002
}
  0
VERTEX
  5
EE7
  8
0
 10
482.85816537145769
 20
-151.77210317091061
 30
0.0
  0
VERTEX
  5
EE8
  8
0
 10
486.45947659421518
 20
-160.1261095377088
 30
0.0
  0
VERTEX
  5
EE9
  8
0
 10
489.43512939886892
 20
-157.93371972065529
 30
0.0
  0
VERTEX
  5
EEA
  8
0
 10
485.83381817611041
 20
-149.5797133538577
 30
0.0
  0
SEQEND
  5
EEB
  8
0
  0
POLYLINE
  5
8C0
  8
0
 66
     1
 10
0.0
 20
0.0
 30
0.0
 70
   129
1001
REVIT
1002
{
1070
     3
1000
450041
1002
}
  0
VERTEX
  5
EEC
  8
0
 10
645.78842610656636
 20
124.5364797711126
 30
0.0
  0
VERTEX
  5
EED
  8
0
 10
483.71459955265072
 20
-147.95197472202381
 30
0.0
  0
VERTEX
  5
EEE
  8
0
 10
486.69025235730408
 20
-145.75958490497041
 30
0.0
  0
VERTEX
  5
EEF
  8
0
 10
648.76407891122017
 20
126.7288695881664
 30
0.0
  0
SEQEND
  5
EF0
  8
0
  0
POLYLINE
  5
8C1
  8
0
 66
     1
 10
0.0
 20
0.0
 30
0.0
 70
   128
1001
REVIT
1002
{
1070
     3
1000
450041
1002
}
  0
VERTEX
  5
EF1
  8
0
 10
633.83912991182467
 20
130.46380276197621
 30
0.0
  0
VERTEX
  5
EF2
  8
0
 10
473.1422352678772
 20
-139.7096693798014
 30
0.0
  0
VERTEX
  5
EF3
  8
0
 10
474.6821889933417
 20
-143.9180241028146
 30
0.0
  0
VERTEX
  5
EF4
  8
0
 10
635.64052247646589
 20
126.6949950450806
 30
0.0
  0
SEQEND
  5
EF5
  8
0
  0
POLYLINE
  5
8C2
  8
0
 66
     1
 10
0.0
 20
0.0
 30
0.0
 70
   129
1001
REVIT
1002
{
1070
     3
1000
450041
1002
}
  0
VERTEX
  5
EF6
  8
0
 10
454.97786204384761
 20
-139.9048010332609
 30
0.0
  0
VERTEX
  5
EF7
  8
0
 10
458.57917326660521
 20
-148.2588074000588
 30
0.0
  0
VERTEX
  5
EF8
  8
0
 10
469.02673505261248
 20
-146.99345064535001
 30
0.0
  0
VERTEX
  5
EF9
  8
0
 10
465.42542382985391
 20
-138.63944427855179
 30
0.0
  0
SEQEND
  5
EFA
  8
0
  0
POLYLINE
  5
8C3
  8
0
 66
     1
 10
0.0
 20
0.0
 30
0.0
 70
   128
1001
REVIT
1002
{
1070
     3
1000
450041
1002
}
  0
VERTEX
  5
EFB
  8
0
 10
628.25527454597238
 20
137.5003231830685
 30
0.0
  0
VERTEX
  5
EFC
  8
0
 10
466.2818580110478
 20
-134.81931582966561
 30
0.0
  0
VERTEX
  5
EFD
  8
0
 10
455.83429622504059
 20
-136.0846725843744
 30
0.0
  0
VERTEX
  5
EFE
  8
0
 10
617.90812277895634
 20
136.40378190876299
 30
0.0
  0
VERTEX
  5
EFF
  8
0
 10
627.8010804265399
 20
137.6019677668437
 30
0.0
  0
SEQEND
  5
F00
  8
0
  0
POLYLINE
  5
8C4
  8
0
 66
     1
 10
0.0
 20
0.0
 30
0.0
 70
   129
1001
REVIT
1002
{
1070
     3
1000
450041
1002
}
  0
VERTEX
  5
F01
  8
0
 10
374.51355970790542
 20
-98.040620325989991
 30
0.0
  0
VERTEX
  5
F02
  8
0
 10
378.11487093066359
 20
-106.3946266927872
 30
0.0
  0
VERTEX
  5
F03
  8
0
 10
386.14348128587778
 20
-115.91006864395101
 30
0.0
  0
VERTEX
  5
F04
  8
0
 10
382.54217006311899
 20
-107.5560622771532
 30
0.0
  0
SEQEND
  5
F05
  8
0
  0
POLYLINE
  5
8C5
  8
0
 66
     1
 10
0.0
 20
0.0
 30
0.0
 70
   128
1001
REVIT
1002
{
1070
     3
1000
450041
1002
}
  0
VERTEX
  5
F06
  8
0
 10
536.57803816699743
 20
176.81235636957371
 30
0.0
  0
VERTEX
  5
F07
  8
0
 10
375.36999388909851
 20
-94.220491877103711
 30
0.0
  0
VERTEX
  5
F08
  8
0
 10
383.39860424431231
 20
-103.73593382826689
 30
0.0
  0
VERTEX
  5
F09
  8
0
 10
544.61562904154266
 20
167.31201301813539
 30
0.0
  0
SEQEND
  5
F0A
  8
0
  0
POLYLINE
  5
8C6
  8
0
 66
     1
 10
0.0
 20
0.0
 30
0.0
 70
   129
1001
REVIT
1002
{
1070
     3
1000
450041
1002
}
  0
VERTEX
  5
F0B
  8
0
 10
363.9331967022178
 20
-98.663257667262414
 30
0.0
  0
VERTEX
  5
F0C
  8
0
 10
367.53450792497608
 20
-107.0172640340606
 30
0.0
  0
VERTEX
  5
F0D
  8
0
 10
370.51016072962972
 20
-104.82487421700699
 30
0.0
  0
VERTEX
  5
F0E
  8
0
 10
366.90884950687121
 20
-96.470867850209444
 30
0.0
  0
SEQEND
  5
F0F
  8
0
  0
POLYLINE
  5
8C7
  8
0
 66
     1
 10
0.0
 20
0.0
 30
0.0
 70
   129
1001
REVIT
1002
{
1070
     3
1000
450041
1002
}
  0
VERTEX
  5
F10
  8
0
 10
526.86345743732761
 20
177.64532527476061
 30
0.0
  0
VERTEX
  5
F11
  8
0
 10
364.78963088341118
 20
-94.843129218375793
 30
0.0
  0
VERTEX
  5
F12
  8
0
 10
367.76528368806493
 20
-92.650739401322298
 30
0.0
  0
VERTEX
  5
F13
  8
0
 10
529.83911024198119
 20
179.8377150918144
 30
0.0
  0
SEQEND
  5
F14
  8
0
  0
POLYLINE
  5
8C8
  8
0
 66
     1
 10
0.0
 20
0.0
 30
0.0
 70
   128
1001
REVIT
1002
{
1070
     3
1000
450041
1002
}
  0
VERTEX
  5
F15
  8
0
 10
514.91416124258524
 20
183.5726482656234
 30
0.0
  0
VERTEX
  5
F16
  8
0
 10
354.21726659863782
 20
-86.600823876153356
 30
0.0
  0
VERTEX
  5
F17
  8
0
 10
355.75722032410238
 20
-90.809178599166586
 30
0.0
  0
VERTEX
  5
F18
  8
0
 10
516.71555380722657
 20
179.80384054872781
 30
0.0
  0
SEQEND
  5
F19
  8
0
  0
POLYLINE
  5
8C9
  8
0
 66
     1
 10
0.0
 20
0.0
 30
0.0
 70
   129
1001
REVIT
1002
{
1070
     3
1000
450041
1002
}
  0
VERTEX
  5
F1A
  8
0
 10
336.05289337460778
 20
-86.795955529612471
 30
0.0
  0
VERTEX
  5
F1B
  8
0
 10
339.65420459736652
 20
-95.149961896410517
 30
0.0
  0
VERTEX
  5
F1C
  8
0
 10
350.1017663833731
 20
-93.884605141701826
 30
0.0
  0
VERTEX
  5
F1D
  8
0
 10
346.50045516061459
 20
-85.530598774903666
 30
0.0
  0
SEQEND
  5
F1E
  8
0
  0
POLYLINE
  5
8CA
  8
0
 66
     1
 10
0.0
 20
0.0
 30
0.0
 70
   128
1001
REVIT
1002
{
1070
     3
1000
450041
1002
}
  0
VERTEX
  5
F1F
  8
0
 10
509.33030587673318
 20
190.609168686716
 30
0.0
  0
VERTEX
  5
F20
  8
0
 10
347.35688934180871
 20
-81.710470326017173
 30
0.0
  0
VERTEX
  5
F21
  8
0
 10
336.90932755580138
 20
-82.975827080725864
 30
0.0
  0
VERTEX
  5
F22
  8
0
 10
498.98315410971719
 20
189.5126274124103
 30
0.0
  0
VERTEX
  5
F23
  8
0
 10
508.8761117573016
 20
190.710813270491
 30
0.0
  0
SEQEND
  5
F24
  8
0
  0
POLYLINE
  5
8CB
  8
0
 66
     1
 10
0.0
 20
0.0
 30
0.0
 70
   128
1001
REVIT
1002
{
1070
     3
1000
450041
1002
}
  0
VERTEX
  5
F25
  8
0
 10
264.1812300065971
 20
-55.755600950892202
 30
0.0
  0
VERTEX
  5
F26
  8
0
 10
263.61720139387921
 20
-54.44721677350536
 30
0.0
  0
VERTEX
  5
F27
  8
0
 10
255.5885910386657
 20
-44.931774822341758
 30
0.0
  0
VERTEX
  5
F28
  8
0
 10
258.15703024982668
 20
-50.889815156978202
 30
0.0
  0
SEQEND
  5
F29
  8
0
  0
POLYLINE
  5
8CC
  8
0
 66
     1
 10
0.0
 20
0.0
 30
0.0
 70
   128
1001
REVIT
1002
{
1070
     3
1000
450041
1002
}
  0
VERTEX
  5
F2A
  8
0
 10
417.65306949775788
 20
229.9212018732218
 30
0.0
  0
VERTEX
  5
F2B
  8
0
 10
256.44502521985902
 20
-41.111646373455542
 30
0.0
  0
VERTEX
  5
F2C
  8
0
 10
264.47363557507271
 20
-50.627088324618683
 30
0.0
  0
VERTEX
  5
F2D
  8
0
 10
425.69066037230277
 20
220.4208585217834
 30
0.0
  0
SEQEND
  5
F2E
  8
0
  0
POLYLINE
  5
8CD
  8
0
 66
     1
 10
0.0
 20
0.0
 30
0.0
 70
   128
1001
REVIT
1002
{
1070
     3
1000
450041
1002
}
  0
VERTEX
  5
F2F
  8
0
 10
246.3652150169776
 20
-41.365488381463898
 30
0.0
  0
VERTEX
  5
F30
  8
0
 10
248.84031501882529
 20
-39.541893897674157
 30
0.0
  0
VERTEX
  5
F31
  8
0
 10
410.91414157274153
 20
232.94656059546199
 30
0.0
  0
VERTEX
  5
F32
  8
0
 10
407.93848876808789
 20
230.75417077840859
 30
0.0
  0
VERTEX
  5
F33
  8
0
 10
246.1752709320032
 20
-41.212069293846817
 30
0.0
  0
SEQEND
  5
F34
  8
0
  0
LINE
  5
8CE
  8
0
 10
238.45327777332949
 20
-34.974964594596599
 30
0.0
 11
397.79058513798702
 21
232.91268605237579
 31
0.0
1001
REVIT
1002
{
1070
     3
1000
450041
1002
}
  0
LINE
  5
8CF
  8
0
 10
235.72225847850919
 20
-32.769102335014722
 30
0.0
 11
395.98919257334541
 21
236.6814937692717
 31
0.0
1001
REVIT
1002
{
1070
     3
1000
450041
1002
}
  0
LINE
  5
8D0
  8
0
 10
229.12336242255111
 20
-27.43913055768288
 30
0.0
 11
390.4053372074938
 21
243.71801419036441
 31
0.0
1001
REVIT
1002
{
1070
     3
1000
450041
1002
}
  0
POLYLINE
  5
8D1
  8
0
 66
     1
 10
0.0
 20
0.0
 30
0.0
 70
   128
1001
REVIT
1002
{
1070
     3
1000
450041
1002
}
  0
VERTEX
  5
F35
  8
0
 10
222.57457377549099
 20
-22.149630864317299
 30
0.0
  0
VERTEX
  5
F36
  8
0
 10
380.05818544047781
 20
242.6214729160591
 30
0.0
  0
VERTEX
  5
F37
  8
0
 10
389.95114308806052
 20
243.81965877413961
 30
0.0
  0
SEQEND
  5
F38
  8
0
  0
LINE
  5
8D2
  8
0
 10
194.08297646146599
 20
0.8632198135994251
 30
0.0
 11
225.64555379378999
 21
53.928160032334013
 31
0.0
1001
REVIT
1002
{
1070
     3
1000
450041
1002
}
  0
LINE
  5
8D3
  8
0
 10
226.9146600990824
 20
56.061859365961773
 30
0.0
 11
341.19208023019809
 21
248.19206482286651
 31
0.0
1001
REVIT
1002
{
1070
     3
1000
450041
1002
}
  0
POLYLINE
  5
8D4
  8
0
 66
     1
 10
0.0
 20
0.0
 30
0.0
 70
   128
1001
REVIT
1002
{
1070
     3
1000
450041
1002
}
  0
VERTEX
  5
F39
  8
0
 10
779.62800427357604
 20
-295.44252361651189
 30
0.0
  0
VERTEX
  5
F3A
  8
0
 10
783.22931549633381
 20
-303.79652998330948
 30
0.0
  0
VERTEX
  5
F3B
  8
0
 10
783.45857162723473
 20
-303.43658876817551
 30
0.0
  0
VERTEX
  5
F3C
  8
0
 10
779.85726040447685
 20
-295.08258240137798
 30
0.0
  0
SEQEND
  5
F3D
  8
0
  0
LINE
  5
8D5
  8
0
 10
942.55826500868386
 20
-19.133940674488901
 30
0.0
 11
780.48443845476834
 21
-291.62239516762543
 31
0.0
1001
REVIT
1002
{
1070
     3
1000
450041
1002
}
  0
LINE
  5
8D6
  8
0
 10
939.58445537178818
 20
-8.9173806978457471
 30
0.0
 11
943.04765596936602
 21
-16.951010132267399
 31
0.0
1001
REVIT
1002
{
1070
     3
1000
450041
1002
}
  0
POLYLINE
  5
8D7
  8
0
 66
     1
 10
0.0
 20
0.0
 30
0.0
 70
   128
1001
REVIT
1002
{
1070
     3
1000
450041
1002
}
  0
VERTEX
  5
F3E
  8
0
 10
940.79249342405194
 20
-4.1915783982691606
 30
0.0
  0
VERTEX
  5
F3F
  8
0
 10
956.8431753471466
 20
22.793812172055681
 30
0.0
  0
VERTEX
  5
F40
  8
0
 10
956.73626695641497
 20
22.97960359247703
 30
0.0
  0
VERTEX
  5
F41
  8
0
 10
940.6855850333219
 20
-4.0057869778488131
 30
0.0
  0
SEQEND
  5
F42
  8
0
  0
LINE
  5
8D8
  8
0
 10
943.27691210026728
 20
-16.591068917134081
 30
0.0
 11
939.81371150268944
 21
-8.5574394827125424
 31
0.0
1001
REVIT
1002
{
1070
     3
1000
450041
1002
}
  0
LINE
  5
8D9
  8
0
 10
780.59134684549815
 20
-291.80818658804611
 30
0.0
 11
942.66517339941356
 21
-19.319732094909661
 31
0.0
1001
REVIT
1002
{
1070
     3
1000
450041
1002
}
  0
POLYLINE
  5
8DA
  8
0
 66
     1
 10
0.0
 20
0.0
 30
0.0
 70
   128
1001
REVIT
1002
{
1070
     3
1000
450041
1002
}
  0
VERTEX
  5
F43
  8
0
 10
479.48386348464089
 20
534.74369279740279
 30
0.0
  0
VERTEX
  5
F44
  8
0
 10
490.05205911929778
 20
521.28398821092264
 30
0.0
  0
VERTEX
  5
F45
  8
0
 10
496.82241890715181
 20
533.53929816623418
 30
0.0
  0
SEQEND
  5
F46
  8
0
  0
POLYLINE
  5
8DB
  8
0
 66
     1
 10
0.0
 20
0.0
 30
0.0
 70
   128
1001
REVIT
1002
{
1070
     3
1000
450041
1002
}
  0
VERTEX
  5
F47
  8
0
 10
178.77830625854929
 20
13.224902669516769
 30
0.0
  0
VERTEX
  5
F48
  8
0
 10
178.77830625854929
 20
18.0195402541618
 30
0.0
  0
VERTEX
  5
F49
  8
0
 10
177.27292690830569
 20
20.213370509209909
 30
0.0
  0
VERTEX
  5
F4A
  8
0
 10
177.27292690830569
 20
94.226611505183598
 30
0.0
  0
VERTEX
  5
F4B
  8
0
 10
176.52023723318391
 20
94.562743438750942
 30
0.0
  0
VERTEX
  5
F4C
  8
0
 10
176.52023723318391
 20
20.005990431001031
 30
0.0
  0
VERTEX
  5
F4D
  8
0
 10
178.02561658342751
 20
17.81216017595338
 30
0.0
  0
VERTEX
  5
F4E
  8
0
 10
178.02561658342751
 20
13.832855074202101
 30
0.0
  0
SEQEND
  5
F4F
  8
0
  0
LINE
  5
8DC
  8
0
 10
176.52023723318399
 20
94.562743438751198
 30
0.0
 11
335.88200643329742
 21
383.03011264384219
 31
0.0
1001
REVIT
1002
{
1070
     3
1000
450041
1002
}
  0
LINE
  5
8DD
  8
0
 10
177.27292690830581
 20
94.226611505183854
 30
0.0
 11
335.88200643329742
 21
381.33150581118173
 31
0.0
1001
REVIT
1002
{
1070
     3
1000
450041
1002
}
  0
LINE
  5
8DE
  8
0
 10
177.27292690830589
 20
20.21337050921019
 30
0.0
 11
550.30847784988464
 21
695.46054265225325
 31
0.0
1001
REVIT
1002
{
1070
     3
1000
450041
1002
}
  0
LINE
  5
8DF
  8
0
 10
178.77830625854929
 20
18.0195402541618
 30
0.0
 11
551.32891586737435
 21
692.38889991319138
 31
0.0
1001
REVIT
1002
{
1070
     3
1000
450041
1002
}
  0
LINE
  5
8E0
  8
0
 10
187.4880744363285
 20
6.189965585949305
 30
0.0
 11
563.55707769600485
 21
686.92811598684489
 31
0.0
1001
REVIT
1002
{
1070
     3
1000
450041
1002
}
  0
LINE
  5
8E1
  8
0
 10
187.51949182926609
 20
-128.08375153428409
 30
0.0
 11
922.47904150676743
 21
-456.29786512226542
 31
0.0
1001
REVIT
1002
{
1070
     3
1000
450041
1002
}
  0
LINE
  5
8E2
  8
0
 10
174.5640692891921
 20
-40.813220743487349
 30
0.0
 11
152.80113364118421
 21
34.356836639037333
 31
0.0
1001
REVIT
1002
{
1070
     3
1000
450041
1002
}
  0
LINE
  5
8E3
  8
0
 10
282.86227077284241
 20
-94.911226500366752
 30
0.0
 11
176.44491312606581
 21
-43.048216719744147
 31
0.0
1001
REVIT
1002
{
1070
     3
1000
450041
1002
}
  0
LINE
  5
8E4
  8
0
 10
327.42093041888018
 20
-125.1936900420951
 30
0.0
 11
284.57115579781612
 21
-95.910898389344084
 31
0.0
1001
REVIT
1002
{
1070
     3
1000
450041
1002
}
  0
LINE
  5
8E5
  8
0
 10
1029.9473691218041
 20
306.5519793752498
 30
0.0
 11
1026.3460578990459
 21
314.90598574204739
 31
0.0
1001
REVIT
1002
{
1070
     3
1000
450041
1002
}
  0
LINE
  5
8E6
  8
0
 10
1189.7657095948371
 20
593.39749922629221
 30
0.0
 11
1186.3025089972591
 21
601.43112866071363
 31
0.0
1001
REVIT
1002
{
1070
     3
1000
450041
1002
}
  0
LINE
  5
8E7
  8
0
 10
1024.6126103725619
 20
319.60037838534851
 30
0.0
 11
1026.152564098026
 21
315.39202366233582
 31
0.0
1001
REVIT
1002
{
1070
     3
1000
450041
1002
}
  0
LINE
  5
8E8
  8
0
 10
1184.5624437584349
 20
606.14216986586678
 30
0.0
 11
1186.1023974838999
 21
601.933815142855
 31
0.0
1001
REVIT
1002
{
1070
     3
1000
450041
1002
}
  0
LINE
  5
8E9
  8
0
 10
911.02240045256463
 20
359.66082487889821
 30
0.0
 11
907.42108922980628
 21
368.01483124569609
 31
0.0
1001
REVIT
1002
{
1070
     3
1000
450041
1002
}
  0
LINE
  5
8EA
  8
0
 10
905.68764170332167
 20
372.70922388899692
 30
0.0
 11
907.22759542878634
 21
368.50086916598389
 31
0.0
1001
REVIT
1002
{
1070
     3
1000
450041
1002
}
  0
LINE
  5
8EB
  8
0
 10
792.09743178332496
 20
412.76967038254628
 30
0.0
 11
788.49612056056674
 21
421.12367674934438
 31
0.0
1001
REVIT
1002
{
1070
     3
1000
450041
1002
}
  0
LINE
  5
8EC
  8
0
 10
786.76267303408201
 20
425.81806939264533
 30
0.0
 11
788.30262675954646
 21
421.60971466963161
 31
0.0
1001
REVIT
1002
{
1070
     3
1000
450041
1002
}
  0
LINE
  5
8ED
  8
0
 10
673.1724631140853
 20
465.87851588619418
 30
0.0
 11
669.57115189132708
 21
474.23252225299228
 31
0.0
1001
REVIT
1002
{
1070
     3
1000
450041
1002
}
  0
LINE
  5
8EE
  8
0
 10
667.83770436484235
 20
478.92691489629311
 30
0.0
 11
669.37765809030702
 21
474.71856017327963
 31
0.0
1001
REVIT
1002
{
1070
     3
1000
450041
1002
}
  0
LINE
  5
8EF
  8
0
 10
554.24749444484564
 20
518.98736138984225
 30
0.0
 11
550.6461832220873
 21
527.34136775664001
 31
0.0
1001
REVIT
1002
{
1070
     3
1000
450041
1002
}
  0
LINE
  5
8F0
  8
0
 10
548.91273569560269
 20
532.03576039994107
 30
0.0
 11
550.45268942106759
 21
527.82740567692792
 31
0.0
1001
REVIT
1002
{
1070
     3
1000
450041
1002
}
  0
LINE
  5
8F1
  8
0
 10
872.69735215151184
 20
21.907180747825731
 30
0.0
 11
869.0960409287535
 21
30.261187114623478
 31
0.0
1001
REVIT
1002
{
1070
     3
1000
450041
1002
}
  0
LINE
  5
8F2
  8
0
 10
867.36259340226934
 20
34.955579757924639
 30
0.0
 11
868.9025471277339
 21
30.74722503491201
 31
0.0
1001
REVIT
1002
{
1070
     3
1000
450041
1002
}
  0
LINE
  5
8F3
  8
0
 10
753.7723834822724
 20
75.016026251474358
 30
0.0
 11
750.17107225951395
 21
83.370032618272234
 31
0.0
1001
REVIT
1002
{
1070
     3
1000
450041
1002
}
  0
LINE
  5
8F4
  8
0
 10
748.43762473302934
 20
88.064425261573064
 30
0.0
 11
749.97757845849378
 21
83.856070538560004
 31
0.0
1001
REVIT
1002
{
1070
     3
1000
450041
1002
}
  0
LINE
  5
8F5
  8
0
 10
634.84741481303263
 20
128.12487175512251
 30
0.0
 11
631.24610359027452
 21
136.4788781219205
 31
0.0
1001
REVIT
1002
{
1070
     3
1000
450041
1002
}
  0
LINE
  5
8F6
  8
0
 10
629.51265606378945
 20
141.1732707652215
 30
0.0
 11
631.05260978925435
 21
136.9649160422079
 31
0.0
1001
REVIT
1002
{
1070
     3
1000
450041
1002
}
  0
LINE
  5
8F7
  8
0
 10
515.92244614379285
 20
181.23371725877041
 30
0.0
 11
512.32113492103451
 21
189.58772362556849
 31
0.0
1001
REVIT
1002
{
1070
     3
1000
450041
1002
}
  0
LINE
  5
8F8
  8
0
 10
510.58768739455007
 20
194.2821162688694
 30
0.0
 11
512.1276411200148
 21
190.07376154585589
 31
0.0
1001
REVIT
1002
{
1070
     3
1000
450041
1002
}
  0
LINE
  5
8F9
  8
0
 10
396.99747747455331
 20
234.3425627624184
 30
0.0
 11
393.39616625179491
 21
242.69656912921641
 31
0.0
1001
REVIT
1002
{
1070
     3
1000
450041
1002
}
  0
LINE
  5
8FA
  8
0
 10
391.66271872531041
 20
247.39096177251739
 30
0.0
 11
393.20267245077503
 21
243.18260704950401
 31
0.0
1001
REVIT
1002
{
1070
     3
1000
450041
1002
}
  0
LINE
  5
8FB
  8
0
 10
715.44733518121905
 20
-262.73761787959808
 30
0.0
 11
711.84602395846071
 21
-254.38361151280029
 31
0.0
1001
REVIT
1002
{
1070
     3
1000
450041
1002
}
  0
LINE
  5
8FC
  8
0
 10
710.11257643197644
 20
-249.68921886949909
 30
0.0
 11
711.65253015744099
 21
-253.89757359251189
 31
0.0
1001
REVIT
1002
{
1070
     3
1000
450041
1002
}
  0
LINE
  5
8FD
  8
0
 10
596.52236651197961
 20
-209.6287723759495
 30
0.0
 11
592.92105528922104
 21
-201.2747660091517
 31
0.0
1001
REVIT
1002
{
1070
     3
1000
450041
1002
}
  0
LINE
  5
8FE
  8
0
 10
591.18760776273666
 20
-196.58037336585079
 30
0.0
 11
592.72756148820099
 21
-200.78872808886379
 31
0.0
1001
REVIT
1002
{
1070
     3
1000
450041
1002
}
  0
LINE
  5
8FF
  8
0
 10
477.59739784274001
 20
-156.5199268723014
 30
0.0
 11
473.99608661998172
 21
-148.16592050550329
 31
0.0
1001
REVIT
1002
{
1070
     3
1000
450041
1002
}
  0
LINE
  5
900
  8
0
 10
472.26263909349677
 20
-143.47152786220229
 30
0.0
 11
473.80259281896161
 21
-147.67988258521601
 31
0.0
1001
REVIT
1002
{
1070
     3
1000
450041
1002
}
  0
LINE
  5
901
  8
0
 10
358.67242917350029
 20
-103.4110813686533
 30
0.0
 11
355.07111795074178
 21
-95.057075001855267
 31
0.0
1001
REVIT
1002
{
1070
     3
1000
450041
1002
}
  0
LINE
  5
902
  8
0
 10
353.33767042425728
 20
-90.362682358554395
 30
0.0
 11
354.87762414972212
 21
-94.57103708156788
 31
0.0
1001
REVIT
1002
{
1070
     3
1000
450041
1002
}
  0
POLYLINE
  5
903
  8
0
 66
     1
 10
0.0
 20
0.0
 30
0.0
 70
   128
1001
REVIT
1002
{
1070
     3
1000
450041
1002
}
  0
VERTEX
  5
F50
  8
0
 10
639.29648212095503
 20
1047.518502726964
 30
0.0
  0
VERTEX
  5
F51
  8
0
 10
1030.7035451377239
 20
872.72613177741755
 30
0.0
  0
VERTEX
  5
F52
  8
0
 10
1030.7035451377239
 20
709.94105358757042
 30
0.0
  0
VERTEX
  5
F53
  8
0
 10
918.25336151172519
 20
760.15842590120099
 30
0.0
  0
SEQEND
  5
F54
  8
0
  0
POLYLINE
  5
904
  8
0
 66
     1
 10
0.0
 20
0.0
 30
0.0
 70
   128
1001
REVIT
1002
{
1070
     3
1000
450041
1002
}
  0
VERTEX
  5
F55
  8
0
 10
550.30847784988441
 20
883.04039988895431
 30
0.0
  0
VERTEX
  5
F56
  8
0
 10
639.44702005597935
 20
1044.3937840414619
 30
0.0
  0
VERTEX
  5
F57
  8
0
 10
918.25336151172428
 20
919.88601179228215
 30
0.0
  0
VERTEX
  5
F58
  8
0
 10
918.25336151172428
 20
748.70979315203977
 30
0.0
  0
VERTEX
  5
F59
  8
0
 10
911.10402965821231
 20
735.76849009228806
 30
0.0
  0
VERTEX
  5
F5A
  8
0
 10
911.10402965821231
 20
906.94470873253056
 30
0.0
  0
VERTEX
  5
F5B
  8
0
 10
647.35148170490208
 20
1024.7298423103621
 30
0.0
  0
VERTEX
  5
F5C
  8
0
 10
911.10402965821231
 20
906.94470873253022
 30
0.0
  0
VERTEX
  5
F5D
  8
0
 10
918.25336151172428
 20
919.88601179228215
 30
0.0
  0
SEQEND
  5
F5E
  8
0
  0
POLYLINE
  5
905
  8
0
 66
     1
 10
0.0
 20
0.0
 30
0.0
 70
   128
1001
REVIT
1002
{
1070
     3
1000
450041
1002
}
  0
VERTEX
  5
F5F
  8
0
 10
911.76101135108115
 20
736.95771999045667
 30
0.0
  0
VERTEX
  5
F60
  8
0
 10
1111.6638647909849
 20
647.68622487990774
 30
0.0
  0
VERTEX
  5
F61
  8
0
 10
1121.684152093258
 20
662.84563494600377
 30
0.0
  0
VERTEX
  5
F62
  8
0
 10
918.25336151172519
 20
753.69261643841253
 30
0.0
  0
SEQEND
  5
F63
  8
0
  0
POLYLINE
  5
906
  8
0
 66
     1
 10
0.0
 20
0.0
 30
0.0
 70
   128
1001
REVIT
1002
{
1070
     3
1000
450041
1002
}
  0
VERTEX
  5
F64
  8
0
 10
911.67621029670329
 20
736.80421807349785
 30
0.0
  0
VERTEX
  5
F65
  8
0
 10
1111.7267473579291
 20
647.46677123963934
 30
0.0
  0
VERTEX
  5
F66
  8
0
 10
1121.844700979012
 20
662.77393792506132
 30
0.0
  0
VERTEX
  5
F67
  8
0
 10
1121.844700979012
 20
711.37393792506145
 30
0.0
  0
VERTEX
  5
F68
  8
0
 10
1031.1249520650831
 20
751.88705458267168
 30
0.0
  0
SEQEND
  5
F69
  8
0
  0
POLYLINE
  5
907
  8
0
 66
     1
 10
0.0
 20
0.0
 30
0.0
 70
   128
1001
REVIT
1002
{
1070
     3
1000
450041
1002
}
  0
VERTEX
  5
F6A
  8
0
 10
1121.684152093258
 20
662.84563494600354
 30
0.0
  0
VERTEX
  5
F6B
  8
0
 10
1121.684152093258
 20
711.13104804362774
 30
0.0
  0
VERTEX
  5
F6C
  8
0
 10
1121.844700979012
 20
711.37393792506145
 30
0.0
  0
SEQEND
  5
F6D
  8
0
  0
LINE
  5
908
  8
0
 10
1111.6638647909849
 20
647.68622487990774
 30
0.0
 11
1111.7267473579291
 21
647.46677123963934
 31
0.0
1001
REVIT
1002
{
1070
     3
1000
450041
1002
}
  0
LINE
  5
909
  8
0
 10
1031.1249520650831
 20
751.57246768029586
 30
0.0
 11
1121.684152093258
 21
711.13104804362774
 31
0.0
1001
REVIT
1002
{
1070
     3
1000
450041
1002
}
  0
LINE
  5
90A
  8
0
 10
1031.1249520650831
 20
710.3820378501897
 30
0.0
 11
1031.1249520650831
 21
873.16711604003649
 31
0.0
1001
REVIT
1002
{
1070
     3
1000
450041
1002
}
  0
POLYLINE
  5
929
  8
0
 62
   250
 66
     1
 10
0.0
 20
0.0
 30
0.0
 70
   128
1001
REVIT
1002
{
1070
     3
1000
274314
1002
}
  0
VERTEX
  5
F6E
  8
0
 62
   250
 10
2005.635151686294
 20
110.48173590992459
 30
0.0
  0
VERTEX
  5
F6F
  8
0
 62
   250
 10
2025.7089671247561
 20
88.489782290522513
 30
0.0
  0
VERTEX
  5
F70
  8
0
 62
   250
 10
2025.7089671247561
 20
81.717133437157074
 30
0.0
  0
VERTEX
  5
F71
  8
0
 62
   250
 10
2027.11723449489
 20
80.819209349013036
 30
0.0
  0
SEQEND
  5
F72
  8
0
 62
   250
  0
LINE
  5
92A
  8
0
 62
   250
 10
1920.868794562434
 20
334.94884274087991
 30
0.0
 11
1839.715648351855
 21
279.9519706684365
 31
0.0
1001
REVIT
1002
{
1070
     3
1000
274314
1002
}
  0
POLYLINE
  5
92B
  8
0
 62
   250
 66
     1
 10
0.0
 20
0.0
 30
0.0
 70
   128
1001
REVIT
1002
{
1070
     3
1000
274314
1002
}
  0
VERTEX
  5
F73
  8
0
 62
   250
 10
1886.5577774955859
 20
207.39936644112669
 30
0.0
  0
VERTEX
  5
F74
  8
0
 62
   250
 10
1840.419782036922
 20
197.61111150805721
 30
0.0
  0
VERTEX
  5
F75
  8
0
 62
   250
 10
1840.419782036922
 20
279.15074918751941
 30
0.0
  0
VERTEX
  5
F76
  8
0
 62
   250
 10
1921.5729282475011
 20
334.14762125996339
 30
0.0
  0
VERTEX
  5
F77
  8
0
 62
   250
 10
1921.5729282475011
 20
224.79820137770369
 30
0.0
  0
VERTEX
  5
F78
  8
0
 62
   250
 10
1889.817349295535
 20
203.27768621892159
 30
0.0
  0
VERTEX
  5
F79
  8
0
 62
   250
 10
1889.817349295535
 20
204.50026601274479
 30
0.0
  0
SEQEND
  5
F7A
  8
0
 62
   250
  0
POLYLINE
  5
92C
  8
0
 62
   250
 66
     1
 10
0.0
 20
0.0
 30
0.0
 70
   128
1001
REVIT
1002
{
1070
     3
1000
274314
1002
}
  0
VERTEX
  5
F7B
  8
0
 62
   250
 10
1926.508047431767
 20
333.65689149799363
 30
0.0
  0
VERTEX
  5
F7C
  8
0
 62
   250
 10
2064.5182497049832
 20
176.6174812383116
 30
0.0
  0
VERTEX
  5
F7D
  8
0
 62
   250
 10
2063.8125701727172
 20
176.1392475681165
 30
0.0
  0
VERTEX
  5
F7E
  8
0
 62
   250
 10
1925.8023678995021
 20
333.1786578277983
 30
0.0
  0
SEQEND
  5
F7F
  8
0
 62
   250
  0
POLYLINE
  5
92D
  8
0
 62
   250
 66
     1
 10
0.0
 20
0.0
 30
0.0
 70
   128
1001
REVIT
1002
{
1070
     3
1000
274314
1002
}
  0
VERTEX
  5
F80
  8
0
 62
   250
 10
2027.822914027156
 20
82.928109998235456
 30
0.0
  0
VERTEX
  5
F81
  8
0
 62
   250
 10
2063.1084364876501
 20
106.8408411169229
 30
0.0
  0
VERTEX
  5
F82
  8
0
 62
   250
 10
2063.1084364876501
 20
112.5865164963696
 30
0.0
  0
VERTEX
  5
F83
  8
0
 62
   250
 10
2025.9356473377311
 20
153.3113232674101
 30
0.0
  0
SEQEND
  5
F84
  8
0
 62
   250
  0
POLYLINE
  5
92E
  8
0
 62
   250
 66
     1
 10
0.0
 20
0.0
 30
0.0
 70
   128
1001
REVIT
1002
{
1070
     3
1000
274314
1002
}
  0
VERTEX
  5
F85
  8
0
 62
   250
 10
2024.004842069327
 20
155.0384996929352
 30
0.0
  0
VERTEX
  5
F86
  8
0
 62
   250
 10
1925.8023678995
 20
224.8860162560733
 30
0.0
  0
VERTEX
  5
F87
  8
0
 62
   250
 10
1925.8023678995
 20
333.17865782779847
 30
0.0
  0
SEQEND
  5
F88
  8
0
 62
   250
  0
POLYLINE
  5
92F
  8
0
 62
   250
 66
     1
 10
0.0
 20
0.0
 30
0.0
 70
   128
1001
REVIT
1002
{
1070
     3
1000
274314
1002
}
  0
VERTEX
  5
F89
  8
0
 62
   250
 10
1998.234859069747
 20
133.7732030256731
 30
0.0
  0
VERTEX
  5
F8A
  8
0
 62
   250
 10
2022.939480629319
 20
150.515337803595
 30
0.0
  0
VERTEX
  5
F8B
  8
0
 62
   250
 10
2060.9913978908521
 20
108.8273985022493
 30
0.0
  0
VERTEX
  5
F8C
  8
0
 62
   250
 10
2029.235818938886
 20
87.306883343467305
 30
0.0
  0
VERTEX
  5
F8D
  8
0
 62
   250
 10
2027.822914027156
 20
88.854797310428438
 30
0.0
  0
SEQEND
  5
F8E
  8
0
 62
   250
  0
POLYLINE
  5
930
  8
0
 62
   250
 66
     1
 10
0.0
 20
0.0
 30
0.0
 70
   128
1001
REVIT
1002
{
1070
     3
1000
274314
1002
}
  0
VERTEX
  5
F8F
  8
0
 62
   250
 10
1893.0909967503039
 20
200.81388627893591
 30
0.0
  0
VERTEX
  5
F90
  8
0
 62
   250
 10
1923.530253166741
 20
221.4423396326863
 30
0.0
  0
VERTEX
  5
F91
  8
0
 62
   250
 10
2021.732727336567
 20
151.5948230695482
 30
0.0
  0
VERTEX
  5
F92
  8
0
 62
   250
 10
1996.792381585552
 20
134.69293979379779
 30
0.0
  0
SEQEND
  5
F93
  8
0
 62
   250
  0
POLYLINE
  5
931
  8
0
 62
   250
 66
     1
 10
0.0
 20
0.0
 30
0.0
 70
   128
1001
REVIT
1002
{
1070
     3
1000
274314
1002
}
  0
VERTEX
  5
F94
  8
0
 62
   250
 10
1841.999689280427
 20
193.8192041934924
 30
0.0
  0
VERTEX
  5
F95
  8
0
 62
   250
 10
1887.775479378972
 20
203.5306166376821
 30
0.0
  0
VERTEX
  5
F96
  8
0
 62
   250
 10
2025.7856816521869
 20
115.5340559995763
 30
0.0
  0
VERTEX
  5
F97
  8
0
 62
   250
 10
1979.6476861935239
 20
105.7458010665069
 30
0.0
  0
VERTEX
  5
F98
  8
0
 62
   250
 10
1978.4537697074779
 20
106.50705308071041
 30
0.0
  0
SEQEND
  5
F99
  8
0
 62
   250
  0
LINE
  5
932
  8
0
 62
   250
 10
2063.1084364876501
 20
106.8408411169229
 30
0.0
 11
2063.8125701727172
 21
106.3918790728509
 31
0.0
1001
REVIT
1002
{
1070
     3
1000
274314
1002
}
  0
POLYLINE
  5
933
  8
0
 62
   250
 66
     1
 10
0.0
 20
0.0
 30
0.0
 70
   128
1001
REVIT
1002
{
1070
     3
1000
274314
1002
}
  0
VERTEX
  5
F9A
  8
0
 62
   250
 10
2027.822914027156
 20
113.7221182318376
 30
0.0
  0
VERTEX
  5
F9B
  8
0
 62
   250
 10
2027.822914027156
 20
82.001961892897924
 30
0.0
  0
VERTEX
  5
F9C
  8
0
 62
   250
 10
2063.8125701727172
 20
106.3918790728509
 30
0.0
  0
VERTEX
  5
F9D
  8
0
 62
   250
 10
2063.8125701727172
 20
176.1392475681165
 30
0.0
  0
SEQEND
  5
F9E
  8
0
 62
   250
  0
POLYLINE
  5
934
  8
0
 62
   250
 66
     1
 10
0.0
 20
0.0
 30
0.0
 70
   128
1001
REVIT
1002
{
1070
     3
1000
274314
1002
}
  0
VERTEX
  5
F9F
  8
0
 62
   250
 10
2064.5182497049832
 20
176.6174812383116
 30
0.0
  0
VERTEX
  5
FA0
  8
0
 62
   250
 10
2064.5182497049832
 20
106.1655938693566
 30
0.0
  0
VERTEX
  5
FA1
  8
0
 62
   250
 10
2027.11723449489
 20
80.819209349013036
 30
0.0
  0
VERTEX
  5
FA2
  8
0
 62
   250
 10
2027.11723449489
 20
113.2438845616425
 30
0.0
  0
VERTEX
  5
FA3
  8
0
 62
   250
 10
2025.004508114758
 20
114.59097812399391
 30
0.0
  0
SEQEND
  5
FA4
  8
0
 62
   250
  0
LINE
  5
935
  8
0
 62
   250
 10
2025.487448594916
 20
114.6934347758333
 30
0.0
 11
1979.349453136251
 21
104.9051798427638
 31
0.0
1001
REVIT
1002
{
1070
     3
1000
274314
1002
}
  0
POLYLINE
  5
936
  8
0
 62
   250
 66
     1
 10
0.0
 20
0.0
 30
0.0
 70
   128
1001
REVIT
1002
{
1070
     3
1000
274314
1002
}
  0
VERTEX
  5
FA5
  8
0
 62
   250
 10
1839.709464963061
 20
194.35129069506081
 30
0.0
  0
VERTEX
  5
FA6
  8
0
 62
   250
 10
1840.415144495327
 20
194.82952436525599
 30
0.0
  0
VERTEX
  5
FA7
  8
0
 62
   250
 10
1840.415144495327
 20
275.3123837341837
 30
0.0
  0
VERTEX
  5
FA8
  8
0
 62
   250
 10
1839.7094649630619
 20
274.83415006398877
 30
0.0
  0
VERTEX
  5
FA9
  8
0
 62
   250
 10
1839.7094649630619
 20
194.35129069506081
 30
0.0
  0
VERTEX
  5
FAA
  8
0
 62
   250
 10
1977.719667236277
 20
106.35473005695469
 30
0.0
  0
VERTEX
  5
FAB
  8
0
 62
   250
 10
1978.425346768543
 20
106.8329637271499
 30
0.0
  0
VERTEX
  5
FAC
  8
0
 62
   250
 10
1840.415144495327
 20
194.82952436525599
 30
0.0
  0
SEQEND
  5
FAD
  8
0
 62
   250
  0
LINE
  5
937
  8
0
 62
   250
 10
2025.708967124755
 20
87.607971288898185
 30
0.0
 11
2004.960832664395
 21
110.3386779719502
 31
0.0
1001
REVIT
1002
{
1070
     3
1000
274314
1002
}
  0
LINE
  5
938
  8
0
 62
   250
 10
1838.5446267502909
 20
196.17855721291031
 30
0.0
 11
1838.5446267502909
 21
277.65666365188241
 31
0.0
1001
REVIT
1002
{
1070
     3
1000
274314
1002
}
  0
LINE
  5
939
  8
0
 62
   250
 10
1840.283793007399
 20
193.03671650874389
 30
0.0
 11
1978.2939952806139
 21
105.0401558706379
 31
0.0
1001
REVIT
1002
{
1070
     3
1000
274314
1002
}
  0
LINE
  5
93A
  8
0
 62
   250
 10
2027.105003971735
 20
115.3653359647335
 30
0.0
 11
1889.0948016985189
 21
203.36189660283949
 31
0.0
1001
REVIT
1002
{
1070
     3
1000
274314
1002
}
  0
VIEWPORT
  5
587
 67
     1
  8
0
 10
145.32501220703119
 20
101.8250000476837
 30
0.0
 40
329.64468531468532
 41
222.18000000000001
 68
     1
 69
     1
1001
ACAD
1000
MVIEW
1002
{
1070
    16
1010
0.0
1020
0.0
1030
0.0
1010
0.0
1020
0.0
1030
1.0
1040
0.0
1040
222.18000000000001
1040
145.32501220703119
1040
101.8250000476837
1040
50.0
1040
0.0
1040
0.0
1070
     0
1070
   100
1070
     1
1070
     1
1070
     0
1070
     0
1070
     0
1070
     0
1040
0.0
1040
0.0
1040
0.0
1040
10.0
1040
10.0
1040
10.0
1040
10.0
1070
     0
1002
{
1002
}
1002
}
  0
VIEWPORT
  5
58B
 67
     1
  8
0
 10
145.32500612735751
 20
101.82499849796289
 30
0.0
 40
232.5200098037719
 41
162.9199975967407
 68
     2
 69
     2
1001
ACAD
1000
MVIEW
1002
{
1070
    16
1010
0.0
1020
0.0
1030
0.0
1010
0.0
1020
0.0
1030
1.0
1040
0.0
1040
1655.1083648138931
1040
891.28639089401213
1040
313.85370838968532
1040
50.0
1040
0.0
1040
0.0
1070
     0
1070
  1000
1070
     1
1070
     1
1070
     0
1070
     0
1070
     0
1070
     0
1040
0.0
1040
0.0
1040
0.0
1040
1.0
1040
1.0
1040
0.0
1040
0.0
1070
     0
1002
{
1002
}
1002
}
  0
ENDSEC
  0
EOF
