  0
SECTION
  2
HEADER
  9
$ACADVER
  1
AC1009
  9
$INSBASE
 10
0.0
 20
0.0
 30
0.0
  9
$EXTMIN
 10
-368.63382906946259
 20
-280.99170538482861
 30
0.0
  9
$EXTMAX
 10
863.59605616445435
 20
314.03315859182271
 30
0.0
  9
$LIMMIN
 10
0.0
 20
0.0
  9
$LIMMAX
 10
12.0
 20
9.0
  9
$ORTHOMODE
 70
     0
  9
$REGENMODE
 70
     1
  9
$FILLMODE
 70
     1
  9
$QTEXTMODE
 70
     0
  9
$MIRRTEXT
 70
     0
  9
$DRAGMODE
 70
     2
  9
$LTSCALE
 40
1.0
  9
$OSMODE
 70
     0
  9
$ATTMODE
 70
     1
  9
$TEXTSIZE
 40
0.2
  9
$TRACEWID
 40
0.05
  9
$TEXTSTYLE
  7
STANDARD
  9
$CLAYER
  8
0
  9
$CELTYPE
  6
BYLAYER
  9
$CECOLOR
 62
   256
  9
$DIMSCALE
 40
1.0
  9
$DIMASZ
 40
0.18
  9
$DIMEXO
 40
0.0625
  9
$DIMDLI
 40
0.38
  9
$DIMRND
 40
0.0
  9
$DIMDLE
 40
0.0
  9
$DIMEXE
 40
0.18
  9
$DIMTP
 40
0.0
  9
$DIMTM
 40
0.0
  9
$DIMTXT
 40
0.18
  9
$DIMCEN
 40
0.09
  9
$DIMTSZ
 40
0.0
  9
$DIMTOL
 70
     0
  9
$DIMLIM
 70
     0
  9
$DIMTIH
 70
     1
  9
$DIMTOH
 70
     1
  9
$DIMSE1
 70
     0
  9
$DIMSE2
 70
     0
  9
$DIMTAD
 70
     0
  9
$DIMZIN
 70
     0
  9
$DIMBLK
  1

  9
$DIMASO
 70
     1
  9
$DIMSHO
 70
     1
  9
$DIMPOST
  1

  9
$DIMAPOST
  1

  9
$DIMALT
 70
     0
  9
$DIMALTD
 70
     2
  9
$DIMALTF
 40
25.399999999999999
  9
$DIMLFAC
 40
1.0
  9
$DIMTOFL
 70
     0
  9
$DIMTVP
 40
0.0
  9
$DIMTIX
 70
     0
  9
$DIMSOXD
 70
     0
  9
$DIMSAH
 70
     0
  9
$DIMBLK1
  1

  9
$DIMBLK2
  1

  9
$DIMSTYLE
  2
STANDARD
  9
$DIMCLRD
 70
     0
  9
$DIMCLRE
 70
     0
  9
$DIMCLRT
 70
     0
  9
$DIMTFAC
 40
1.0
  9
$DIMGAP
 40
0.09
  9
$LUNITS
 70
     2
  9
$LUPREC
 70
     4
  9
$SKETCHINC
 40
0.1
  9
$FILLETRAD
 40
0.0
  9
$AUNITS
 70
     0
  9
$AUPREC
 70
     0
  9
$MENU
  1
.
  9
$ELEVATION
 40
0.0
  9
$PELEVATION
 40
0.0
  9
$THICKNESS
 40
0.0
  9
$LIMCHECK
 70
     0
  9
$BLIPMODE
 70
     0
  9
$CHAMFERA
 40
0.0
  9
$CHAMFERB
 40
0.0
  9
$SKPOLY
 70
     0
  9
$TDCREATE
 40
2458389.7580787041
  9
$TDUPDATE
 40
2458390.6731998501
  9
$TDINDWG
 40
0.0001250694
  9
$TDUSRTIMER
 40
0.0001250694
  9
$USRTIMER
 70
     1
  9
$ANGBASE
 50
0.0
  9
$ANGDIR
 70
     0
  9
$PDMODE
 70
     0
  9
$PDSIZE
 40
0.0
  9
$PLINEWID
 40
0.0
  9
$COORDS
 70
     2
  9
$SPLFRAME
 70
     0
  9
$SPLINETYPE
 70
     6
  9
$SPLINESEGS
 70
     8
  9
$ATTDIA
 70
     1
  9
$ATTREQ
 70
     0
  9
$HANDLING
 70
     1
  9
$HANDSEED
  5
76A
  9
$SURFTAB1
 70
     6
  9
$SURFTAB2
 70
     6
  9
$SURFTYPE
 70
     6
  9
$SURFU
 70
     6
  9
$SURFV
 70
     6
  9
$UCSNAME
  2

  9
$UCSORG
 10
0.0
 20
0.0
 30
0.0
  9
$UCSXDIR
 10
1.0
 20
0.0
 30
0.0
  9
$UCSYDIR
 10
0.0
 20
1.0
 30
0.0
  9
$PUCSNAME
  2

  9
$PUCSORG
 10
0.0
 20
0.0
 30
0.0
  9
$PUCSXDIR
 10
1.0
 20
0.0
 30
0.0
  9
$PUCSYDIR
 10
0.0
 20
1.0
 30
0.0
  9
$USERI1
 70
     0
  9
$USERI2
 70
     0
  9
$USERI3
 70
     0
  9
$USERI4
 70
     0
  9
$USERI5
 70
     0
  9
$USERR1
 40
0.0
  9
$USERR2
 40
0.0
  9
$USERR3
 40
0.0
  9
$USERR4
 40
0.0
  9
$USERR5
 40
0.0
  9
$WORLDVIEW
 70
     1
  9
$SHADEDGE
 70
     3
  9
$SHADEDIF
 70
    70
  9
$TILEMODE
 70
     1
  9
$MAXACTVP
 70
    64
  9
$PLIMCHECK
 70
     0
  9
$PEXTMIN
 10
25.699999999999989
 20
19.5
 30
0.0
  9
$PEXTMAX
 10
231.30000000000001
 20
175.5
 30
0.0
  9
$PLIMMIN
 10
-20.0
 20
-7.5
  9
$PLIMMAX
 10
277.0
 20
202.5
  9
$UNITMODE
 70
     0
  9
$VISRETAIN
 70
     1
  9
$PLINEGEN
 70
     0
  9
$PSLTSCALE
 70
     1
  0
ENDSEC
  0
SECTION
  2
TABLES
  0
TABLE
  2
VPORT
 70
     1
  0
VPORT
  2
*ACTIVE
 70
     0
 10
0.0
 20
0.0
 11
1.0
 21
1.0
 12
468.21044755750069
 22
14.63350513919511
 13
0.0
 23
0.0
 14
1.0
 24
1.0
 15
0.0
 25
0.0
 16
0.0
 26
0.0
 36
1.0
 17
0.0
 27
0.0
 37
0.0
 40
592.18266297619653
 41
2.815750371471025
 42
50.0
 43
0.0
 44
0.0
 50
0.0
 51
0.0
 71
     0
 72
  1000
 73
     1
 74
     1
 75
     0
 76
     0
 77
     0
 78
     0
  0
ENDTAB
  0
TABLE
  2
LTYPE
 70
     2
  0
LTYPE
  2
CONTINUOUS
 70
     0
  3
Solid line
 72
    65
 73
     0
 40
0.0
  0
LTYPE
  2
DASH
 70
     0
  3

 72
    65
 73
     2
 40
6.3499999999999996
 49
3.1749999999999998
 49
-3.1749999999999998
  0
ENDTAB
  0
TABLE
  2
LAYER
 70
     7
  0
LAYER
  2
0
 70
     0
 62
     7
  6
CONTINUOUS
  0
ENDTAB
  0
TABLE
  2
STYLE
 70
     8
  0
STYLE
  2
STANDARD
 70
     0
 40
0.0
 41
1.0
 50
0.0
 71
     0
 42
0.2
  3
txt
  4

  0
STYLE
  2
ARIAL
 70
     0
 40
12.5
 41
1.0
 50
0.0
 71
     0
 42
0.2
  3
txt
  4

  0
ENDTAB
  0
TABLE
  2
VIEW
 70
     1
  0
ENDTAB
  0
TABLE
  2
UCS
 70
     0
  0
ENDTAB
  0
TABLE
  2
APPID
 70
     6
  0
APPID
  2
ACAD
 70
     0
  0
APPID
  2
ACADANNOTATIVE
 70
     0
  0
APPID
  2
REVIT
 70
     0
  0
APPID
  2
ACAD_PSEXT
 70
     0
  0
APPID
  2
ACAD_NAV_VCDISPLAY
 70
     0
  0
APPID
  2
ACAD_MLEADERVER
 70
     0
  0
ENDTAB
  0
TABLE
  2
DIMSTYLE
 70
     2
  0
DIMSTYLE
  2
STANDARD
 70
     0
  3

  4

  5

  6

  7

 40
1.0
 41
0.18
 42
0.0625
 43
0.38
 44
0.18
 45
0.0
 46
0.0
 47
0.0
 48
0.0
140
0.18
141
0.09
142
0.0
143
25.399999999999999
144
1.0
145
0.0
146
1.0
147
0.09
 71
     0
 72
     0
 73
     1
 74
     1
 75
     0
 76
     0
 77
     0
 78
     0
170
     0
171
     2
172
     0
173
     0
174
     0
175
     0
176
     0
177
     0
178
     0
  0
ENDTAB
  0
ENDSEC
  0
SECTION
  2
BLOCKS
  0
BLOCK
  8
0
  2
$MODEL_SPACE
 70
     0
 10
0.0
 20
0.0
 30
0.0
  3
$MODEL_SPACE
  1

  0
ENDBLK
  5
72
  8
0
  0
BLOCK
 67
     1
  8
0
  2
$PAPER_SPACE
 70
     0
 10
0.0
 20
0.0
 30
0.0
  3
$PAPER_SPACE
  1

  0
ENDBLK
  5
76
 67
     1
  8
0
  0
BLOCK
  8
0
  2
*U20
 70
     1
 10
0.0
 20
0.0
 30
0.0
  3
*U20
  1

  0
SOLID
  5
3F8
  8
0
  6
CONTINUOUS
 10
-150.51034575045739
 20
120.500000000003
 30
0.0
 11
-151.46705433137009
 21
120.3096988312812
 31
0.0
 12
-149.55363716954469
 22
120.3096988312812
 32
0.0
 13
-149.55363716954469
 23
120.3096988312812
 33
0.0
  0
SOLID
  5
3F9
  8
0
  6
CONTINUOUS
 10
-151.46705433137009
 20
120.3096988312812
 30
0.0
 11
-152.2781127034238
 21
119.7677669529693
 31
0.0
 12
-148.74257879749101
 22
119.7677669529693
 32
0.0
 13
-148.74257879749101
 23
119.7677669529693
 33
0.0
210
0.0
220
0.0
230
1.0
  0
SOLID
  5
3FA
  8
0
  6
CONTINUOUS
 10
151.46705433137009
 20
120.3096988312812
 30
0.0
 11
149.55363716954469
 21
120.3096988312812
 31
0.0
 12
148.74257879749101
 22
119.7677669529693
 32
0.0
 13
148.74257879749101
 23
119.7677669529693
 33
0.0
210
0.0
220
0.0
230
-1.0
  0
SOLID
  5
3FB
  8
0
  6
CONTINUOUS
 10
-152.2781127034238
 20
119.7677669529693
 30
0.0
 11
-152.8200445817356
 21
118.9567085809157
 31
0.0
 12
-148.20064691917921
 22
118.9567085809157
 32
0.0
 13
-148.20064691917921
 23
118.9567085809157
 33
0.0
  0
SOLID
  5
3FC
  8
0
  6
CONTINUOUS
 10
152.2781127034238
 20
119.7677669529693
 30
0.0
 11
148.74257879749101
 21
119.7677669529693
 31
0.0
 12
148.20064691917921
 22
118.9567085809157
 32
0.0
 13
148.20064691917921
 23
118.9567085809157
 33
0.0
210
0.0
220
0.0
230
-1.0
  0
SOLID
  5
3FD
  8
0
  6
CONTINUOUS
 10
-152.8200445817356
 20
118.9567085809157
 30
0.0
 11
-153.01034575045739
 21
118.000000000003
 31
0.0
 12
-148.01034575045739
 22
118.000000000003
 32
0.0
 13
-148.01034575045739
 23
118.000000000003
 33
0.0
210
0.0
220
0.0
230
1.0
  0
SOLID
  5
3FE
  8
0
  6
CONTINUOUS
 10
152.8200445817356
 20
118.9567085809157
 30
0.0
 11
148.20064691917921
 21
118.9567085809157
 31
0.0
 12
148.01034575045739
 22
118.000000000003
 32
0.0
 13
148.01034575045739
 23
118.000000000003
 33
0.0
210
0.0
220
0.0
230
-1.0
  0
SOLID
  5
3FF
  8
0
  6
CONTINUOUS
 10
-153.01034575045739
 20
118.000000000003
 30
0.0
 11
-152.8200445817356
 21
117.0432914190902
 31
0.0
 12
-148.20064691917921
 22
117.0432914190902
 32
0.0
 13
-148.20064691917921
 23
117.0432914190902
 33
0.0
  0
SOLID
  5
400
  8
0
  6
CONTINUOUS
 10
153.01034575045739
 20
118.000000000003
 30
0.0
 11
148.01034575045739
 21
118.000000000003
 31
0.0
 12
148.20064691917921
 22
117.0432914190902
 32
0.0
 13
148.20064691917921
 23
117.0432914190902
 33
0.0
210
0.0
220
0.0
230
-1.0
  0
SOLID
  5
401
  8
0
  6
CONTINUOUS
 10
-152.8200445817356
 20
117.0432914190902
 30
0.0
 11
-152.2781127034238
 21
116.2322330470366
 31
0.0
 12
-148.74257879749101
 22
116.2322330470366
 32
0.0
 13
-148.74257879749101
 23
116.2322330470366
 33
0.0
210
0.0
220
0.0
230
1.0
  0
SOLID
  5
402
  8
0
  6
CONTINUOUS
 10
152.8200445817356
 20
117.0432914190902
 30
0.0
 11
148.20064691917921
 21
117.0432914190902
 31
0.0
 12
148.74257879749101
 22
116.2322330470366
 32
0.0
 13
148.74257879749101
 23
116.2322330470366
 33
0.0
210
0.0
220
0.0
230
-1.0
  0
SOLID
  5
403
  8
0
  6
CONTINUOUS
 10
151.46705433137009
 20
115.6903011687247
 30
0.0
 11
149.55363716954469
 21
115.6903011687247
 31
0.0
 12
150.51034575045739
 22
115.500000000003
 32
0.0
 13
150.51034575045739
 23
115.500000000003
 33
0.0
210
0.0
220
0.0
230
-1.0
  0
SOLID
  5
404
  8
0
  6
CONTINUOUS
 10
-152.2781127034238
 20
116.2322330470366
 30
0.0
 11
-151.46705433137009
 21
115.6903011687247
 31
0.0
 12
-149.55363716954469
 22
115.6903011687247
 32
0.0
 13
-149.55363716954469
 23
115.6903011687247
 33
0.0
210
0.0
220
0.0
230
1.0
  0
SOLID
  5
405
  8
0
  6
CONTINUOUS
 10
152.2781127034238
 20
116.2322330470366
 30
0.0
 11
148.74257879749101
 21
116.2322330470366
 31
0.0
 12
149.55363716954469
 22
115.6903011687247
 32
0.0
 13
149.55363716954469
 23
115.6903011687247
 33
0.0
210
0.0
220
0.0
230
-1.0
  0
LINE
  5
406
  8
0
  6
CONTINUOUS
 10
-150.51034575045739
 20
120.500000000003
 30
0.0
 11
-151.46705433137009
 21
120.3096988312812
 31
0.0
  0
LINE
  5
407
  8
0
  6
CONTINUOUS
 10
-149.55363716954469
 20
120.3096988312812
 30
0.0
 11
-150.51034575045739
 21
120.500000000003
 31
0.0
  0
LINE
  5
408
  8
0
  6
CONTINUOUS
 10
-151.46705433137009
 20
120.3096988312812
 30
0.0
 11
-152.2781127034238
 21
119.7677669529693
 31
0.0
  0
LINE
  5
409
  8
0
  6
CONTINUOUS
 10
-149.55363716954469
 20
120.3096988312812
 30
0.0
 11
-148.74257879749101
 21
119.7677669529693
 31
0.0
  0
LINE
  5
40A
  8
0
  6
CONTINUOUS
 10
-152.2781127034238
 20
119.7677669529693
 30
0.0
 11
-152.8200445817356
 21
118.9567085809157
 31
0.0
  0
LINE
  5
40B
  8
0
  6
CONTINUOUS
 10
-148.74257879749101
 20
119.7677669529693
 30
0.0
 11
-148.20064691917921
 21
118.9567085809157
 31
0.0
  0
LINE
  5
40C
  8
0
  6
CONTINUOUS
 10
-152.8200445817356
 20
118.9567085809157
 30
0.0
 11
-153.01034575045739
 21
118.000000000003
 31
0.0
  0
LINE
  5
40D
  8
0
  6
CONTINUOUS
 10
-148.20064691917921
 20
118.9567085809157
 30
0.0
 11
-148.01034575045739
 21
118.000000000003
 31
0.0
  0
LINE
  5
40E
  8
0
  6
CONTINUOUS
 10
-153.01034575045739
 20
118.000000000003
 30
0.0
 11
-152.8200445817356
 21
117.0432914190902
 31
0.0
  0
LINE
  5
40F
  8
0
  6
CONTINUOUS
 10
-148.01034575045739
 20
118.000000000003
 30
0.0
 11
-148.20064691917921
 21
117.0432914190902
 31
0.0
  0
LINE
  5
410
  8
0
  6
CONTINUOUS
 10
-152.8200445817356
 20
117.0432914190902
 30
0.0
 11
-152.2781127034238
 21
116.2322330470366
 31
0.0
  0
LINE
  5
411
  8
0
  6
CONTINUOUS
 10
-148.20064691917921
 20
117.0432914190902
 30
0.0
 11
-148.74257879749101
 21
116.2322330470366
 31
0.0
  0
LINE
  5
412
  8
0
  6
CONTINUOUS
 10
-149.55363716954469
 20
115.6903011687247
 30
0.0
 11
-150.51034575045739
 21
115.500000000003
 31
0.0
  0
LINE
  5
413
  8
0
  6
CONTINUOUS
 10
-150.51034575045739
 20
115.500000000003
 30
0.0
 11
-151.46705433137009
 21
115.6903011687247
 31
0.0
  0
LINE
  5
414
  8
0
  6
CONTINUOUS
 10
-152.2781127034238
 20
116.2322330470366
 30
0.0
 11
-151.46705433137009
 21
115.6903011687247
 31
0.0
  0
LINE
  5
415
  8
0
  6
CONTINUOUS
 10
-148.74257879749101
 20
116.2322330470366
 30
0.0
 11
-149.55363716954469
 21
115.6903011687247
 31
0.0
  0
ENDBLK
  5
417
  8
0
  0
BLOCK
  8
0
  2
*U21
 70
     1
 10
0.0
 20
0.0
 30
0.0
  3
*U21
  1

  0
TEXT
  5
419
  8
0
 10
-366.78781951966721
 20
202.47151815582399
 30
0.0
 40
12.5
  1
Batten 150x25mm
  7
ARIAL
  0
ENDBLK
  5
41B
  8
0
  0
BLOCK
  8
0
  2
*U22
 70
     1
 10
0.0
 20
0.0
 30
0.0
  3
*U22
  1

  0
SOLID
  5
41D
  8
0
  6
CONTINUOUS
 10
414.80110512497521
 20
-4.3438215980008863
 30
0.0
 11
413.84439654406248
 21
-4.5341227667226649
 31
0.0
 12
415.75781370588783
 22
-4.5341227667226649
 32
0.0
 13
415.75781370588783
 23
-4.5341227667226649
 33
0.0
210
0.0
220
0.0
230
1.0
  0
SOLID
  5
41E
  8
0
  6
CONTINUOUS
 10
413.84439654406248
 20
-4.5341227667226649
 30
0.0
 11
413.03333817200883
 21
-5.0760546450345014
 31
0.0
 12
416.56887207794148
 22
-5.0760546450345014
 32
0.0
 13
416.56887207794148
 23
-5.0760546450345014
 33
0.0
210
0.0
220
0.0
230
1.0
  0
SOLID
  5
41F
  8
0
  6
CONTINUOUS
 10
-413.84439654406248
 20
-4.5341227667226649
 30
0.0
 11
-415.75781370588783
 21
-4.5341227667226649
 31
0.0
 12
-416.56887207794148
 22
-5.0760546450345014
 32
0.0
 13
-416.56887207794148
 23
-5.0760546450345014
 33
0.0
210
0.0
220
0.0
230
-1.0
  0
SOLID
  5
420
  8
0
  6
CONTINUOUS
 10
413.03333817200883
 20
-5.0760546450345014
 30
0.0
 11
412.49140629369703
 21
-5.8871130170881258
 31
0.0
 12
417.11080395625328
 22
-5.8871130170881258
 32
0.0
 13
417.11080395625328
 23
-5.8871130170881258
 33
0.0
210
0.0
220
0.0
230
1.0
  0
SOLID
  5
421
  8
0
  6
CONTINUOUS
 10
-413.03333817200883
 20
-5.0760546450345014
 30
0.0
 11
-416.56887207794148
 21
-5.0760546450345014
 31
0.0
 12
-417.11080395625328
 22
-5.8871130170881258
 32
0.0
 13
-417.11080395625328
 23
-5.8871130170881258
 33
0.0
210
0.0
220
0.0
230
-1.0
  0
SOLID
  5
422
  8
0
  6
CONTINUOUS
 10
412.49140629369703
 20
-5.8871130170881258
 30
0.0
 11
412.30110512497521
 21
-6.8438215980008286
 31
0.0
 12
417.30110512497509
 22
-6.8438215980008286
 32
0.0
 13
417.30110512497509
 23
-6.8438215980008286
 33
0.0
210
0.0
220
0.0
230
1.0
  0
SOLID
  5
423
  8
0
  6
CONTINUOUS
 10
-412.49140629369703
 20
-5.8871130170881258
 30
0.0
 11
-417.11080395625328
 21
-5.8871130170881258
 31
0.0
 12
-417.30110512497509
 22
-6.8438215980008286
 32
0.0
 13
-417.30110512497509
 23
-6.8438215980008286
 33
0.0
210
0.0
220
0.0
230
-1.0
  0
SOLID
  5
424
  8
0
  6
CONTINUOUS
 10
412.30110512497521
 20
-6.8438215980008286
 30
0.0
 11
412.49140629369703
 21
-7.8005301789135322
 31
0.0
 12
417.11080395625328
 22
-7.8005301789135322
 32
0.0
 13
417.11080395625328
 23
-7.8005301789135322
 33
0.0
210
0.0
220
0.0
230
1.0
  0
SOLID
  5
425
  8
0
  6
CONTINUOUS
 10
-412.30110512497521
 20
-6.8438215980008286
 30
0.0
 11
-417.30110512497509
 21
-6.8438215980008286
 31
0.0
 12
-417.11080395625328
 22
-7.8005301789135322
 32
0.0
 13
-417.11080395625328
 23
-7.8005301789135322
 33
0.0
210
0.0
220
0.0
230
-1.0
  0
SOLID
  5
426
  8
0
  6
CONTINUOUS
 10
412.49140629369703
 20
-7.8005301789135322
 30
0.0
 11
413.03333817200883
 21
-8.6115885509671575
 31
0.0
 12
416.56887207794148
 22
-8.6115885509671575
 32
0.0
 13
416.56887207794148
 23
-8.6115885509671575
 33
0.0
210
0.0
220
0.0
230
1.0
  0
SOLID
  5
427
  8
0
  6
CONTINUOUS
 10
-412.49140629369703
 20
-7.8005301789135322
 30
0.0
 11
-417.11080395625328
 21
-7.8005301789135322
 31
0.0
 12
-416.56887207794148
 22
-8.6115885509671575
 32
0.0
 13
-416.56887207794148
 23
-8.6115885509671575
 33
0.0
210
0.0
220
0.0
230
-1.0
  0
SOLID
  5
428
  8
0
  6
CONTINUOUS
 10
-413.84439654406248
 20
-9.1535204292789931
 30
0.0
 11
-415.75781370588783
 21
-9.1535204292789931
 31
0.0
 12
-414.80110512497521
 22
-9.3438215980007726
 32
0.0
 13
-414.80110512497521
 23
-9.3438215980007726
 33
0.0
210
0.0
220
0.0
230
-1.0
  0
SOLID
  5
429
  8
0
  6
CONTINUOUS
 10
413.03333817200883
 20
-8.6115885509671575
 30
0.0
 11
413.84439654406248
 21
-9.1535204292789931
 31
0.0
 12
415.75781370588783
 22
-9.1535204292789931
 32
0.0
 13
415.75781370588783
 23
-9.1535204292789931
 33
0.0
  0
SOLID
  5
42A
  8
0
  6
CONTINUOUS
 10
-413.03333817200883
 20
-8.6115885509671575
 30
0.0
 11
-416.56887207794148
 21
-8.6115885509671575
 31
0.0
 12
-415.75781370588783
 22
-9.1535204292789931
 32
0.0
 13
-415.75781370588783
 23
-9.1535204292789931
 33
0.0
210
0.0
220
0.0
230
-1.0
  0
LINE
  5
42B
  8
0
  6
CONTINUOUS
 10
414.80110512497521
 20
-4.3438215980008863
 30
0.0
 11
413.84439654406248
 21
-4.5341227667226649
 31
0.0
  0
LINE
  5
42C
  8
0
  6
CONTINUOUS
 10
415.75781370588783
 20
-4.5341227667226649
 30
0.0
 11
414.80110512497521
 21
-4.3438215980008863
 31
0.0
  0
LINE
  5
42D
  8
0
  6
CONTINUOUS
 10
413.84439654406248
 20
-4.5341227667226649
 30
0.0
 11
413.03333817200883
 21
-5.0760546450345014
 31
0.0
  0
LINE
  5
42E
  8
0
  6
CONTINUOUS
 10
415.75781370588783
 20
-4.5341227667226649
 30
0.0
 11
416.56887207794148
 21
-5.0760546450345014
 31
0.0
  0
LINE
  5
42F
  8
0
  6
CONTINUOUS
 10
413.03333817200883
 20
-5.0760546450345014
 30
0.0
 11
412.49140629369703
 21
-5.8871130170881258
 31
0.0
  0
LINE
  5
430
  8
0
  6
CONTINUOUS
 10
416.56887207794148
 20
-5.0760546450345014
 30
0.0
 11
417.11080395625328
 21
-5.8871130170881258
 31
0.0
  0
LINE
  5
431
  8
0
  6
CONTINUOUS
 10
412.49140629369703
 20
-5.8871130170881258
 30
0.0
 11
412.30110512497521
 21
-6.8438215980008286
 31
0.0
  0
LINE
  5
432
  8
0
  6
CONTINUOUS
 10
417.11080395625328
 20
-5.8871130170881258
 30
0.0
 11
417.30110512497509
 21
-6.8438215980008286
 31
0.0
  0
LINE
  5
433
  8
0
  6
CONTINUOUS
 10
412.30110512497521
 20
-6.8438215980008286
 30
0.0
 11
412.49140629369703
 21
-7.8005301789135322
 31
0.0
  0
LINE
  5
434
  8
0
  6
CONTINUOUS
 10
417.30110512497509
 20
-6.8438215980008286
 30
0.0
 11
417.11080395625328
 21
-7.8005301789135322
 31
0.0
  0
LINE
  5
435
  8
0
  6
CONTINUOUS
 10
412.49140629369703
 20
-7.8005301789135322
 30
0.0
 11
413.03333817200883
 21
-8.6115885509671575
 31
0.0
  0
LINE
  5
436
  8
0
  6
CONTINUOUS
 10
417.11080395625328
 20
-7.8005301789135322
 30
0.0
 11
416.56887207794148
 21
-8.6115885509671575
 31
0.0
  0
LINE
  5
437
  8
0
  6
CONTINUOUS
 10
415.75781370588783
 20
-9.1535204292789931
 30
0.0
 11
414.80110512497521
 21
-9.3438215980007726
 31
0.0
  0
LINE
  5
438
  8
0
  6
CONTINUOUS
 10
414.80110512497521
 20
-9.3438215980007726
 30
0.0
 11
413.84439654406248
 21
-9.1535204292789931
 31
0.0
  0
LINE
  5
439
  8
0
  6
CONTINUOUS
 10
413.03333817200883
 20
-8.6115885509671575
 30
0.0
 11
413.84439654406248
 21
-9.1535204292789931
 31
0.0
  0
LINE
  5
43A
  8
0
  6
CONTINUOUS
 10
416.56887207794148
 20
-8.6115885509671575
 30
0.0
 11
415.75781370588783
 21
-9.1535204292789931
 31
0.0
  0
ENDBLK
  5
43C
  8
0
  0
BLOCK
  8
0
  2
*U23
 70
     1
 10
0.0
 20
0.0
 30
0.0
  3
*U23
  1

  0
TEXT
  5
43E
  8
0
 10
612.85215652007435
 20
-165.29313870139291
 30
0.0
 40
12.5
  1
Eaves lining
  7
ARIAL
  0
ENDBLK
  5
440
  8
0
  0
BLOCK
  8
0
  2
*U24
 70
     1
 10
0.0
 20
0.0
 30
0.0
  3
*U24
  1

  0
SOLID
  5
442
  8
0
  6
CONTINUOUS
 10
540.16923167628715
 20
102.86421681504601
 30
0.0
 11
539.21252309537442
 21
102.6739156463242
 31
0.0
 12
541.12594025719989
 22
102.6739156463242
 32
0.0
 13
541.12594025719989
 23
102.6739156463242
 33
0.0
  0
SOLID
  5
443
  8
0
  6
CONTINUOUS
 10
539.21252309537442
 20
102.6739156463242
 30
0.0
 11
538.40146472332071
 21
102.1319837680123
 31
0.0
 12
541.93699862925348
 22
102.1319837680123
 32
0.0
 13
541.93699862925348
 23
102.1319837680123
 33
0.0
210
0.0
220
0.0
230
1.0
  0
SOLID
  5
444
  8
0
  6
CONTINUOUS
 10
-539.21252309537442
 20
102.6739156463242
 30
0.0
 11
-541.12594025719989
 21
102.6739156463242
 31
0.0
 12
-541.93699862925348
 22
102.1319837680123
 32
0.0
 13
-541.93699862925348
 23
102.1319837680123
 33
0.0
210
0.0
220
0.0
230
-1.0
  0
SOLID
  5
445
  8
0
  6
CONTINUOUS
 10
538.40146472332071
 20
102.1319837680123
 30
0.0
 11
537.85953284500897
 21
101.3209253959587
 31
0.0
 12
542.47893050756534
 22
101.3209253959587
 32
0.0
 13
542.47893050756534
 23
101.3209253959587
 33
0.0
210
0.0
220
0.0
230
1.0
  0
SOLID
  5
446
  8
0
  6
CONTINUOUS
 10
-538.40146472332071
 20
102.1319837680123
 30
0.0
 11
-541.93699862925348
 21
102.1319837680123
 31
0.0
 12
-542.47893050756534
 22
101.3209253959587
 32
0.0
 13
-542.47893050756534
 23
101.3209253959587
 33
0.0
210
0.0
220
0.0
230
-1.0
  0
SOLID
  5
447
  8
0
  6
CONTINUOUS
 10
537.85953284500897
 20
101.3209253959587
 30
0.0
 11
537.66923167628715
 21
100.36421681504601
 31
0.0
 12
542.66923167628715
 22
100.36421681504601
 32
0.0
 13
542.66923167628715
 23
100.36421681504601
 33
0.0
210
0.0
220
0.0
230
1.0
  0
SOLID
  5
448
  8
0
  6
CONTINUOUS
 10
-537.85953284500897
 20
101.3209253959587
 30
0.0
 11
-542.47893050756534
 21
101.3209253959587
 31
0.0
 12
-542.66923167628715
 22
100.36421681504601
 32
0.0
 13
-542.66923167628715
 23
100.36421681504601
 33
0.0
210
0.0
220
0.0
230
-1.0
  0
SOLID
  5
449
  8
0
  6
CONTINUOUS
 10
537.66923167628715
 20
100.36421681504601
 30
0.0
 11
537.85953284500897
 21
99.40750823413326
 31
0.0
 12
542.47893050756534
 22
99.40750823413326
 32
0.0
 13
542.47893050756534
 23
99.40750823413326
 33
0.0
210
0.0
220
0.0
230
1.0
  0
SOLID
  5
44A
  8
0
  6
CONTINUOUS
 10
-537.66923167628715
 20
100.36421681504601
 30
0.0
 11
-542.66923167628715
 21
100.36421681504601
 31
0.0
 12
-542.47893050756534
 22
99.40750823413326
 32
0.0
 13
-542.47893050756534
 23
99.40750823413326
 33
0.0
210
0.0
220
0.0
230
-1.0
  0
SOLID
  5
44B
  8
0
  6
CONTINUOUS
 10
537.85953284500897
 20
99.40750823413326
 30
0.0
 11
538.40146472332071
 21
98.596449862079623
 31
0.0
 12
541.93699862925348
 22
98.596449862079623
 32
0.0
 13
541.93699862925348
 23
98.596449862079623
 33
0.0
210
0.0
220
0.0
230
1.0
  0
SOLID
  5
44C
  8
0
  6
CONTINUOUS
 10
-537.85953284500897
 20
99.40750823413326
 30
0.0
 11
-542.47893050756534
 21
99.40750823413326
 31
0.0
 12
-541.93699862925348
 22
98.596449862079623
 32
0.0
 13
-541.93699862925348
 23
98.596449862079623
 33
0.0
210
0.0
220
0.0
230
-1.0
  0
SOLID
  5
44D
  8
0
  6
CONTINUOUS
 10
-539.21252309537442
 20
98.054517983767767
 30
0.0
 11
-541.12594025719989
 21
98.054517983767767
 31
0.0
 12
-540.16923167628715
 22
97.864216815045992
 32
0.0
 13
-540.16923167628715
 23
97.864216815045992
 33
0.0
210
0.0
220
0.0
230
-1.0
  0
SOLID
  5
44E
  8
0
  6
CONTINUOUS
 10
538.40146472332071
 20
98.596449862079623
 30
0.0
 11
539.21252309537442
 21
98.054517983767767
 31
0.0
 12
541.12594025719989
 22
98.054517983767767
 32
0.0
 13
541.12594025719989
 23
98.054517983767767
 33
0.0
210
0.0
220
0.0
230
1.0
  0
SOLID
  5
44F
  8
0
  6
CONTINUOUS
 10
-538.40146472332071
 20
98.596449862079623
 30
0.0
 11
-541.93699862925348
 21
98.596449862079623
 31
0.0
 12
-541.12594025719989
 22
98.054517983767767
 32
0.0
 13
-541.12594025719989
 23
98.054517983767767
 33
0.0
210
0.0
220
0.0
230
-1.0
  0
LINE
  5
450
  8
0
  6
CONTINUOUS
 10
540.16923167628715
 20
102.86421681504601
 30
0.0
 11
539.21252309537442
 21
102.6739156463242
 31
0.0
  0
LINE
  5
451
  8
0
  6
CONTINUOUS
 10
541.12594025719989
 20
102.6739156463242
 30
0.0
 11
540.16923167628715
 21
102.86421681504601
 31
0.0
  0
LINE
  5
452
  8
0
  6
CONTINUOUS
 10
539.21252309537442
 20
102.6739156463242
 30
0.0
 11
538.40146472332071
 21
102.1319837680123
 31
0.0
  0
LINE
  5
453
  8
0
  6
CONTINUOUS
 10
541.12594025719989
 20
102.6739156463242
 30
0.0
 11
541.93699862925348
 21
102.1319837680123
 31
0.0
  0
LINE
  5
454
  8
0
  6
CONTINUOUS
 10
538.40146472332071
 20
102.1319837680123
 30
0.0
 11
537.85953284500897
 21
101.3209253959587
 31
0.0
  0
LINE
  5
455
  8
0
  6
CONTINUOUS
 10
541.93699862925348
 20
102.1319837680123
 30
0.0
 11
542.47893050756534
 21
101.3209253959587
 31
0.0
  0
LINE
  5
456
  8
0
  6
CONTINUOUS
 10
537.85953284500897
 20
101.3209253959587
 30
0.0
 11
537.66923167628715
 21
100.36421681504601
 31
0.0
  0
LINE
  5
457
  8
0
  6
CONTINUOUS
 10
542.47893050756534
 20
101.3209253959587
 30
0.0
 11
542.66923167628715
 21
100.36421681504601
 31
0.0
  0
LINE
  5
458
  8
0
  6
CONTINUOUS
 10
537.66923167628715
 20
100.36421681504601
 30
0.0
 11
537.85953284500897
 21
99.40750823413326
 31
0.0
  0
LINE
  5
459
  8
0
  6
CONTINUOUS
 10
542.66923167628715
 20
100.36421681504601
 30
0.0
 11
542.47893050756534
 21
99.40750823413326
 31
0.0
  0
LINE
  5
45A
  8
0
  6
CONTINUOUS
 10
537.85953284500897
 20
99.40750823413326
 30
0.0
 11
538.40146472332071
 21
98.596449862079623
 31
0.0
  0
LINE
  5
45B
  8
0
  6
CONTINUOUS
 10
542.47893050756534
 20
99.40750823413326
 30
0.0
 11
541.93699862925348
 21
98.596449862079623
 31
0.0
  0
LINE
  5
45C
  8
0
  6
CONTINUOUS
 10
541.12594025719989
 20
98.054517983767767
 30
0.0
 11
540.16923167628715
 21
97.864216815045992
 31
0.0
  0
LINE
  5
45D
  8
0
  6
CONTINUOUS
 10
540.16923167628715
 20
97.864216815045992
 30
0.0
 11
539.21252309537442
 21
98.054517983767767
 31
0.0
  0
LINE
  5
45E
  8
0
  6
CONTINUOUS
 10
538.40146472332071
 20
98.596449862079623
 30
0.0
 11
539.21252309537442
 21
98.054517983767767
 31
0.0
  0
LINE
  5
45F
  8
0
  6
CONTINUOUS
 10
541.93699862925348
 20
98.596449862079623
 30
0.0
 11
541.12594025719989
 21
98.054517983767767
 31
0.0
  0
ENDBLK
  5
461
  8
0
  0
BLOCK
  8
0
  2
*U25
 70
     1
 10
0.0
 20
0.0
 30
0.0
  3
*U25
  1

  0
TEXT
  5
463
  8
0
 10
612.9544757560908
 20
-0.5777030718909426
 30
0.0
 40
12.5
  1
Bottom of barge/verge cap
  7
ARIAL
  0
TEXT
  5
464
  8
0
 10
613.09942800711406
 20
-20.198076147986509
 30
0.0
 40
12.5
  1
riveted to metal fascia
  7
ARIAL
  0
ENDBLK
  5
466
  8
0
  0
BLOCK
  8
0
  2
*U26
 70
     1
 10
0.0
 20
0.0
 30
0.0
  3
*U26
  1

  0
SOLID
  5
468
  8
0
  6
CONTINUOUS
 10
539.43915660961443
 20
137.02139031750681
 30
0.0
 11
538.4824480287017
 21
136.831089148785
 31
0.0
 12
540.39586519052705
 22
136.831089148785
 32
0.0
 13
540.39586519052705
 23
136.831089148785
 33
0.0
210
0.0
220
0.0
230
1.0
  0
SOLID
  5
469
  8
0
  6
CONTINUOUS
 10
538.4824480287017
 20
136.831089148785
 30
0.0
 11
537.67138965664799
 21
136.2891572704732
 31
0.0
 12
541.20692356258076
 22
136.2891572704732
 32
0.0
 13
541.20692356258076
 23
136.2891572704732
 33
0.0
210
0.0
220
0.0
230
1.0
  0
SOLID
  5
46A
  8
0
  6
CONTINUOUS
 10
-538.4824480287017
 20
136.831089148785
 30
0.0
 11
-540.39586519052705
 21
136.831089148785
 31
0.0
 12
-541.20692356258076
 22
136.2891572704732
 32
0.0
 13
-541.20692356258076
 23
136.2891572704732
 33
0.0
210
0.0
220
0.0
230
-1.0
  0
SOLID
  5
46B
  8
0
  6
CONTINUOUS
 10
537.67138965664799
 20
136.2891572704732
 30
0.0
 11
537.12945777833613
 21
135.47809889841949
 31
0.0
 12
541.74885544089273
 22
135.47809889841949
 32
0.0
 13
541.74885544089273
 23
135.47809889841949
 33
0.0
210
0.0
220
0.0
230
1.0
  0
SOLID
  5
46C
  8
0
  6
CONTINUOUS
 10
-537.67138965664799
 20
136.2891572704732
 30
0.0
 11
-541.20692356258076
 21
136.2891572704732
 31
0.0
 12
-541.74885544089273
 22
135.47809889841949
 32
0.0
 13
-541.74885544089273
 23
135.47809889841949
 33
0.0
210
0.0
220
0.0
230
-1.0
  0
SOLID
  5
46D
  8
0
  6
CONTINUOUS
 10
537.12945777833613
 20
135.47809889841949
 30
0.0
 11
536.93915660961443
 21
134.52139031750681
 31
0.0
 12
541.93915660961443
 22
134.52139031750681
 32
0.0
 13
541.93915660961443
 23
134.52139031750681
 33
0.0
210
0.0
220
0.0
230
1.0
  0
SOLID
  5
46E
  8
0
  6
CONTINUOUS
 10
-537.12945777833613
 20
135.47809889841949
 30
0.0
 11
-541.74885544089273
 21
135.47809889841949
 31
0.0
 12
-541.93915660961443
 22
134.52139031750681
 32
0.0
 13
-541.93915660961443
 23
134.52139031750681
 33
0.0
210
0.0
220
0.0
230
-1.0
  0
SOLID
  5
46F
  8
0
  6
CONTINUOUS
 10
536.93915660961443
 20
134.52139031750681
 30
0.0
 11
537.12945777833613
 21
133.564681736594
 31
0.0
 12
541.74885544089273
 22
133.564681736594
 32
0.0
 13
541.74885544089273
 23
133.564681736594
 33
0.0
210
0.0
220
0.0
230
1.0
  0
SOLID
  5
470
  8
0
  6
CONTINUOUS
 10
-536.93915660961443
 20
134.52139031750681
 30
0.0
 11
-541.93915660961443
 21
134.52139031750681
 31
0.0
 12
-541.74885544089273
 22
133.564681736594
 32
0.0
 13
-541.74885544089273
 23
133.564681736594
 33
0.0
210
0.0
220
0.0
230
-1.0
  0
SOLID
  5
471
  8
0
  6
CONTINUOUS
 10
537.12945777833613
 20
133.564681736594
 30
0.0
 11
537.67138965664799
 21
132.75362336454029
 31
0.0
 12
541.20692356258076
 22
132.75362336454029
 32
0.0
 13
541.20692356258076
 23
132.75362336454029
 33
0.0
210
0.0
220
0.0
230
1.0
  0
SOLID
  5
472
  8
0
  6
CONTINUOUS
 10
-537.12945777833613
 20
133.564681736594
 30
0.0
 11
-541.74885544089273
 21
133.564681736594
 31
0.0
 12
-541.20692356258076
 22
132.75362336454029
 32
0.0
 13
-541.20692356258076
 23
132.75362336454029
 33
0.0
210
0.0
220
0.0
230
-1.0
  0
SOLID
  5
473
  8
0
  6
CONTINUOUS
 10
-538.4824480287017
 20
132.21169148622849
 30
0.0
 11
-540.39586519052705
 21
132.21169148622849
 31
0.0
 12
-539.43915660961443
 22
132.0213903175067
 32
0.0
 13
-539.43915660961443
 23
132.0213903175067
 33
0.0
210
0.0
220
0.0
230
-1.0
  0
SOLID
  5
474
  8
0
  6
CONTINUOUS
 10
537.67138965664799
 20
132.75362336454029
 30
0.0
 11
538.4824480287017
 21
132.21169148622849
 31
0.0
 12
540.39586519052705
 22
132.21169148622849
 32
0.0
 13
540.39586519052705
 23
132.21169148622849
 33
0.0
  0
SOLID
  5
475
  8
0
  6
CONTINUOUS
 10
-537.67138965664799
 20
132.75362336454029
 30
0.0
 11
-541.20692356258076
 21
132.75362336454029
 31
0.0
 12
-540.39586519052705
 22
132.21169148622849
 32
0.0
 13
-540.39586519052705
 23
132.21169148622849
 33
0.0
210
0.0
220
0.0
230
-1.0
  0
LINE
  5
476
  8
0
  6
CONTINUOUS
 10
539.43915660961443
 20
137.02139031750681
 30
0.0
 11
538.4824480287017
 21
136.831089148785
 31
0.0
  0
LINE
  5
477
  8
0
  6
CONTINUOUS
 10
540.39586519052705
 20
136.831089148785
 30
0.0
 11
539.43915660961443
 21
137.02139031750681
 31
0.0
  0
LINE
  5
478
  8
0
  6
CONTINUOUS
 10
538.4824480287017
 20
136.831089148785
 30
0.0
 11
537.67138965664799
 21
136.2891572704732
 31
0.0
  0
LINE
  5
479
  8
0
  6
CONTINUOUS
 10
540.39586519052705
 20
136.831089148785
 30
0.0
 11
541.20692356258076
 21
136.2891572704732
 31
0.0
  0
LINE
  5
47A
  8
0
  6
CONTINUOUS
 10
537.67138965664799
 20
136.2891572704732
 30
0.0
 11
537.12945777833613
 21
135.47809889841949
 31
0.0
  0
LINE
  5
47B
  8
0
  6
CONTINUOUS
 10
541.20692356258076
 20
136.2891572704732
 30
0.0
 11
541.74885544089273
 21
135.47809889841949
 31
0.0
  0
LINE
  5
47C
  8
0
  6
CONTINUOUS
 10
537.12945777833613
 20
135.47809889841949
 30
0.0
 11
536.93915660961443
 21
134.52139031750681
 31
0.0
  0
LINE
  5
47D
  8
0
  6
CONTINUOUS
 10
541.74885544089273
 20
135.47809889841949
 30
0.0
 11
541.93915660961443
 21
134.52139031750681
 31
0.0
  0
LINE
  5
47E
  8
0
  6
CONTINUOUS
 10
536.93915660961443
 20
134.52139031750681
 30
0.0
 11
537.12945777833613
 21
133.564681736594
 31
0.0
  0
LINE
  5
47F
  8
0
  6
CONTINUOUS
 10
541.93915660961443
 20
134.52139031750681
 30
0.0
 11
541.74885544089273
 21
133.564681736594
 31
0.0
  0
LINE
  5
480
  8
0
  6
CONTINUOUS
 10
537.12945777833613
 20
133.564681736594
 30
0.0
 11
537.67138965664799
 21
132.75362336454029
 31
0.0
  0
LINE
  5
481
  8
0
  6
CONTINUOUS
 10
541.74885544089273
 20
133.564681736594
 30
0.0
 11
541.20692356258076
 21
132.75362336454029
 31
0.0
  0
LINE
  5
482
  8
0
  6
CONTINUOUS
 10
540.39586519052705
 20
132.21169148622849
 30
0.0
 11
539.43915660961443
 21
132.0213903175067
 31
0.0
  0
LINE
  5
483
  8
0
  6
CONTINUOUS
 10
539.43915660961443
 20
132.0213903175067
 30
0.0
 11
538.4824480287017
 21
132.21169148622849
 31
0.0
  0
LINE
  5
484
  8
0
  6
CONTINUOUS
 10
537.67138965664799
 20
132.75362336454029
 30
0.0
 11
538.4824480287017
 21
132.21169148622849
 31
0.0
  0
LINE
  5
485
  8
0
  6
CONTINUOUS
 10
541.20692356258076
 20
132.75362336454029
 30
0.0
 11
540.39586519052705
 21
132.21169148622849
 31
0.0
  0
ENDBLK
  5
487
  8
0
  0
BLOCK
  8
0
  2
*U27
 70
     1
 10
0.0
 20
0.0
 30
0.0
  3
*U27
  1

  0
TEXT
  5
489
  8
0
 10
613.36375270015617
 20
172.40180661143449
 30
0.0
 40
12.5
  1
CF Slate overheads barge
  7
ARIAL
  0
TEXT
  5
48A
  8
0
 10
613.09090140411263
 20
152.78143353533889
 30
0.0
 40
12.5
  1
board by 20mm
  7
ARIAL
  0
ENDBLK
  5
48C
  8
0
  0
BLOCK
  8
0
  2
*U28
 70
     1
 10
0.0
 20
0.0
 30
0.0
  3
*U28
  1

  0
SOLID
  5
48E
  8
0
  6
CONTINUOUS
 10
478.80844414904658
 20
148.63926629370621
 30
0.0
 11
477.8517355681339
 21
148.4489651249844
 31
0.0
 12
479.76515272995931
 22
148.4489651249844
 32
0.0
 13
479.76515272995931
 23
148.4489651249844
 33
0.0
210
0.0
220
0.0
230
1.0
  0
SOLID
  5
48F
  8
0
  6
CONTINUOUS
 10
477.8517355681339
 20
148.4489651249844
 30
0.0
 11
477.0406771960802
 21
147.9070332466726
 31
0.0
 12
480.57621110201302
 22
147.9070332466726
 32
0.0
 13
480.57621110201302
 23
147.9070332466726
 33
0.0
210
0.0
220
0.0
230
1.0
  0
SOLID
  5
490
  8
0
  6
CONTINUOUS
 10
-477.8517355681339
 20
148.4489651249844
 30
0.0
 11
-479.76515272995931
 21
148.4489651249844
 31
0.0
 12
-480.57621110201302
 22
147.9070332466726
 32
0.0
 13
-480.57621110201302
 23
147.9070332466726
 33
0.0
210
0.0
220
0.0
230
-1.0
  0
SOLID
  5
491
  8
0
  6
CONTINUOUS
 10
477.0406771960802
 20
147.9070332466726
 30
0.0
 11
476.4987453177684
 21
147.095974874619
 31
0.0
 12
481.11814298032482
 22
147.095974874619
 32
0.0
 13
481.11814298032482
 23
147.095974874619
 33
0.0
210
0.0
220
0.0
230
1.0
  0
SOLID
  5
492
  8
0
  6
CONTINUOUS
 10
-477.0406771960802
 20
147.9070332466726
 30
0.0
 11
-480.57621110201302
 21
147.9070332466726
 31
0.0
 12
-481.11814298032482
 22
147.095974874619
 32
0.0
 13
-481.11814298032482
 23
147.095974874619
 33
0.0
210
0.0
220
0.0
230
-1.0
  0
SOLID
  5
493
  8
0
  6
CONTINUOUS
 10
476.4987453177684
 20
147.095974874619
 30
0.0
 11
476.30844414904658
 21
146.13926629370621
 31
0.0
 12
481.30844414904658
 22
146.13926629370621
 32
0.0
 13
481.30844414904658
 23
146.13926629370621
 33
0.0
210
0.0
220
0.0
230
1.0
  0
SOLID
  5
494
  8
0
  6
CONTINUOUS
 10
-476.4987453177684
 20
147.095974874619
 30
0.0
 11
-481.11814298032482
 21
147.095974874619
 31
0.0
 12
-481.30844414904658
 22
146.13926629370621
 32
0.0
 13
-481.30844414904658
 23
146.13926629370621
 33
0.0
210
0.0
220
0.0
230
-1.0
  0
SOLID
  5
495
  8
0
  6
CONTINUOUS
 10
476.30844414904658
 20
146.13926629370621
 30
0.0
 11
476.4987453177684
 21
145.18255771279351
 31
0.0
 12
481.11814298032482
 22
145.18255771279351
 32
0.0
 13
481.11814298032482
 23
145.18255771279351
 33
0.0
210
0.0
220
0.0
230
1.0
  0
SOLID
  5
496
  8
0
  6
CONTINUOUS
 10
-476.30844414904658
 20
146.13926629370621
 30
0.0
 11
-481.30844414904658
 21
146.13926629370621
 31
0.0
 12
-481.11814298032482
 22
145.18255771279351
 32
0.0
 13
-481.11814298032482
 23
145.18255771279351
 33
0.0
210
0.0
220
0.0
230
-1.0
  0
SOLID
  5
497
  8
0
  6
CONTINUOUS
 10
476.4987453177684
 20
145.18255771279351
 30
0.0
 11
477.0406771960802
 21
144.3714993407398
 31
0.0
 12
480.57621110201302
 22
144.3714993407398
 32
0.0
 13
480.57621110201302
 23
144.3714993407398
 33
0.0
210
0.0
220
0.0
230
1.0
  0
SOLID
  5
498
  8
0
  6
CONTINUOUS
 10
-476.4987453177684
 20
145.18255771279351
 30
0.0
 11
-481.11814298032482
 21
145.18255771279351
 31
0.0
 12
-480.57621110201302
 22
144.3714993407398
 32
0.0
 13
-480.57621110201302
 23
144.3714993407398
 33
0.0
210
0.0
220
0.0
230
-1.0
  0
SOLID
  5
499
  8
0
  6
CONTINUOUS
 10
-477.8517355681339
 20
143.829567462428
 30
0.0
 11
-479.76515272995931
 21
143.829567462428
 31
0.0
 12
-478.80844414904658
 22
143.63926629370621
 32
0.0
 13
-478.80844414904658
 23
143.63926629370621
 33
0.0
210
0.0
220
0.0
230
-1.0
  0
SOLID
  5
49A
  8
0
  6
CONTINUOUS
 10
477.0406771960802
 20
144.3714993407398
 30
0.0
 11
477.8517355681339
 21
143.829567462428
 31
0.0
 12
479.76515272995931
 22
143.829567462428
 32
0.0
 13
479.76515272995931
 23
143.829567462428
 33
0.0
210
0.0
220
0.0
230
1.0
  0
SOLID
  5
49B
  8
0
  6
CONTINUOUS
 10
-477.0406771960802
 20
144.3714993407398
 30
0.0
 11
-480.57621110201302
 21
144.3714993407398
 31
0.0
 12
-479.76515272995931
 22
143.829567462428
 32
0.0
 13
-479.76515272995931
 23
143.829567462428
 33
0.0
210
0.0
220
0.0
230
-1.0
  0
LINE
  5
49C
  8
0
  6
CONTINUOUS
 10
478.80844414904658
 20
148.63926629370621
 30
0.0
 11
477.8517355681339
 21
148.4489651249844
 31
0.0
  0
LINE
  5
49D
  8
0
  6
CONTINUOUS
 10
479.76515272995931
 20
148.4489651249844
 30
0.0
 11
478.80844414904658
 21
148.63926629370621
 31
0.0
  0
LINE
  5
49E
  8
0
  6
CONTINUOUS
 10
477.8517355681339
 20
148.4489651249844
 30
0.0
 11
477.0406771960802
 21
147.9070332466726
 31
0.0
  0
LINE
  5
49F
  8
0
  6
CONTINUOUS
 10
479.76515272995931
 20
148.4489651249844
 30
0.0
 11
480.57621110201302
 21
147.9070332466726
 31
0.0
  0
LINE
  5
4A0
  8
0
  6
CONTINUOUS
 10
477.0406771960802
 20
147.9070332466726
 30
0.0
 11
476.4987453177684
 21
147.095974874619
 31
0.0
  0
LINE
  5
4A1
  8
0
  6
CONTINUOUS
 10
480.57621110201302
 20
147.9070332466726
 30
0.0
 11
481.11814298032482
 21
147.095974874619
 31
0.0
  0
LINE
  5
4A2
  8
0
  6
CONTINUOUS
 10
476.4987453177684
 20
147.095974874619
 30
0.0
 11
476.30844414904658
 21
146.13926629370621
 31
0.0
  0
LINE
  5
4A3
  8
0
  6
CONTINUOUS
 10
481.11814298032482
 20
147.095974874619
 30
0.0
 11
481.30844414904658
 21
146.13926629370621
 31
0.0
  0
LINE
  5
4A4
  8
0
  6
CONTINUOUS
 10
476.30844414904658
 20
146.13926629370621
 30
0.0
 11
476.4987453177684
 21
145.18255771279351
 31
0.0
  0
LINE
  5
4A5
  8
0
  6
CONTINUOUS
 10
481.30844414904658
 20
146.13926629370621
 30
0.0
 11
481.11814298032482
 21
145.18255771279351
 31
0.0
  0
LINE
  5
4A6
  8
0
  6
CONTINUOUS
 10
476.4987453177684
 20
145.18255771279351
 30
0.0
 11
477.0406771960802
 21
144.3714993407398
 31
0.0
  0
LINE
  5
4A7
  8
0
  6
CONTINUOUS
 10
481.11814298032482
 20
145.18255771279351
 30
0.0
 11
480.57621110201302
 21
144.3714993407398
 31
0.0
  0
LINE
  5
4A8
  8
0
  6
CONTINUOUS
 10
479.76515272995931
 20
143.829567462428
 30
0.0
 11
478.80844414904658
 21
143.63926629370621
 31
0.0
  0
LINE
  5
4A9
  8
0
  6
CONTINUOUS
 10
478.80844414904658
 20
143.63926629370621
 30
0.0
 11
477.8517355681339
 21
143.829567462428
 31
0.0
  0
LINE
  5
4AA
  8
0
  6
CONTINUOUS
 10
477.0406771960802
 20
144.3714993407398
 30
0.0
 11
477.8517355681339
 21
143.829567462428
 31
0.0
  0
LINE
  5
4AB
  8
0
  6
CONTINUOUS
 10
480.57621110201302
 20
144.3714993407398
 30
0.0
 11
479.76515272995931
 21
143.829567462428
 31
0.0
  0
ENDBLK
  5
4AD
  8
0
  0
BLOCK
  8
0
  2
*U29
 70
     1
 10
0.0
 20
0.0
 30
0.0
  3
*U29
  1

  0
TEXT
  5
4AF
  8
0
 10
614.32947575609046
 20
251.4828227026168
 30
0.0
 40
12.5
  1
Bitumen foam strip
  7
ARIAL
  0
ENDBLK
  5
4B1
  8
0
  0
BLOCK
  8
0
  2
*U30
 70
     1
 10
0.0
 20
0.0
 30
0.0
  3
*U30
  1

  0
SOLID
  5
4B3
  8
0
  6
CONTINUOUS
 10
502.04937372087608
 20
161.11192644785359
 30
0.0
 11
501.09266513996351
 21
160.9216252791318
 31
0.0
 12
503.00608230178892
 22
160.9216252791318
 32
0.0
 13
503.00608230178892
 23
160.9216252791318
 33
0.0
210
0.0
220
0.0
230
1.0
  0
SOLID
  5
4B4
  8
0
  6
CONTINUOUS
 10
501.09266513996351
 20
160.9216252791318
 30
0.0
 11
500.28160676790981
 21
160.37969340082
 31
0.0
 12
503.81714067384252
 22
160.37969340082
 32
0.0
 13
503.81714067384252
 23
160.37969340082
 33
0.0
210
0.0
220
0.0
230
1.0
  0
SOLID
  5
4B5
  8
0
  6
CONTINUOUS
 10
-501.09266513996351
 20
160.9216252791318
 30
0.0
 11
-503.00608230178892
 21
160.9216252791318
 31
0.0
 12
-503.81714067384252
 22
160.37969340082
 32
0.0
 13
-503.81714067384252
 23
160.37969340082
 33
0.0
210
0.0
220
0.0
230
-1.0
  0
SOLID
  5
4B6
  8
0
  6
CONTINUOUS
 10
500.28160676790981
 20
160.37969340082
 30
0.0
 11
499.73967488959801
 21
159.56863502876641
 31
0.0
 12
504.35907255215437
 22
159.56863502876641
 32
0.0
 13
504.35907255215437
 23
159.56863502876641
 33
0.0
  0
SOLID
  5
4B7
  8
0
  6
CONTINUOUS
 10
-500.28160676790981
 20
160.37969340082
 30
0.0
 11
-503.81714067384252
 21
160.37969340082
 31
0.0
 12
-504.35907255215437
 22
159.56863502876641
 32
0.0
 13
-504.35907255215437
 23
159.56863502876641
 33
0.0
210
0.0
220
0.0
230
-1.0
  0
SOLID
  5
4B8
  8
0
  6
CONTINUOUS
 10
499.73967488959801
 20
159.56863502876641
 30
0.0
 11
499.54937372087619
 21
158.6119264478537
 31
0.0
 12
504.54937372087608
 22
158.6119264478537
 32
0.0
 13
504.54937372087608
 23
158.6119264478537
 33
0.0
210
0.0
220
0.0
230
1.0
  0
SOLID
  5
4B9
  8
0
  6
CONTINUOUS
 10
-499.73967488959801
 20
159.56863502876641
 30
0.0
 11
-504.35907255215437
 21
159.56863502876641
 31
0.0
 12
-504.54937372087608
 22
158.6119264478537
 32
0.0
 13
-504.54937372087608
 23
158.6119264478537
 33
0.0
210
0.0
220
0.0
230
-1.0
  0
SOLID
  5
4BA
  8
0
  6
CONTINUOUS
 10
499.54937372087619
 20
158.6119264478537
 30
0.0
 11
499.73967488959801
 21
157.65521786694089
 31
0.0
 12
504.35907255215437
 22
157.65521786694089
 32
0.0
 13
504.35907255215437
 23
157.65521786694089
 33
0.0
210
0.0
220
0.0
230
1.0
  0
SOLID
  5
4BB
  8
0
  6
CONTINUOUS
 10
-499.54937372087619
 20
158.6119264478537
 30
0.0
 11
-504.54937372087608
 21
158.6119264478537
 31
0.0
 12
-504.35907255215437
 22
157.65521786694089
 32
0.0
 13
-504.35907255215437
 23
157.65521786694089
 33
0.0
210
0.0
220
0.0
230
-1.0
  0
SOLID
  5
4BC
  8
0
  6
CONTINUOUS
 10
499.73967488959801
 20
157.65521786694089
 30
0.0
 11
500.28160676790981
 21
156.84415949488729
 31
0.0
 12
503.81714067384252
 22
156.84415949488729
 32
0.0
 13
503.81714067384252
 23
156.84415949488729
 33
0.0
210
0.0
220
0.0
230
1.0
  0
SOLID
  5
4BD
  8
0
  6
CONTINUOUS
 10
-499.73967488959801
 20
157.65521786694089
 30
0.0
 11
-504.35907255215437
 21
157.65521786694089
 31
0.0
 12
-503.81714067384252
 22
156.84415949488729
 32
0.0
 13
-503.81714067384252
 23
156.84415949488729
 33
0.0
210
0.0
220
0.0
230
-1.0
  0
SOLID
  5
4BE
  8
0
  6
CONTINUOUS
 10
-501.09266513996351
 20
156.30222761657549
 30
0.0
 11
-503.00608230178892
 21
156.30222761657549
 31
0.0
 12
-502.04937372087608
 22
156.1119264478537
 32
0.0
 13
-502.04937372087608
 23
156.1119264478537
 33
0.0
210
0.0
220
0.0
230
-1.0
  0
SOLID
  5
4BF
  8
0
  6
CONTINUOUS
 10
500.28160676790981
 20
156.84415949488729
 30
0.0
 11
501.09266513996351
 21
156.30222761657549
 31
0.0
 12
503.00608230178892
 22
156.30222761657549
 32
0.0
 13
503.00608230178892
 23
156.30222761657549
 33
0.0
  0
SOLID
  5
4C0
  8
0
  6
CONTINUOUS
 10
-500.28160676790981
 20
156.84415949488729
 30
0.0
 11
-503.81714067384252
 21
156.84415949488729
 31
0.0
 12
-503.00608230178892
 22
156.30222761657549
 32
0.0
 13
-503.00608230178892
 23
156.30222761657549
 33
0.0
210
0.0
220
0.0
230
-1.0
  0
LINE
  5
4C1
  8
0
  6
CONTINUOUS
 10
502.04937372087608
 20
161.11192644785359
 30
0.0
 11
501.09266513996351
 21
160.9216252791318
 31
0.0
  0
LINE
  5
4C2
  8
0
  6
CONTINUOUS
 10
503.00608230178892
 20
160.9216252791318
 30
0.0
 11
502.04937372087608
 21
161.11192644785359
 31
0.0
  0
LINE
  5
4C3
  8
0
  6
CONTINUOUS
 10
501.09266513996351
 20
160.9216252791318
 30
0.0
 11
500.28160676790981
 21
160.37969340082
 31
0.0
  0
LINE
  5
4C4
  8
0
  6
CONTINUOUS
 10
503.00608230178892
 20
160.9216252791318
 30
0.0
 11
503.81714067384252
 21
160.37969340082
 31
0.0
  0
LINE
  5
4C5
  8
0
  6
CONTINUOUS
 10
500.28160676790981
 20
160.37969340082
 30
0.0
 11
499.73967488959801
 21
159.56863502876641
 31
0.0
  0
LINE
  5
4C6
  8
0
  6
CONTINUOUS
 10
503.81714067384252
 20
160.37969340082
 30
0.0
 11
504.35907255215437
 21
159.56863502876641
 31
0.0
  0
LINE
  5
4C7
  8
0
  6
CONTINUOUS
 10
499.73967488959801
 20
159.56863502876641
 30
0.0
 11
499.54937372087619
 21
158.6119264478537
 31
0.0
  0
LINE
  5
4C8
  8
0
  6
CONTINUOUS
 10
504.35907255215437
 20
159.56863502876641
 30
0.0
 11
504.54937372087608
 21
158.6119264478537
 31
0.0
  0
LINE
  5
4C9
  8
0
  6
CONTINUOUS
 10
499.54937372087619
 20
158.6119264478537
 30
0.0
 11
499.73967488959801
 21
157.65521786694089
 31
0.0
  0
LINE
  5
4CA
  8
0
  6
CONTINUOUS
 10
504.54937372087608
 20
158.6119264478537
 30
0.0
 11
504.35907255215437
 21
157.65521786694089
 31
0.0
  0
LINE
  5
4CB
  8
0
  6
CONTINUOUS
 10
499.73967488959801
 20
157.65521786694089
 30
0.0
 11
500.28160676790981
 21
156.84415949488729
 31
0.0
  0
LINE
  5
4CC
  8
0
  6
CONTINUOUS
 10
504.35907255215437
 20
157.65521786694089
 30
0.0
 11
503.81714067384252
 21
156.84415949488729
 31
0.0
  0
LINE
  5
4CD
  8
0
  6
CONTINUOUS
 10
503.00608230178892
 20
156.30222761657549
 30
0.0
 11
502.04937372087608
 21
156.1119264478537
 31
0.0
  0
LINE
  5
4CE
  8
0
  6
CONTINUOUS
 10
502.04937372087608
 20
156.1119264478537
 30
0.0
 11
501.09266513996351
 21
156.30222761657549
 31
0.0
  0
LINE
  5
4CF
  8
0
  6
CONTINUOUS
 10
500.28160676790981
 20
156.84415949488729
 30
0.0
 11
501.09266513996351
 21
156.30222761657549
 31
0.0
  0
LINE
  5
4D0
  8
0
  6
CONTINUOUS
 10
503.81714067384252
 20
156.84415949488729
 30
0.0
 11
503.00608230178892
 21
156.30222761657549
 31
0.0
  0
ENDBLK
  5
4D2
  8
0
  0
BLOCK
  8
0
  2
*U31
 70
     1
 10
0.0
 20
0.0
 30
0.0
  3
*U31
  1

  0
TEXT
  5
4D4
  8
0
 10
614.73875270015606
 20
213.40656831167871
 30
0.0
 40
12.5
  1
CF Slate barge riveted
  7
ARIAL
  0
ENDBLK
  5
4D6
  8
0
  0
BLOCK
  8
0
  2
*U32
 70
     1
 10
0.0
 20
0.0
 30
0.0
  3
*U32
  1

  0
SOLID
  5
4D8
  8
0
  6
CONTINUOUS
 10
454.61182190599601
 20
160.18311826728191
 30
0.0
 11
453.65511332508322
 21
159.9928170985601
 31
0.0
 12
455.56853048690868
 22
159.9928170985601
 32
0.0
 13
455.56853048690868
 23
159.9928170985601
 33
0.0
210
0.0
220
0.0
230
1.0
  0
SOLID
  5
4D9
  8
0
  6
CONTINUOUS
 10
453.65511332508322
 20
159.9928170985601
 30
0.0
 11
452.84405495302963
 21
159.45088522024821
 31
0.0
 12
456.37958885896228
 22
159.45088522024821
 32
0.0
 13
456.37958885896228
 23
159.45088522024821
 33
0.0
210
0.0
220
0.0
230
1.0
  0
SOLID
  5
4DA
  8
0
  6
CONTINUOUS
 10
-453.65511332508322
 20
159.9928170985601
 30
0.0
 11
-455.56853048690868
 21
159.9928170985601
 31
0.0
 12
-456.37958885896228
 22
159.45088522024821
 32
0.0
 13
-456.37958885896228
 23
159.45088522024821
 33
0.0
210
0.0
220
0.0
230
-1.0
  0
SOLID
  5
4DB
  8
0
  6
CONTINUOUS
 10
452.84405495302963
 20
159.45088522024821
 30
0.0
 11
452.30212307471771
 21
158.63982684819459
 31
0.0
 12
456.92152073727419
 22
158.63982684819459
 32
0.0
 13
456.92152073727419
 23
158.63982684819459
 33
0.0
210
0.0
220
0.0
230
1.0
  0
SOLID
  5
4DC
  8
0
  6
CONTINUOUS
 10
-452.84405495302963
 20
159.45088522024821
 30
0.0
 11
-456.37958885896228
 21
159.45088522024821
 31
0.0
 12
-456.92152073727419
 22
158.63982684819459
 32
0.0
 13
-456.92152073727419
 23
158.63982684819459
 33
0.0
210
0.0
220
0.0
230
-1.0
  0
SOLID
  5
4DD
  8
0
  6
CONTINUOUS
 10
452.30212307471771
 20
158.63982684819459
 30
0.0
 11
452.1118219059959
 21
157.68311826728191
 31
0.0
 12
457.11182190599601
 22
157.68311826728191
 32
0.0
 13
457.11182190599601
 23
157.68311826728191
 33
0.0
210
0.0
220
0.0
230
1.0
  0
SOLID
  5
4DE
  8
0
  6
CONTINUOUS
 10
-452.30212307471771
 20
158.63982684819459
 30
0.0
 11
-456.92152073727419
 21
158.63982684819459
 31
0.0
 12
-457.11182190599601
 22
157.68311826728191
 32
0.0
 13
-457.11182190599601
 23
157.68311826728191
 33
0.0
210
0.0
220
0.0
230
-1.0
  0
SOLID
  5
4DF
  8
0
  6
CONTINUOUS
 10
452.1118219059959
 20
157.68311826728191
 30
0.0
 11
452.30212307471771
 21
156.7264096863691
 31
0.0
 12
456.92152073727419
 22
156.7264096863691
 32
0.0
 13
456.92152073727419
 23
156.7264096863691
 33
0.0
210
0.0
220
0.0
230
1.0
  0
SOLID
  5
4E0
  8
0
  6
CONTINUOUS
 10
-452.1118219059959
 20
157.68311826728191
 30
0.0
 11
-457.11182190599601
 21
157.68311826728191
 31
0.0
 12
-456.92152073727419
 22
156.7264096863691
 32
0.0
 13
-456.92152073727419
 23
156.7264096863691
 33
0.0
210
0.0
220
0.0
230
-1.0
  0
SOLID
  5
4E1
  8
0
  6
CONTINUOUS
 10
452.30212307471771
 20
156.7264096863691
 30
0.0
 11
452.84405495302963
 21
155.9153513143155
 31
0.0
 12
456.37958885896228
 22
155.9153513143155
 32
0.0
 13
456.37958885896228
 23
155.9153513143155
 33
0.0
210
0.0
220
0.0
230
1.0
  0
SOLID
  5
4E2
  8
0
  6
CONTINUOUS
 10
-452.30212307471771
 20
156.7264096863691
 30
0.0
 11
-456.92152073727419
 21
156.7264096863691
 31
0.0
 12
-456.37958885896228
 22
155.9153513143155
 32
0.0
 13
-456.37958885896228
 23
155.9153513143155
 33
0.0
210
0.0
220
0.0
230
-1.0
  0
SOLID
  5
4E3
  8
0
  6
CONTINUOUS
 10
-453.65511332508322
 20
155.37341943600359
 30
0.0
 11
-455.56853048690868
 21
155.37341943600359
 31
0.0
 12
-454.61182190599601
 22
155.18311826728191
 32
0.0
 13
-454.61182190599601
 23
155.18311826728191
 33
0.0
210
0.0
220
0.0
230
-1.0
  0
SOLID
  5
4E4
  8
0
  6
CONTINUOUS
 10
452.84405495302963
 20
155.9153513143155
 30
0.0
 11
453.65511332508322
 21
155.37341943600359
 31
0.0
 12
455.56853048690868
 22
155.37341943600359
 32
0.0
 13
455.56853048690868
 23
155.37341943600359
 33
0.0
210
0.0
220
0.0
230
1.0
  0
SOLID
  5
4E5
  8
0
  6
CONTINUOUS
 10
-452.84405495302963
 20
155.9153513143155
 30
0.0
 11
-456.37958885896228
 21
155.9153513143155
 31
0.0
 12
-455.56853048690868
 22
155.37341943600359
 32
0.0
 13
-455.56853048690868
 23
155.37341943600359
 33
0.0
210
0.0
220
0.0
230
-1.0
  0
LINE
  5
4E6
  8
0
  6
CONTINUOUS
 10
454.61182190599601
 20
160.18311826728191
 30
0.0
 11
453.65511332508322
 21
159.9928170985601
 31
0.0
  0
LINE
  5
4E7
  8
0
  6
CONTINUOUS
 10
455.56853048690868
 20
159.9928170985601
 30
0.0
 11
454.61182190599601
 21
160.18311826728191
 31
0.0
  0
LINE
  5
4E8
  8
0
  6
CONTINUOUS
 10
453.65511332508322
 20
159.9928170985601
 30
0.0
 11
452.84405495302963
 21
159.45088522024821
 31
0.0
  0
LINE
  5
4E9
  8
0
  6
CONTINUOUS
 10
455.56853048690868
 20
159.9928170985601
 30
0.0
 11
456.37958885896228
 21
159.45088522024821
 31
0.0
  0
LINE
  5
4EA
  8
0
  6
CONTINUOUS
 10
452.84405495302963
 20
159.45088522024821
 30
0.0
 11
452.30212307471771
 21
158.63982684819459
 31
0.0
  0
LINE
  5
4EB
  8
0
  6
CONTINUOUS
 10
456.37958885896228
 20
159.45088522024821
 30
0.0
 11
456.92152073727419
 21
158.63982684819459
 31
0.0
  0
LINE
  5
4EC
  8
0
  6
CONTINUOUS
 10
452.30212307471771
 20
158.63982684819459
 30
0.0
 11
452.1118219059959
 21
157.68311826728191
 31
0.0
  0
LINE
  5
4ED
  8
0
  6
CONTINUOUS
 10
456.92152073727419
 20
158.63982684819459
 30
0.0
 11
457.11182190599601
 21
157.68311826728191
 31
0.0
  0
LINE
  5
4EE
  8
0
  6
CONTINUOUS
 10
452.1118219059959
 20
157.68311826728191
 30
0.0
 11
452.30212307471771
 21
156.7264096863691
 31
0.0
  0
LINE
  5
4EF
  8
0
  6
CONTINUOUS
 10
457.11182190599601
 20
157.68311826728191
 30
0.0
 11
456.92152073727419
 21
156.7264096863691
 31
0.0
  0
LINE
  5
4F0
  8
0
  6
CONTINUOUS
 10
452.30212307471771
 20
156.7264096863691
 30
0.0
 11
452.84405495302963
 21
155.9153513143155
 31
0.0
  0
LINE
  5
4F1
  8
0
  6
CONTINUOUS
 10
456.92152073727419
 20
156.7264096863691
 30
0.0
 11
456.37958885896228
 21
155.9153513143155
 31
0.0
  0
LINE
  5
4F2
  8
0
  6
CONTINUOUS
 10
455.56853048690868
 20
155.37341943600359
 30
0.0
 11
454.61182190599601
 21
155.18311826728191
 31
0.0
  0
LINE
  5
4F3
  8
0
  6
CONTINUOUS
 10
454.61182190599601
 20
155.18311826728191
 30
0.0
 11
453.65511332508322
 21
155.37341943600359
 31
0.0
  0
LINE
  5
4F4
  8
0
  6
CONTINUOUS
 10
452.84405495302963
 20
155.9153513143155
 30
0.0
 11
453.65511332508322
 21
155.37341943600359
 31
0.0
  0
LINE
  5
4F5
  8
0
  6
CONTINUOUS
 10
456.37958885896228
 20
155.9153513143155
 30
0.0
 11
455.56853048690868
 21
155.37341943600359
 31
0.0
  0
ENDBLK
  5
4F7
  8
0
  0
BLOCK
  8
0
  2
*U33
 70
     1
 10
0.0
 20
0.0
 30
0.0
  3
*U33
  1

  0
TEXT
  5
4F9
  8
0
 10
616.73875270015628
 20
298.22483662729331
 30
0.0
 40
12.5
  1
CF Slate Barge
  7
ARIAL
  0
ENDBLK
  5
4FB
  8
0
  0
BLOCK
  8
0
  2
*U34
 70
     1
 10
0.0
 20
0.0
 30
0.0
  3
*U34
  1

  0
SOLID
  5
4FD
  8
0
  6
CONTINUOUS
 10
515.92827991515367
 20
-20.24999999999995
 30
0.0
 11
514.97157133424093
 21
-20.440301168721739
 31
0.0
 12
516.88498849606628
 22
-20.440301168721739
 32
0.0
 13
516.88498849606628
 23
-20.440301168721739
 33
0.0
  0
SOLID
  5
4FE
  8
0
  6
CONTINUOUS
 10
514.97157133424093
 20
-20.440301168721739
 30
0.0
 11
514.16051296218734
 21
-20.982233047033588
 31
0.0
 12
517.69604686811988
 22
-20.982233047033588
 32
0.0
 13
517.69604686811988
 23
-20.982233047033588
 33
0.0
210
0.0
220
0.0
230
1.0
  0
SOLID
  5
4FF
  8
0
  6
CONTINUOUS
 10
-514.97157133424093
 20
-20.440301168721739
 30
0.0
 11
-516.88498849606628
 21
-20.440301168721739
 31
0.0
 12
-517.69604686811988
 22
-20.982233047033588
 32
0.0
 13
-517.69604686811988
 23
-20.982233047033588
 33
0.0
210
0.0
220
0.0
230
-1.0
  0
SOLID
  5
500
  8
0
  6
CONTINUOUS
 10
514.16051296218734
 20
-20.982233047033588
 30
0.0
 11
513.61858108387537
 21
-21.793291419087229
 31
0.0
 12
518.23797874643185
 22
-21.793291419087229
 32
0.0
 13
518.23797874643185
 23
-21.793291419087229
 33
0.0
  0
SOLID
  5
501
  8
0
  6
CONTINUOUS
 10
-514.16051296218734
 20
-20.982233047033588
 30
0.0
 11
-517.69604686811988
 21
-20.982233047033588
 31
0.0
 12
-518.23797874643185
 22
-21.793291419087229
 32
0.0
 13
-518.23797874643185
 23
-21.793291419087229
 33
0.0
210
0.0
220
0.0
230
-1.0
  0
SOLID
  5
502
  8
0
  6
CONTINUOUS
 10
513.61858108387537
 20
-21.793291419087229
 30
0.0
 11
513.42827991515355
 21
-22.749999999999961
 31
0.0
 12
518.42827991515355
 22
-22.749999999999961
 32
0.0
 13
518.42827991515355
 23
-22.749999999999961
 33
0.0
210
0.0
220
0.0
230
1.0
  0
SOLID
  5
503
  8
0
  6
CONTINUOUS
 10
-513.61858108387537
 20
-21.793291419087229
 30
0.0
 11
-518.23797874643185
 21
-21.793291419087229
 31
0.0
 12
-518.42827991515355
 22
-22.749999999999961
 32
0.0
 13
-518.42827991515355
 23
-22.749999999999961
 33
0.0
210
0.0
220
0.0
230
-1.0
  0
SOLID
  5
504
  8
0
  6
CONTINUOUS
 10
513.42827991515355
 20
-22.749999999999961
 30
0.0
 11
513.61858108387537
 21
-23.706708580912689
 31
0.0
 12
518.23797874643185
 22
-23.706708580912689
 32
0.0
 13
518.23797874643185
 23
-23.706708580912689
 33
0.0
  0
SOLID
  5
505
  8
0
  6
CONTINUOUS
 10
-513.42827991515355
 20
-22.749999999999961
 30
0.0
 11
-518.42827991515355
 21
-22.749999999999961
 31
0.0
 12
-518.23797874643185
 22
-23.706708580912689
 32
0.0
 13
-518.23797874643185
 23
-23.706708580912689
 33
0.0
210
0.0
220
0.0
230
-1.0
  0
SOLID
  5
506
  8
0
  6
CONTINUOUS
 10
513.61858108387537
 20
-23.706708580912689
 30
0.0
 11
514.16051296218734
 21
-24.51776695296634
 31
0.0
 12
517.69604686811988
 22
-24.51776695296634
 32
0.0
 13
517.69604686811988
 23
-24.51776695296634
 33
0.0
210
0.0
220
0.0
230
1.0
  0
SOLID
  5
507
  8
0
  6
CONTINUOUS
 10
-513.61858108387537
 20
-23.706708580912689
 30
0.0
 11
-518.23797874643185
 21
-23.706708580912689
 31
0.0
 12
-517.69604686811988
 22
-24.51776695296634
 32
0.0
 13
-517.69604686811988
 23
-24.51776695296634
 33
0.0
210
0.0
220
0.0
230
-1.0
  0
SOLID
  5
508
  8
0
  6
CONTINUOUS
 10
-514.97157133424093
 20
-25.05969883127819
 30
0.0
 11
-516.88498849606628
 21
-25.05969883127819
 31
0.0
 12
-515.92827991515367
 22
-25.249999999999979
 32
0.0
 13
-515.92827991515367
 23
-25.249999999999979
 33
0.0
210
0.0
220
0.0
230
-1.0
  0
SOLID
  5
509
  8
0
  6
CONTINUOUS
 10
514.16051296218734
 20
-24.51776695296634
 30
0.0
 11
514.97157133424093
 21
-25.05969883127819
 31
0.0
 12
516.88498849606628
 22
-25.05969883127819
 32
0.0
 13
516.88498849606628
 23
-25.05969883127819
 33
0.0
  0
SOLID
  5
50A
  8
0
  6
CONTINUOUS
 10
-514.16051296218734
 20
-24.51776695296634
 30
0.0
 11
-517.69604686811988
 21
-24.51776695296634
 31
0.0
 12
-516.88498849606628
 22
-25.05969883127819
 32
0.0
 13
-516.88498849606628
 23
-25.05969883127819
 33
0.0
210
0.0
220
0.0
230
-1.0
  0
LINE
  5
50B
  8
0
  6
CONTINUOUS
 10
515.92827991515367
 20
-20.24999999999995
 30
0.0
 11
514.97157133424093
 21
-20.440301168721739
 31
0.0
  0
LINE
  5
50C
  8
0
  6
CONTINUOUS
 10
516.88498849606628
 20
-20.440301168721739
 30
0.0
 11
515.92827991515367
 21
-20.24999999999995
 31
0.0
  0
LINE
  5
50D
  8
0
  6
CONTINUOUS
 10
514.97157133424093
 20
-20.440301168721739
 30
0.0
 11
514.16051296218734
 21
-20.982233047033588
 31
0.0
  0
LINE
  5
50E
  8
0
  6
CONTINUOUS
 10
516.88498849606628
 20
-20.440301168721739
 30
0.0
 11
517.69604686811988
 21
-20.982233047033588
 31
0.0
  0
LINE
  5
50F
  8
0
  6
CONTINUOUS
 10
514.16051296218734
 20
-20.982233047033588
 30
0.0
 11
513.61858108387537
 21
-21.793291419087229
 31
0.0
  0
LINE
  5
510
  8
0
  6
CONTINUOUS
 10
517.69604686811988
 20
-20.982233047033588
 30
0.0
 11
518.23797874643185
 21
-21.793291419087229
 31
0.0
  0
LINE
  5
511
  8
0
  6
CONTINUOUS
 10
513.61858108387537
 20
-21.793291419087229
 30
0.0
 11
513.42827991515355
 21
-22.749999999999961
 31
0.0
  0
LINE
  5
512
  8
0
  6
CONTINUOUS
 10
518.23797874643185
 20
-21.793291419087229
 30
0.0
 11
518.42827991515355
 21
-22.749999999999961
 31
0.0
  0
LINE
  5
513
  8
0
  6
CONTINUOUS
 10
513.42827991515355
 20
-22.749999999999961
 30
0.0
 11
513.61858108387537
 21
-23.706708580912689
 31
0.0
  0
LINE
  5
514
  8
0
  6
CONTINUOUS
 10
518.42827991515355
 20
-22.749999999999961
 30
0.0
 11
518.23797874643185
 21
-23.706708580912689
 31
0.0
  0
LINE
  5
515
  8
0
  6
CONTINUOUS
 10
513.61858108387537
 20
-23.706708580912689
 30
0.0
 11
514.16051296218734
 21
-24.51776695296634
 31
0.0
  0
LINE
  5
516
  8
0
  6
CONTINUOUS
 10
518.23797874643185
 20
-23.706708580912689
 30
0.0
 11
517.69604686811988
 21
-24.51776695296634
 31
0.0
  0
LINE
  5
517
  8
0
  6
CONTINUOUS
 10
516.88498849606628
 20
-25.05969883127819
 30
0.0
 11
515.92827991515367
 21
-25.249999999999979
 31
0.0
  0
LINE
  5
518
  8
0
  6
CONTINUOUS
 10
515.92827991515367
 20
-25.249999999999979
 30
0.0
 11
514.97157133424093
 21
-25.05969883127819
 31
0.0
  0
LINE
  5
519
  8
0
  6
CONTINUOUS
 10
514.16051296218734
 20
-24.51776695296634
 30
0.0
 11
514.97157133424093
 21
-25.05969883127819
 31
0.0
  0
LINE
  5
51A
  8
0
  6
CONTINUOUS
 10
517.69604686811988
 20
-24.51776695296634
 30
0.0
 11
516.88498849606628
 21
-25.05969883127819
 31
0.0
  0
ENDBLK
  5
51C
  8
0
  0
BLOCK
  8
0
  2
*U35
 70
     1
 10
0.0
 20
0.0
 30
0.0
  3
*U35
  1

  0
TEXT
  5
51E
  8
0
 10
616.32947575609069
 20
-78.059817035057918
 30
0.0
 40
12.5
  1
Berge board
  7
ARIAL
  0
ENDBLK
  5
520
  8
0
  0
BLOCK
  8
0
  2
*U36
 70
     1
 10
0.0
 20
0.0
 30
0.0
  3
*U36
  1

  0
SOLID
  5
522
  8
0
  6
CONTINUOUS
 10
-135.27423599568971
 20
138.8823562452643
 30
0.0
 11
-136.23094457660241
 21
138.6920550765426
 31
0.0
 12
-134.317527414777
 22
138.6920550765426
 32
0.0
 13
-134.317527414777
 23
138.6920550765426
 33
0.0
210
0.0
220
0.0
230
1.0
  0
SOLID
  5
523
  8
0
  6
CONTINUOUS
 10
-136.23094457660241
 20
138.6920550765426
 30
0.0
 11
-137.04200294865609
 21
138.15012319823069
 31
0.0
 12
-133.5064690427233
 22
138.15012319823069
 32
0.0
 13
-133.5064690427233
 23
138.15012319823069
 33
0.0
210
0.0
220
0.0
230
1.0
  0
SOLID
  5
524
  8
0
  6
CONTINUOUS
 10
136.23094457660241
 20
138.6920550765426
 30
0.0
 11
134.317527414777
 21
138.6920550765426
 31
0.0
 12
133.5064690427233
 22
138.15012319823069
 32
0.0
 13
133.5064690427233
 23
138.15012319823069
 33
0.0
210
0.0
220
0.0
230
-1.0
  0
SOLID
  5
525
  8
0
  6
CONTINUOUS
 10
-137.04200294865609
 20
138.15012319823069
 30
0.0
 11
-137.58393482696789
 21
137.33906482617701
 31
0.0
 12
-132.9645371644115
 22
137.33906482617701
 32
0.0
 13
-132.9645371644115
 23
137.33906482617701
 33
0.0
210
0.0
220
0.0
230
1.0
  0
SOLID
  5
526
  8
0
  6
CONTINUOUS
 10
137.04200294865609
 20
138.15012319823069
 30
0.0
 11
133.5064690427233
 21
138.15012319823069
 31
0.0
 12
132.9645371644115
 22
137.33906482617701
 32
0.0
 13
132.9645371644115
 23
137.33906482617701
 33
0.0
210
0.0
220
0.0
230
-1.0
  0
SOLID
  5
527
  8
0
  6
CONTINUOUS
 10
-137.58393482696789
 20
137.33906482617701
 30
0.0
 11
-137.77423599568971
 21
136.3823562452643
 31
0.0
 12
-132.77423599568959
 22
136.3823562452643
 32
0.0
 13
-132.77423599568959
 23
136.3823562452643
 33
0.0
210
0.0
220
0.0
230
1.0
  0
SOLID
  5
528
  8
0
  6
CONTINUOUS
 10
137.58393482696789
 20
137.33906482617701
 30
0.0
 11
132.9645371644115
 21
137.33906482617701
 31
0.0
 12
132.77423599568959
 22
136.3823562452643
 32
0.0
 13
132.77423599568959
 23
136.3823562452643
 33
0.0
210
0.0
220
0.0
230
-1.0
  0
SOLID
  5
529
  8
0
  6
CONTINUOUS
 10
-137.77423599568971
 20
136.3823562452643
 30
0.0
 11
-137.58393482696789
 21
135.4256476643516
 31
0.0
 12
-132.9645371644115
 22
135.4256476643516
 32
0.0
 13
-132.9645371644115
 23
135.4256476643516
 33
0.0
  0
SOLID
  5
52A
  8
0
  6
CONTINUOUS
 10
137.77423599568971
 20
136.3823562452643
 30
0.0
 11
132.77423599568959
 21
136.3823562452643
 31
0.0
 12
132.9645371644115
 22
135.4256476643516
 32
0.0
 13
132.9645371644115
 23
135.4256476643516
 33
0.0
210
0.0
220
0.0
230
-1.0
  0
SOLID
  5
52B
  8
0
  6
CONTINUOUS
 10
-137.58393482696789
 20
135.4256476643516
 30
0.0
 11
-137.04200294865609
 21
134.61458929229789
 31
0.0
 12
-133.5064690427233
 22
134.61458929229789
 32
0.0
 13
-133.5064690427233
 23
134.61458929229789
 33
0.0
210
0.0
220
0.0
230
1.0
  0
SOLID
  5
52C
  8
0
  6
CONTINUOUS
 10
137.58393482696789
 20
135.4256476643516
 30
0.0
 11
132.9645371644115
 21
135.4256476643516
 31
0.0
 12
133.5064690427233
 22
134.61458929229789
 32
0.0
 13
133.5064690427233
 23
134.61458929229789
 33
0.0
210
0.0
220
0.0
230
-1.0
  0
SOLID
  5
52D
  8
0
  6
CONTINUOUS
 10
136.23094457660241
 20
134.07265741398609
 30
0.0
 11
134.317527414777
 21
134.07265741398609
 31
0.0
 12
135.27423599568971
 22
133.8823562452643
 32
0.0
 13
135.27423599568971
 23
133.8823562452643
 33
0.0
210
0.0
220
0.0
230
-1.0
  0
SOLID
  5
52E
  8
0
  6
CONTINUOUS
 10
-137.04200294865609
 20
134.61458929229789
 30
0.0
 11
-136.23094457660241
 21
134.07265741398609
 31
0.0
 12
-134.317527414777
 22
134.07265741398609
 32
0.0
 13
-134.317527414777
 23
134.07265741398609
 33
0.0
210
0.0
220
0.0
230
1.0
  0
SOLID
  5
52F
  8
0
  6
CONTINUOUS
 10
137.04200294865609
 20
134.61458929229789
 30
0.0
 11
133.5064690427233
 21
134.61458929229789
 31
0.0
 12
134.317527414777
 22
134.07265741398609
 32
0.0
 13
134.317527414777
 23
134.07265741398609
 33
0.0
210
0.0
220
0.0
230
-1.0
  0
LINE
  5
530
  8
0
  6
CONTINUOUS
 10
-135.27423599568971
 20
138.8823562452643
 30
0.0
 11
-136.23094457660241
 21
138.6920550765426
 31
0.0
  0
LINE
  5
531
  8
0
  6
CONTINUOUS
 10
-134.317527414777
 20
138.6920550765426
 30
0.0
 11
-135.27423599568971
 21
138.8823562452643
 31
0.0
  0
LINE
  5
532
  8
0
  6
CONTINUOUS
 10
-136.23094457660241
 20
138.6920550765426
 30
0.0
 11
-137.04200294865609
 21
138.15012319823069
 31
0.0
  0
LINE
  5
533
  8
0
  6
CONTINUOUS
 10
-134.317527414777
 20
138.6920550765426
 30
0.0
 11
-133.5064690427233
 21
138.15012319823069
 31
0.0
  0
LINE
  5
534
  8
0
  6
CONTINUOUS
 10
-137.04200294865609
 20
138.15012319823069
 30
0.0
 11
-137.58393482696789
 21
137.33906482617701
 31
0.0
  0
LINE
  5
535
  8
0
  6
CONTINUOUS
 10
-133.5064690427233
 20
138.15012319823069
 30
0.0
 11
-132.9645371644115
 21
137.33906482617701
 31
0.0
  0
LINE
  5
536
  8
0
  6
CONTINUOUS
 10
-137.58393482696789
 20
137.33906482617701
 30
0.0
 11
-137.77423599568971
 21
136.3823562452643
 31
0.0
  0
LINE
  5
537
  8
0
  6
CONTINUOUS
 10
-132.9645371644115
 20
137.33906482617701
 30
0.0
 11
-132.77423599568959
 21
136.3823562452643
 31
0.0
  0
LINE
  5
538
  8
0
  6
CONTINUOUS
 10
-137.77423599568971
 20
136.3823562452643
 30
0.0
 11
-137.58393482696789
 21
135.4256476643516
 31
0.0
  0
LINE
  5
539
  8
0
  6
CONTINUOUS
 10
-132.77423599568959
 20
136.3823562452643
 30
0.0
 11
-132.9645371644115
 21
135.4256476643516
 31
0.0
  0
LINE
  5
53A
  8
0
  6
CONTINUOUS
 10
-137.58393482696789
 20
135.4256476643516
 30
0.0
 11
-137.04200294865609
 21
134.61458929229789
 31
0.0
  0
LINE
  5
53B
  8
0
  6
CONTINUOUS
 10
-132.9645371644115
 20
135.4256476643516
 30
0.0
 11
-133.5064690427233
 21
134.61458929229789
 31
0.0
  0
LINE
  5
53C
  8
0
  6
CONTINUOUS
 10
-134.317527414777
 20
134.07265741398609
 30
0.0
 11
-135.27423599568971
 21
133.8823562452643
 31
0.0
  0
LINE
  5
53D
  8
0
  6
CONTINUOUS
 10
-135.27423599568971
 20
133.8823562452643
 30
0.0
 11
-136.23094457660241
 21
134.07265741398609
 31
0.0
  0
LINE
  5
53E
  8
0
  6
CONTINUOUS
 10
-137.04200294865609
 20
134.61458929229789
 30
0.0
 11
-136.23094457660241
 21
134.07265741398609
 31
0.0
  0
LINE
  5
53F
  8
0
  6
CONTINUOUS
 10
-133.5064690427233
 20
134.61458929229789
 30
0.0
 11
-134.317527414777
 21
134.07265741398609
 31
0.0
  0
ENDBLK
  5
541
  8
0
  0
BLOCK
  8
0
  2
*U37
 70
     1
 10
0.0
 20
0.0
 30
0.0
  3
*U37
  1

  0
TEXT
  5
543
  8
0
 10
-365.91810601352807
 20
250.9828227026168
 30
0.0
 40
12.5
  1
Tilcor CF Slate Tile
  7
ARIAL
  0
ENDBLK
  5
545
  8
0
  0
BLOCK
  8
0
  2
*U38
 70
     1
 10
0.0
 20
0.0
 30
0.0
  3
*U38
  1

  0
TEXT
  5
547
  8
0
 62
     7
 10
326.52663085817289
 20
-277.29115968223653
 30
0.0
 40
12.5
  1
* Barge board must not project higher than the top of tile batten
  7
ARIAL
  0
ENDBLK
  5
549
  8
0
  0
BLOCK
  8
0
  2
*U39
 70
     1
 10
0.0
 20
0.0
 30
0.0
  3
*U39
  1

  0
SOLID
  5
54B
  8
0
  6
CONTINUOUS
 10
-150.51034575045739
 20
52.500000000000391
 30
0.0
 11
-151.46705433137009
 21
52.30969883127861
 31
0.0
 12
-149.55363716954469
 22
52.30969883127861
 32
0.0
 13
-149.55363716954469
 23
52.30969883127861
 33
0.0
  0
SOLID
  5
54C
  8
0
  6
CONTINUOUS
 10
-151.46705433137009
 20
52.30969883127861
 30
0.0
 11
-152.2781127034238
 21
51.76776695296676
 31
0.0
 12
-148.74257879749101
 22
51.76776695296676
 32
0.0
 13
-148.74257879749101
 23
51.76776695296676
 33
0.0
210
0.0
220
0.0
230
1.0
  0
SOLID
  5
54D
  8
0
  6
CONTINUOUS
 10
151.46705433137009
 20
52.30969883127861
 30
0.0
 11
149.55363716954469
 21
52.30969883127861
 31
0.0
 12
148.74257879749101
 22
51.76776695296676
 32
0.0
 13
148.74257879749101
 23
51.76776695296676
 33
0.0
210
0.0
220
0.0
230
-1.0
  0
SOLID
  5
54E
  8
0
  6
CONTINUOUS
 10
-152.2781127034238
 20
51.76776695296676
 30
0.0
 11
-152.8200445817356
 21
50.956708580913109
 31
0.0
 12
-148.20064691917921
 22
50.956708580913109
 32
0.0
 13
-148.20064691917921
 23
50.956708580913109
 33
0.0
210
0.0
220
0.0
230
1.0
  0
SOLID
  5
54F
  8
0
  6
CONTINUOUS
 10
152.2781127034238
 20
51.76776695296676
 30
0.0
 11
148.74257879749101
 21
51.76776695296676
 31
0.0
 12
148.20064691917921
 22
50.956708580913109
 32
0.0
 13
148.20064691917921
 23
50.956708580913109
 33
0.0
210
0.0
220
0.0
230
-1.0
  0
SOLID
  5
550
  8
0
  6
CONTINUOUS
 10
-152.8200445817356
 20
50.956708580913109
 30
0.0
 11
-153.01034575045739
 21
50.000000000000391
 31
0.0
 12
-148.01034575045739
 22
50.000000000000391
 32
0.0
 13
-148.01034575045739
 23
50.000000000000391
 33
0.0
210
0.0
220
0.0
230
1.0
  0
SOLID
  5
551
  8
0
  6
CONTINUOUS
 10
152.8200445817356
 20
50.956708580913109
 30
0.0
 11
148.20064691917921
 21
50.956708580913109
 31
0.0
 12
148.01034575045739
 22
50.000000000000391
 32
0.0
 13
148.01034575045739
 23
50.000000000000391
 33
0.0
210
0.0
220
0.0
230
-1.0
  0
SOLID
  5
552
  8
0
  6
CONTINUOUS
 10
-153.01034575045739
 20
50.000000000000391
 30
0.0
 11
-152.8200445817356
 21
49.043291419087673
 31
0.0
 12
-148.20064691917921
 22
49.043291419087673
 32
0.0
 13
-148.20064691917921
 23
49.043291419087673
 33
0.0
  0
SOLID
  5
553
  8
0
  6
CONTINUOUS
 10
153.01034575045739
 20
50.000000000000391
 30
0.0
 11
148.01034575045739
 21
50.000000000000391
 31
0.0
 12
148.20064691917921
 22
49.043291419087673
 32
0.0
 13
148.20064691917921
 23
49.043291419087673
 33
0.0
210
0.0
220
0.0
230
-1.0
  0
SOLID
  5
554
  8
0
  6
CONTINUOUS
 10
-152.8200445817356
 20
49.043291419087673
 30
0.0
 11
-152.2781127034238
 21
48.232233047034022
 31
0.0
 12
-148.74257879749101
 22
48.232233047034022
 32
0.0
 13
-148.74257879749101
 23
48.232233047034022
 33
0.0
210
0.0
220
0.0
230
1.0
  0
SOLID
  5
555
  8
0
  6
CONTINUOUS
 10
152.8200445817356
 20
49.043291419087673
 30
0.0
 11
148.20064691917921
 21
49.043291419087673
 31
0.0
 12
148.74257879749101
 22
48.232233047034022
 32
0.0
 13
148.74257879749101
 23
48.232233047034022
 33
0.0
210
0.0
220
0.0
230
-1.0
  0
SOLID
  5
556
  8
0
  6
CONTINUOUS
 10
151.46705433137009
 20
47.690301168722172
 30
0.0
 11
149.55363716954469
 21
47.690301168722172
 31
0.0
 12
150.51034575045739
 22
47.500000000000391
 32
0.0
 13
150.51034575045739
 23
47.500000000000391
 33
0.0
210
0.0
220
0.0
230
-1.0
  0
SOLID
  5
557
  8
0
  6
CONTINUOUS
 10
-152.2781127034238
 20
48.232233047034022
 30
0.0
 11
-151.46705433137009
 21
47.690301168722172
 31
0.0
 12
-149.55363716954469
 22
47.690301168722172
 32
0.0
 13
-149.55363716954469
 23
47.690301168722172
 33
0.0
210
0.0
220
0.0
230
1.0
  0
SOLID
  5
558
  8
0
  6
CONTINUOUS
 10
152.2781127034238
 20
48.232233047034022
 30
0.0
 11
148.74257879749101
 21
48.232233047034022
 31
0.0
 12
149.55363716954469
 22
47.690301168722172
 32
0.0
 13
149.55363716954469
 23
47.690301168722172
 33
0.0
210
0.0
220
0.0
230
-1.0
  0
LINE
  5
559
  8
0
  6
CONTINUOUS
 10
-150.51034575045739
 20
52.500000000000391
 30
0.0
 11
-151.46705433137009
 21
52.30969883127861
 31
0.0
  0
LINE
  5
55A
  8
0
  6
CONTINUOUS
 10
-149.55363716954469
 20
52.30969883127861
 30
0.0
 11
-150.51034575045739
 21
52.500000000000391
 31
0.0
  0
LINE
  5
55B
  8
0
  6
CONTINUOUS
 10
-151.46705433137009
 20
52.30969883127861
 30
0.0
 11
-152.2781127034238
 21
51.76776695296676
 31
0.0
  0
LINE
  5
55C
  8
0
  6
CONTINUOUS
 10
-149.55363716954469
 20
52.30969883127861
 30
0.0
 11
-148.74257879749101
 21
51.76776695296676
 31
0.0
  0
LINE
  5
55D
  8
0
  6
CONTINUOUS
 10
-152.2781127034238
 20
51.76776695296676
 30
0.0
 11
-152.8200445817356
 21
50.956708580913109
 31
0.0
  0
LINE
  5
55E
  8
0
  6
CONTINUOUS
 10
-148.74257879749101
 20
51.76776695296676
 30
0.0
 11
-148.20064691917921
 21
50.956708580913109
 31
0.0
  0
LINE
  5
55F
  8
0
  6
CONTINUOUS
 10
-152.8200445817356
 20
50.956708580913109
 30
0.0
 11
-153.01034575045739
 21
50.000000000000391
 31
0.0
  0
LINE
  5
560
  8
0
  6
CONTINUOUS
 10
-148.20064691917921
 20
50.956708580913109
 30
0.0
 11
-148.01034575045739
 21
50.000000000000391
 31
0.0
  0
LINE
  5
561
  8
0
  6
CONTINUOUS
 10
-153.01034575045739
 20
50.000000000000391
 30
0.0
 11
-152.8200445817356
 21
49.043291419087673
 31
0.0
  0
LINE
  5
562
  8
0
  6
CONTINUOUS
 10
-148.01034575045739
 20
50.000000000000391
 30
0.0
 11
-148.20064691917921
 21
49.043291419087673
 31
0.0
  0
LINE
  5
563
  8
0
  6
CONTINUOUS
 10
-152.8200445817356
 20
49.043291419087673
 30
0.0
 11
-152.2781127034238
 21
48.232233047034022
 31
0.0
  0
LINE
  5
564
  8
0
  6
CONTINUOUS
 10
-148.20064691917921
 20
49.043291419087673
 30
0.0
 11
-148.74257879749101
 21
48.232233047034022
 31
0.0
  0
LINE
  5
565
  8
0
  6
CONTINUOUS
 10
-149.55363716954469
 20
47.690301168722172
 30
0.0
 11
-150.51034575045739
 21
47.500000000000391
 31
0.0
  0
LINE
  5
566
  8
0
  6
CONTINUOUS
 10
-150.51034575045739
 20
47.500000000000391
 30
0.0
 11
-151.46705433137009
 21
47.690301168722172
 31
0.0
  0
LINE
  5
567
  8
0
  6
CONTINUOUS
 10
-152.2781127034238
 20
48.232233047034022
 30
0.0
 11
-151.46705433137009
 21
47.690301168722172
 31
0.0
  0
LINE
  5
568
  8
0
  6
CONTINUOUS
 10
-148.74257879749101
 20
48.232233047034022
 30
0.0
 11
-149.55363716954469
 21
47.690301168722172
 31
0.0
  0
ENDBLK
  5
56A
  8
0
  0
BLOCK
  8
0
  2
*U40
 70
     1
 10
0.0
 20
0.0
 30
0.0
  3
*U40
  1

  0
TEXT
  5
56C
  8
0
 10
-366.35296276659773
 20
0.0125270313825148
 30
0.0
 40
12.5
  1
Outrigger
  7
ARIAL
  0
ENDBLK
  5
56E
  8
0
  0
BLOCK
  8
0
  2
*U41
 70
     1
 10
0.0
 20
0.0
 30
0.0
  3
*U41
  1

  0
SOLID
  5
570
  8
0
  6
CONTINUOUS
 10
475.4287047401358
 20
20.51354464207753
 30
0.0
 11
474.47199615922312
 21
20.323243473355738
 31
0.0
 12
476.38541332104842
 22
20.323243473355738
 32
0.0
 13
476.38541332104842
 23
20.323243473355738
 33
0.0
210
0.0
220
0.0
230
1.0
  0
SOLID
  5
571
  8
0
  6
CONTINUOUS
 10
474.47199615922312
 20
20.323243473355738
 30
0.0
 11
473.66093778716942
 21
19.78131159504391
 31
0.0
 12
477.19647169310213
 22
19.78131159504391
 32
0.0
 13
477.19647169310213
 23
19.78131159504391
 33
0.0
210
0.0
220
0.0
230
1.0
  0
SOLID
  5
572
  8
0
  6
CONTINUOUS
 10
-474.47199615922312
 20
20.323243473355738
 30
0.0
 11
-476.38541332104842
 21
20.323243473355738
 31
0.0
 12
-477.19647169310213
 22
19.78131159504391
 32
0.0
 13
-477.19647169310213
 23
19.78131159504391
 33
0.0
210
0.0
220
0.0
230
-1.0
  0
SOLID
  5
573
  8
0
  6
CONTINUOUS
 10
473.66093778716942
 20
19.78131159504391
 30
0.0
 11
473.11900590885762
 21
18.97025322299028
 31
0.0
 12
477.73840357141393
 22
18.97025322299028
 32
0.0
 13
477.73840357141393
 23
18.97025322299028
 33
0.0
210
0.0
220
0.0
230
1.0
  0
SOLID
  5
574
  8
0
  6
CONTINUOUS
 10
-473.66093778716942
 20
19.78131159504391
 30
0.0
 11
-477.19647169310213
 21
19.78131159504391
 31
0.0
 12
-477.73840357141393
 22
18.97025322299028
 32
0.0
 13
-477.73840357141393
 23
18.97025322299028
 33
0.0
210
0.0
220
0.0
230
-1.0
  0
SOLID
  5
575
  8
0
  6
CONTINUOUS
 10
473.11900590885762
 20
18.97025322299028
 30
0.0
 11
472.9287047401358
 21
18.01354464207758
 31
0.0
 12
477.92870474013569
 22
18.01354464207758
 32
0.0
 13
477.92870474013569
 23
18.01354464207758
 33
0.0
210
0.0
220
0.0
230
1.0
  0
SOLID
  5
576
  8
0
  6
CONTINUOUS
 10
-473.11900590885762
 20
18.97025322299028
 30
0.0
 11
-477.73840357141393
 21
18.97025322299028
 31
0.0
 12
-477.92870474013569
 22
18.01354464207758
 32
0.0
 13
-477.92870474013569
 23
18.01354464207758
 33
0.0
210
0.0
220
0.0
230
-1.0
  0
SOLID
  5
577
  8
0
  6
CONTINUOUS
 10
472.9287047401358
 20
18.01354464207758
 30
0.0
 11
473.11900590885762
 21
17.056836061164869
 31
0.0
 12
477.73840357141393
 22
17.056836061164869
 32
0.0
 13
477.73840357141393
 23
17.056836061164869
 33
0.0
210
0.0
220
0.0
230
1.0
  0
SOLID
  5
578
  8
0
  6
CONTINUOUS
 10
-472.9287047401358
 20
18.01354464207758
 30
0.0
 11
-477.92870474013569
 21
18.01354464207758
 31
0.0
 12
-477.73840357141393
 22
17.056836061164869
 32
0.0
 13
-477.73840357141393
 23
17.056836061164869
 33
0.0
210
0.0
220
0.0
230
-1.0
  0
SOLID
  5
579
  8
0
  6
CONTINUOUS
 10
473.11900590885762
 20
17.056836061164869
 30
0.0
 11
473.66093778716942
 21
16.24577768911125
 31
0.0
 12
477.19647169310213
 22
16.24577768911125
 32
0.0
 13
477.19647169310213
 23
16.24577768911125
 33
0.0
210
0.0
220
0.0
230
1.0
  0
SOLID
  5
57A
  8
0
  6
CONTINUOUS
 10
-473.11900590885762
 20
17.056836061164869
 30
0.0
 11
-477.73840357141393
 21
17.056836061164869
 31
0.0
 12
-477.19647169310213
 22
16.24577768911125
 32
0.0
 13
-477.19647169310213
 23
16.24577768911125
 33
0.0
210
0.0
220
0.0
230
-1.0
  0
SOLID
  5
57B
  8
0
  6
CONTINUOUS
 10
-474.47199615922312
 20
15.703845810799409
 30
0.0
 11
-476.38541332104842
 21
15.703845810799409
 31
0.0
 12
-475.4287047401358
 22
15.51354464207763
 32
0.0
 13
-475.4287047401358
 23
15.51354464207763
 33
0.0
210
0.0
220
0.0
230
-1.0
  0
SOLID
  5
57C
  8
0
  6
CONTINUOUS
 10
473.66093778716942
 20
16.24577768911125
 30
0.0
 11
474.47199615922312
 21
15.703845810799409
 31
0.0
 12
476.38541332104842
 22
15.703845810799409
 32
0.0
 13
476.38541332104842
 23
15.703845810799409
 33
0.0
210
0.0
220
0.0
230
1.0
  0
SOLID
  5
57D
  8
0
  6
CONTINUOUS
 10
-473.66093778716942
 20
16.24577768911125
 30
0.0
 11
-477.19647169310213
 21
16.24577768911125
 31
0.0
 12
-476.38541332104842
 22
15.703845810799409
 32
0.0
 13
-476.38541332104842
 23
15.703845810799409
 33
0.0
210
0.0
220
0.0
230
-1.0
  0
LINE
  5
57E
  8
0
  6
CONTINUOUS
 10
475.4287047401358
 20
20.51354464207753
 30
0.0
 11
474.47199615922312
 21
20.323243473355738
 31
0.0
  0
LINE
  5
57F
  8
0
  6
CONTINUOUS
 10
476.38541332104842
 20
20.323243473355738
 30
0.0
 11
475.4287047401358
 21
20.51354464207753
 31
0.0
  0
LINE
  5
580
  8
0
  6
CONTINUOUS
 10
474.47199615922312
 20
20.323243473355738
 30
0.0
 11
473.66093778716942
 21
19.78131159504391
 31
0.0
  0
LINE
  5
581
  8
0
  6
CONTINUOUS
 10
476.38541332104842
 20
20.323243473355738
 30
0.0
 11
477.19647169310213
 21
19.78131159504391
 31
0.0
  0
LINE
  5
582
  8
0
  6
CONTINUOUS
 10
473.66093778716942
 20
19.78131159504391
 30
0.0
 11
473.11900590885762
 21
18.97025322299028
 31
0.0
  0
LINE
  5
583
  8
0
  6
CONTINUOUS
 10
477.19647169310213
 20
19.78131159504391
 30
0.0
 11
477.73840357141393
 21
18.97025322299028
 31
0.0
  0
LINE
  5
584
  8
0
  6
CONTINUOUS
 10
473.11900590885762
 20
18.97025322299028
 30
0.0
 11
472.9287047401358
 21
18.01354464207758
 31
0.0
  0
LINE
  5
585
  8
0
  6
CONTINUOUS
 10
477.73840357141393
 20
18.97025322299028
 30
0.0
 11
477.92870474013569
 21
18.01354464207758
 31
0.0
  0
LINE
  5
586
  8
0
  6
CONTINUOUS
 10
472.9287047401358
 20
18.01354464207758
 30
0.0
 11
473.11900590885762
 21
17.056836061164869
 31
0.0
  0
LINE
  5
587
  8
0
  6
CONTINUOUS
 10
477.92870474013569
 20
18.01354464207758
 30
0.0
 11
477.73840357141393
 21
17.056836061164869
 31
0.0
  0
LINE
  5
588
  8
0
  6
CONTINUOUS
 10
473.11900590885762
 20
17.056836061164869
 30
0.0
 11
473.66093778716942
 21
16.24577768911125
 31
0.0
  0
LINE
  5
589
  8
0
  6
CONTINUOUS
 10
477.73840357141393
 20
17.056836061164869
 30
0.0
 11
477.19647169310213
 21
16.24577768911125
 31
0.0
  0
LINE
  5
58A
  8
0
  6
CONTINUOUS
 10
476.38541332104842
 20
15.703845810799409
 30
0.0
 11
475.4287047401358
 21
15.51354464207763
 31
0.0
  0
LINE
  5
58B
  8
0
  6
CONTINUOUS
 10
475.4287047401358
 20
15.51354464207763
 30
0.0
 11
474.47199615922312
 21
15.703845810799409
 31
0.0
  0
LINE
  5
58C
  8
0
  6
CONTINUOUS
 10
473.66093778716942
 20
16.24577768911125
 30
0.0
 11
474.47199615922312
 21
15.703845810799409
 31
0.0
  0
LINE
  5
58D
  8
0
  6
CONTINUOUS
 10
477.19647169310213
 20
16.24577768911125
 30
0.0
 11
476.38541332104842
 21
15.703845810799409
 31
0.0
  0
ENDBLK
  5
58F
  8
0
  0
BLOCK
  8
0
  2
*U42
 70
     1
 10
0.0
 20
0.0
 30
0.0
  3
*U42
  1

  0
TEXT
  5
591
  8
0
 10
616.17599690206623
 20
-121.0316639312214
 30
0.0
 40
12.5
  1
Flying Rafter
  7
ARIAL
  0
ENDBLK
  5
593
  8
0
  0
BLOCK
  8
0
  2
*U43
 70
     1
 10
0.0
 20
0.0
 30
0.0
  3
*U43
  1

  0
SOLID
  5
595
  8
0
  6
CONTINUOUS
 10
-145.6972905752437
 20
105.0253823978061
 30
0.0
 11
-146.6539991561564
 21
104.8350812290843
 31
0.0
 12
-144.740581994331
 22
104.8350812290843
 32
0.0
 13
-144.740581994331
 23
104.8350812290843
 33
0.0
210
0.0
220
0.0
230
1.0
  0
SOLID
  5
596
  8
0
  6
CONTINUOUS
 10
-146.6539991561564
 20
104.8350812290843
 30
0.0
 11
-147.46505752821011
 21
104.2931493507725
 31
0.0
 12
-143.9295236222774
 22
104.2931493507725
 32
0.0
 13
-143.9295236222774
 23
104.2931493507725
 33
0.0
210
0.0
220
0.0
230
1.0
  0
SOLID
  5
597
  8
0
  6
CONTINUOUS
 10
146.6539991561564
 20
104.8350812290843
 30
0.0
 11
144.740581994331
 21
104.8350812290843
 31
0.0
 12
143.9295236222774
 22
104.2931493507725
 32
0.0
 13
143.9295236222774
 23
104.2931493507725
 33
0.0
210
0.0
220
0.0
230
-1.0
  0
SOLID
  5
598
  8
0
  6
CONTINUOUS
 10
-147.46505752821011
 20
104.2931493507725
 30
0.0
 11
-148.00698940652191
 21
103.4820909787188
 31
0.0
 12
-143.38759174396549
 22
103.4820909787188
 32
0.0
 13
-143.38759174396549
 23
103.4820909787188
 33
0.0
210
0.0
220
0.0
230
1.0
  0
SOLID
  5
599
  8
0
  6
CONTINUOUS
 10
147.46505752821011
 20
104.2931493507725
 30
0.0
 11
143.9295236222774
 21
104.2931493507725
 31
0.0
 12
143.38759174396549
 22
103.4820909787188
 32
0.0
 13
143.38759174396549
 23
103.4820909787188
 33
0.0
210
0.0
220
0.0
230
-1.0
  0
SOLID
  5
59A
  8
0
  6
CONTINUOUS
 10
-148.00698940652191
 20
103.4820909787188
 30
0.0
 11
-148.1972905752437
 21
102.5253823978061
 31
0.0
 12
-143.1972905752437
 22
102.5253823978061
 32
0.0
 13
-143.1972905752437
 23
102.5253823978061
 33
0.0
210
0.0
220
0.0
230
1.0
  0
SOLID
  5
59B
  8
0
  6
CONTINUOUS
 10
148.00698940652191
 20
103.4820909787188
 30
0.0
 11
143.38759174396549
 21
103.4820909787188
 31
0.0
 12
143.1972905752437
 22
102.5253823978061
 32
0.0
 13
143.1972905752437
 23
102.5253823978061
 33
0.0
210
0.0
220
0.0
230
-1.0
  0
SOLID
  5
59C
  8
0
  6
CONTINUOUS
 10
-148.1972905752437
 20
102.5253823978061
 30
0.0
 11
-148.00698940652191
 21
101.56867381689339
 31
0.0
 12
-143.38759174396549
 22
101.56867381689339
 32
0.0
 13
-143.38759174396549
 23
101.56867381689339
 33
0.0
210
0.0
220
0.0
230
1.0
  0
SOLID
  5
59D
  8
0
  6
CONTINUOUS
 10
148.1972905752437
 20
102.5253823978061
 30
0.0
 11
143.1972905752437
 21
102.5253823978061
 31
0.0
 12
143.38759174396549
 22
101.56867381689339
 32
0.0
 13
143.38759174396549
 23
101.56867381689339
 33
0.0
210
0.0
220
0.0
230
-1.0
  0
SOLID
  5
59E
  8
0
  6
CONTINUOUS
 10
-148.00698940652191
 20
101.56867381689339
 30
0.0
 11
-147.46505752821011
 21
100.7576154448398
 31
0.0
 12
-143.9295236222774
 22
100.7576154448398
 32
0.0
 13
-143.9295236222774
 23
100.7576154448398
 33
0.0
210
0.0
220
0.0
230
1.0
  0
SOLID
  5
59F
  8
0
  6
CONTINUOUS
 10
148.00698940652191
 20
101.56867381689339
 30
0.0
 11
143.38759174396549
 21
101.56867381689339
 31
0.0
 12
143.9295236222774
 22
100.7576154448398
 32
0.0
 13
143.9295236222774
 23
100.7576154448398
 33
0.0
210
0.0
220
0.0
230
-1.0
  0
SOLID
  5
5A0
  8
0
  6
CONTINUOUS
 10
146.6539991561564
 20
100.2156835665279
 30
0.0
 11
144.740581994331
 21
100.2156835665279
 31
0.0
 12
145.6972905752437
 22
100.0253823978061
 32
0.0
 13
145.6972905752437
 23
100.0253823978061
 33
0.0
210
0.0
220
0.0
230
-1.0
  0
SOLID
  5
5A1
  8
0
  6
CONTINUOUS
 10
-147.46505752821011
 20
100.7576154448398
 30
0.0
 11
-146.6539991561564
 21
100.2156835665279
 31
0.0
 12
-144.740581994331
 22
100.2156835665279
 32
0.0
 13
-144.740581994331
 23
100.2156835665279
 33
0.0
210
0.0
220
0.0
230
1.0
  0
SOLID
  5
5A2
  8
0
  6
CONTINUOUS
 10
147.46505752821011
 20
100.7576154448398
 30
0.0
 11
143.9295236222774
 21
100.7576154448398
 31
0.0
 12
144.740581994331
 22
100.2156835665279
 32
0.0
 13
144.740581994331
 23
100.2156835665279
 33
0.0
210
0.0
220
0.0
230
-1.0
  0
LINE
  5
5A3
  8
0
  6
CONTINUOUS
 10
-145.6972905752437
 20
105.0253823978061
 30
0.0
 11
-146.6539991561564
 21
104.8350812290843
 31
0.0
  0
LINE
  5
5A4
  8
0
  6
CONTINUOUS
 10
-144.740581994331
 20
104.8350812290843
 30
0.0
 11
-145.6972905752437
 21
105.0253823978061
 31
0.0
  0
LINE
  5
5A5
  8
0
  6
CONTINUOUS
 10
-146.6539991561564
 20
104.8350812290843
 30
0.0
 11
-147.46505752821011
 21
104.2931493507725
 31
0.0
  0
LINE
  5
5A6
  8
0
  6
CONTINUOUS
 10
-144.740581994331
 20
104.8350812290843
 30
0.0
 11
-143.9295236222774
 21
104.2931493507725
 31
0.0
  0
LINE
  5
5A7
  8
0
  6
CONTINUOUS
 10
-147.46505752821011
 20
104.2931493507725
 30
0.0
 11
-148.00698940652191
 21
103.4820909787188
 31
0.0
  0
LINE
  5
5A8
  8
0
  6
CONTINUOUS
 10
-143.9295236222774
 20
104.2931493507725
 30
0.0
 11
-143.38759174396549
 21
103.4820909787188
 31
0.0
  0
LINE
  5
5A9
  8
0
  6
CONTINUOUS
 10
-148.00698940652191
 20
103.4820909787188
 30
0.0
 11
-148.1972905752437
 21
102.5253823978061
 31
0.0
  0
LINE
  5
5AA
  8
0
  6
CONTINUOUS
 10
-143.38759174396549
 20
103.4820909787188
 30
0.0
 11
-143.1972905752437
 21
102.5253823978061
 31
0.0
  0
LINE
  5
5AB
  8
0
  6
CONTINUOUS
 10
-148.1972905752437
 20
102.5253823978061
 30
0.0
 11
-148.00698940652191
 21
101.56867381689339
 31
0.0
  0
LINE
  5
5AC
  8
0
  6
CONTINUOUS
 10
-143.1972905752437
 20
102.5253823978061
 30
0.0
 11
-143.38759174396549
 21
101.56867381689339
 31
0.0
  0
LINE
  5
5AD
  8
0
  6
CONTINUOUS
 10
-148.00698940652191
 20
101.56867381689339
 30
0.0
 11
-147.46505752821011
 21
100.7576154448398
 31
0.0
  0
LINE
  5
5AE
  8
0
  6
CONTINUOUS
 10
-143.38759174396549
 20
101.56867381689339
 30
0.0
 11
-143.9295236222774
 21
100.7576154448398
 31
0.0
  0
LINE
  5
5AF
  8
0
  6
CONTINUOUS
 10
-144.740581994331
 20
100.2156835665279
 30
0.0
 11
-145.6972905752437
 21
100.0253823978061
 31
0.0
  0
LINE
  5
5B0
  8
0
  6
CONTINUOUS
 10
-145.6972905752437
 20
100.0253823978061
 30
0.0
 11
-146.6539991561564
 21
100.2156835665279
 31
0.0
  0
LINE
  5
5B1
  8
0
  6
CONTINUOUS
 10
-147.46505752821011
 20
100.7576154448398
 30
0.0
 11
-146.6539991561564
 21
100.2156835665279
 31
0.0
  0
LINE
  5
5B2
  8
0
  6
CONTINUOUS
 10
-143.9295236222774
 20
100.7576154448398
 30
0.0
 11
-144.740581994331
 21
100.2156835665279
 31
0.0
  0
ENDBLK
  5
5B4
  8
0
  0
BLOCK
  8
0
  2
*U44
 70
     1
 10
0.0
 20
0.0
 30
0.0
  3
*U44
  1

  0
TEXT
  5
5B6
  8
0
 10
-366.88161215268218
 20
75.049538926486889
 30
0.0
 40
12.5
  1
Underlay
  7
ARIAL
  0
ENDBLK
  5
5B8
  8
0
  0
BLOCK
  8
0
  2
*X45
 70
     1
 10
0.0
 20
0.0
 30
0.0
  3
*X45
  1

  0
LINE
  5
5C4
  8
0
 62
     0
 10
30.3082411351715
 20
-210.0000281523962
 30
0.0
 11
50.308241135171357
 21
-210.0000281523962
 31
0.0
  0
LINE
  5
5C5
  8
0
 62
     0
 10
30.308241135171439
 20
-195.00002815239611
 30
0.0
 11
50.308241135171301
 21
-195.00002815239611
 31
0.0
  0
LINE
  5
5C6
  8
0
 62
     0
 10
30.308241135171372
 20
-180.00002815239611
 30
0.0
 11
50.308241135171251
 21
-180.00002815239611
 31
0.0
  0
LINE
  5
5C7
  8
0
 62
     0
 10
30.308241135171311
 20
-165.00002815239611
 30
0.0
 11
50.308241135171201
 21
-165.00002815239611
 31
0.0
  0
LINE
  5
5C8
  8
0
 62
     0
 10
30.308241135171251
 20
-150.00002815239611
 30
0.0
 11
50.308241135171137
 21
-150.00002815239611
 31
0.0
  0
LINE
  5
5C9
  8
0
 62
     0
 10
30.30824113517118
 20
-135.00002815239611
 30
0.0
 11
50.308241135171087
 21
-135.00002815239611
 31
0.0
  0
LINE
  5
5CA
  8
0
 62
     0
 10
30.308241135171119
 20
-120.0000281523961
 30
0.0
 11
50.308241135171038
 21
-120.0000281523961
 31
0.0
  0
LINE
  5
5CB
  8
0
 62
     0
 10
30.308241135171059
 20
-105.0000281523961
 30
0.0
 11
50.308241135170981
 21
-105.0000281523961
 31
0.0
  0
LINE
  5
5CC
  8
0
 62
     0
 10
30.308241135170999
 20
-90.000028152396141
 30
0.0
 11
50.308241135170931
 21
-90.000028152396141
 31
0.0
  0
LINE
  5
5CD
  8
0
 62
     0
 10
30.308241135170931
 20
-75.000028152396141
 30
0.0
 11
50.308241135170881
 21
-75.000028152396141
 31
0.0
  0
LINE
  5
5CE
  8
0
 62
     0
 10
30.308241135170871
 20
-60.000028152396141
 30
0.0
 11
50.308241135170817
 21
-60.000028152396141
 31
0.0
  0
LINE
  5
5CF
  8
0
 62
     0
 10
30.30824113517081
 20
-45.000028152396133
 30
0.0
 11
50.308241135170768
 21
-45.000028152396133
 31
0.0
  0
LINE
  5
5D0
  8
0
 62
     0
 10
30.308241135170739
 20
-30.000028152396141
 30
0.0
 11
50.308241135170718
 21
-30.000028152396141
 31
0.0
  0
LINE
  5
5D1
  8
0
 62
     0
 10
30.308241135170679
 20
-15.000028152396141
 30
0.0
 11
50.308241135170661
 21
-15.000028152396141
 31
0.0
  0
ENDBLK
  5
5D3
  8
0
  0
BLOCK
  8
0
  2
*U46
 70
     1
 10
0.0
 20
0.0
 30
0.0
  3
*U46
  1

  0
SOLID
  5
5D5
  8
0
  6
CONTINUOUS
 10
529.09337845645712
 20
127.2184395584177
 30
0.0
 11
527.94398561482205
 21
127.2116030365483
 31
0.0
 12
529.12172860793225
 22
127.2116030365483
 32
0.0
 13
529.12172860793225
 23
127.2116030365483
 33
0.0
210
0.0
220
0.0
230
1.0
  0
SOLID
  5
5D6
  8
0
  6
CONTINUOUS
 10
527.94398561482205
 20
127.2116030365483
 30
0.0
 11
525.89112756603402
 21
126.94898712942231
 31
0.0
 12
530.21076202128211
 22
126.94898712942231
 32
0.0
 13
530.21076202128211
 23
126.94898712942231
 33
0.0
210
0.0
220
0.0
230
1.0
  0
SOLID
  5
5D7
  8
0
  6
CONTINUOUS
 10
-527.94398561482205
 20
127.2116030365483
 30
0.0
 11
-529.12172860793225
 21
127.2116030365483
 31
0.0
 12
-530.21076202128211
 22
126.94898712942231
 32
0.0
 13
-530.21076202128211
 23
126.94898712942231
 33
0.0
210
0.0
220
0.0
230
-1.0
  0
SOLID
  5
5D8
  8
0
  6
CONTINUOUS
 10
525.89112756603402
 20
126.94898712942231
 30
0.0
 11
521.74842366659072
 21
126.4190235778027
 31
0.0
 12
531.23070774355733
 22
126.4190235778027
 32
0.0
 13
531.23070774355733
 23
126.4190235778027
 33
0.0
  0
SOLID
  5
5D9
  8
0
  6
CONTINUOUS
 10
-525.89112756603402
 20
126.94898712942231
 30
0.0
 11
-530.21076202128211
 21
126.94898712942231
 31
0.0
 12
-531.23070774355733
 22
126.4190235778027
 32
0.0
 13
-531.23070774355733
 23
126.4190235778027
 33
0.0
210
0.0
220
0.0
230
-1.0
  0
SOLID
  5
5DA
  8
0
  6
CONTINUOUS
 10
521.74842366659072
 20
126.4190235778027
 30
0.0
 11
520.23240465955621
 21
126.2250838619087
 31
0.0
 12
531.4510380810043
 22
126.2250838619087
 32
0.0
 13
531.4510380810043
 23
126.2250838619087
 33
0.0
210
0.0
220
0.0
230
1.0
  0
SOLID
  5
5DB
  8
0
  6
CONTINUOUS
 10
-521.74842366659072
 20
126.4190235778027
 30
0.0
 11
-531.23070774355733
 21
126.4190235778027
 31
0.0
 12
-531.4510380810043
 22
126.2250838619087
 32
0.0
 13
-531.4510380810043
 23
126.2250838619087
 33
0.0
210
0.0
220
0.0
230
-1.0
  0
SOLID
  5
5DC
  8
0
  6
CONTINUOUS
 10
528.97829387793661
 20
126.2250838619087
 30
0.0
 11
529.00067557646935
 21
126.21968660780141
 31
0.0
 12
531.45716977410939
 22
126.21968660780141
 32
0.0
 13
531.45716977410939
 23
126.21968660780141
 33
0.0
210
0.0
220
0.0
230
1.0
  0
SOLID
  5
5DD
  8
0
  6
CONTINUOUS
 10
-528.97829387793661
 20
126.2250838619087
 30
0.0
 11
-531.4510380810043
 21
126.2250838619087
 31
0.0
 12
-531.45716977410939
 22
126.21968660780141
 32
0.0
 13
-531.45716977410939
 23
126.21968660780141
 33
0.0
210
0.0
220
0.0
230
-1.0
  0
SOLID
  5
5DE
  8
0
  6
CONTINUOUS
 10
520.23240465955621
 20
126.2250838619087
 30
0.0
 11
520.19021453993719
 21
126.21968660780141
 31
0.0
 12
528.07087847664604
 22
126.21968660780141
 32
0.0
 13
528.07087847664604
 23
126.21968660780141
 33
0.0
210
0.0
220
0.0
230
1.0
  0
SOLID
  5
5DF
  8
0
  6
CONTINUOUS
 10
-520.23240465955621
 20
126.2250838619087
 30
0.0
 11
-528.97829387793661
 21
126.2250838619087
 31
0.0
 12
-528.07087847664604
 22
126.21968660780141
 32
0.0
 13
-528.07087847664604
 23
126.21968660780141
 33
0.0
210
0.0
220
0.0
230
-1.0
  0
SOLID
  5
5E0
  8
0
  6
CONTINUOUS
 10
529.00067557646935
 20
126.21968660780141
 30
0.0
 11
529.86043879753538
 21
126.0123582600702
 31
0.0
 12
531.69271062043561
 22
126.0123582600702
 32
0.0
 13
531.69271062043561
 23
126.0123582600702
 33
0.0
210
0.0
220
0.0
230
1.0
  0
SOLID
  5
5E1
  8
0
  6
CONTINUOUS
 10
-529.00067557646935
 20
126.21968660780141
 30
0.0
 11
-531.45716977410939
 21
126.21968660780141
 31
0.0
 12
-531.69271062043561
 22
126.0123582600702
 32
0.0
 13
-531.69271062043561
 23
126.0123582600702
 33
0.0
210
0.0
220
0.0
230
-1.0
  0
SOLID
  5
5E2
  8
0
  6
CONTINUOUS
 10
529.86043879753538
 20
126.0123582600702
 30
0.0
 11
530.53937918077474
 21
125.6595810004756
 31
0.0
 12
532.09349254533333
 22
125.6595810004756
 32
0.0
 13
532.09349254533333
 23
125.6595810004756
 33
0.0
210
0.0
220
0.0
230
1.0
  0
SOLID
  5
5E3
  8
0
  6
CONTINUOUS
 10
-529.86043879753538
 20
126.0123582600702
 30
0.0
 11
-531.69271062043561
 21
126.0123582600702
 31
0.0
 12
-532.09349254533333
 22
125.6595810004756
 32
0.0
 13
-532.09349254533333
 23
125.6595810004756
 33
0.0
210
0.0
220
0.0
230
-1.0
  0
SOLID
  5
5E4
  8
0
  6
CONTINUOUS
 10
530.53937918077474
 20
125.6595810004756
 30
0.0
 11
530.66565910459474
 21
125.59396598247579
 31
0.0
 12
532.13900529297837
 22
125.59396598247579
 32
0.0
 13
532.13900529297837
 23
125.59396598247579
 33
0.0
  0
SOLID
  5
5E5
  8
0
  6
CONTINUOUS
 10
-530.53937918077474
 20
125.6595810004756
 30
0.0
 11
-532.09349254533333
 21
125.6595810004756
 31
0.0
 12
-532.13900529297837
 22
125.59396598247579
 32
0.0
 13
-532.13900529297837
 23
125.59396598247579
 33
0.0
210
0.0
220
0.0
230
-1.0
  0
SOLID
  5
5E6
  8
0
  6
CONTINUOUS
 10
520.19021453993719
 20
126.21968660780141
 30
0.0
 11
513.78329602289239
 21
125.400068943916
 31
0.0
 12
521.66395995960158
 22
125.400068943916
 32
0.0
 13
521.66395995960158
 23
125.400068943916
 33
0.0
210
0.0
220
0.0
230
1.0
  0
SOLID
  5
5E7
  8
0
  6
CONTINUOUS
 10
-520.19021453993719
 20
126.21968660780141
 30
0.0
 11
-528.07087847664604
 21
126.21968660780141
 31
0.0
 12
-521.66395995960158
 22
125.400068943916
 32
0.0
 13
-521.66395995960158
 23
125.400068943916
 33
0.0
210
0.0
220
0.0
230
-1.0
  0
SOLID
  5
5E8
  8
0
  6
CONTINUOUS
 10
513.78329602289239
 20
125.400068943916
 30
0.0
 11
512.6158771595791
 21
125.0963036683022
 31
0.0
 12
519.28943894215615
 22
125.0963036683022
 32
0.0
 13
519.28943894215615
 23
125.0963036683022
 33
0.0
210
0.0
220
0.0
230
1.0
  0
SOLID
  5
5E9
  8
0
  6
CONTINUOUS
 10
-513.78329602289239
 20
125.400068943916
 30
0.0
 11
-521.66395995960158
 21
125.400068943916
 31
0.0
 12
-519.28943894215615
 22
125.0963036683022
 32
0.0
 13
-519.28943894215615
 23
125.0963036683022
 33
0.0
210
0.0
220
0.0
230
-1.0
  0
SOLID
  5
5EA
  8
0
  6
CONTINUOUS
 10
530.66565910459474
 20
125.59396598247579
 30
0.0
 11
531.34680500073375
 21
124.9944060530072
 31
0.0
 12
532.55487989912547
 22
124.9944060530072
 32
0.0
 13
532.55487989912547
 23
124.9944060530072
 33
0.0
210
0.0
220
0.0
230
1.0
  0
SOLID
  5
5EB
  8
0
  6
CONTINUOUS
 10
-530.66565910459474
 20
125.59396598247579
 30
0.0
 11
-532.13900529297837
 21
125.59396598247579
 31
0.0
 12
-532.55487989912547
 22
124.9944060530072
 32
0.0
 13
-532.55487989912547
 23
124.9944060530072
 33
0.0
210
0.0
220
0.0
230
-1.0
  0
SOLID
  5
5EC
  8
0
  6
CONTINUOUS
 10
531.34680500073375
 20
124.9944060530072
 30
0.0
 11
531.54052103203435
 21
124.715128673848
 31
0.0
 12
532.74859593042618
 22
124.715128673848
 32
0.0
 13
532.74859593042618
 23
124.715128673848
 33
0.0
  0
SOLID
  5
5ED
  8
0
  6
CONTINUOUS
 10
-531.34680500073375
 20
124.9944060530072
 30
0.0
 11
-532.55487989912547
 21
124.9944060530072
 31
0.0
 12
-532.74859593042618
 22
124.715128673848
 32
0.0
 13
-532.74859593042618
 23
124.715128673848
 33
0.0
210
0.0
220
0.0
230
-1.0
  0
SOLID
  5
5EE
  8
0
  6
CONTINUOUS
 10
512.6158771595791
 20
125.0963036683022
 30
0.0
 11
511.56262254298611
 21
124.5082604235371
 31
0.0
 12
514.69272840294218
 22
124.5082604235371
 32
0.0
 13
514.69272840294218
 23
124.5082604235371
 33
0.0
  0
SOLID
  5
5EF
  8
0
  6
CONTINUOUS
 10
-512.6158771595791
 20
125.0963036683022
 30
0.0
 11
-519.28943894215615
 21
125.0963036683022
 31
0.0
 12
-514.69272840294218
 22
124.5082604235371
 32
0.0
 13
-514.69272840294218
 23
124.5082604235371
 33
0.0
210
0.0
220
0.0
230
-1.0
  0
SOLID
  5
5F0
  8
0
  6
CONTINUOUS
 10
511.56262254298611
 20
124.5082604235371
 30
0.0
 11
511.45810358747798
 21
124.40815251516899
 31
0.0
 12
513.91018888471626
 22
124.40815251516899
 32
0.0
 13
513.91018888471626
 23
124.40815251516899
 33
0.0
210
0.0
220
0.0
230
1.0
  0
SOLID
  5
5F1
  8
0
  6
CONTINUOUS
 10
-511.56262254298611
 20
124.5082604235371
 30
0.0
 11
-514.69272840294218
 21
124.5082604235371
 31
0.0
 12
-513.91018888471626
 22
124.40815251516899
 32
0.0
 13
-513.91018888471626
 23
124.40815251516899
 33
0.0
210
0.0
220
0.0
230
-1.0
  0
SOLID
  5
5F2
  8
0
  6
CONTINUOUS
 10
531.54052103203435
 20
124.715128673848
 30
0.0
 11
531.86399188370194
 21
124.24878579514321
 31
0.0
 12
532.92618899840454
 22
124.24878579514321
 32
0.0
 13
532.92618899840454
 23
124.24878579514321
 33
0.0
210
0.0
220
0.0
230
1.0
  0
SOLID
  5
5F3
  8
0
  6
CONTINUOUS
 10
-531.54052103203435
 20
124.715128673848
 30
0.0
 11
-532.74859593042618
 21
124.715128673848
 31
0.0
 12
-532.92618899840454
 22
124.24878579514321
 32
0.0
 13
-532.92618899840454
 23
124.24878579514321
 33
0.0
210
0.0
220
0.0
230
-1.0
  0
SOLID
  5
5F4
  8
0
  6
CONTINUOUS
 10
511.45810358747798
 20
124.40815251516899
 30
0.0
 11
511.207721959732
 21
124.1683378238949
 31
0.0
 12
512.9885424136794
 22
124.1683378238949
 32
0.0
 13
512.9885424136794
 23
124.1683378238949
 33
0.0
210
0.0
220
0.0
230
1.0
  0
SOLID
  5
5F5
  8
0
  6
CONTINUOUS
 10
-511.45810358747798
 20
124.40815251516899
 30
0.0
 11
-513.91018888471626
 21
124.40815251516899
 31
0.0
 12
-512.9885424136794
 22
124.1683378238949
 32
0.0
 13
-512.9885424136794
 23
124.1683378238949
 33
0.0
210
0.0
220
0.0
230
-1.0
  0
SOLID
  5
5F6
  8
0
  6
CONTINUOUS
 10
511.207721959732
 20
124.1683378238949
 30
0.0
 11
510.72302131542119
 21
123.70409315697511
 31
0.0
 12
512.15702561110595
 22
123.70409315697511
 32
0.0
 13
512.15702561110595
 23
123.70409315697511
 33
0.0
  0
SOLID
  5
5F7
  8
0
  6
CONTINUOUS
 10
-511.207721959732
 20
124.1683378238949
 30
0.0
 11
-512.9885424136794
 21
124.1683378238949
 31
0.0
 12
-512.15702561110595
 22
123.70409315697511
 32
0.0
 13
-512.15702561110595
 23
123.70409315697511
 33
0.0
210
0.0
220
0.0
230
-1.0
  0
SOLID
  5
5F8
  8
0
  6
CONTINUOUS
 10
510.72302131542119
 20
123.70409315697511
 30
0.0
 11
510.69146050887412
 21
123.6738643213109
 31
0.0
 12
512.12546480455865
 22
123.6738643213109
 32
0.0
 13
512.12546480455865
 23
123.6738643213109
 33
0.0
210
0.0
220
0.0
230
1.0
  0
SOLID
  5
5F9
  8
0
  6
CONTINUOUS
 10
-510.72302131542119
 20
123.70409315697511
 30
0.0
 11
-512.15702561110595
 21
123.70409315697511
 31
0.0
 12
-512.12546480455865
 22
123.6738643213109
 32
0.0
 13
-512.12546480455865
 23
123.6738643213109
 33
0.0
210
0.0
220
0.0
230
-1.0
  0
SOLID
  5
5FA
  8
0
  6
CONTINUOUS
 10
531.86399188370194
 20
124.24878579514321
 30
0.0
 11
532.09546110510519
 21
123.64096914852669
 31
0.0
 12
533.15765821980801
 22
123.64096914852669
 32
0.0
 13
533.15765821980801
 23
123.64096914852669
 33
0.0
210
0.0
220
0.0
230
1.0
  0
SOLID
  5
5FB
  8
0
  6
CONTINUOUS
 10
-531.86399188370194
 20
124.24878579514321
 30
0.0
 11
-532.92618899840454
 21
124.24878579514321
 31
0.0
 12
-533.15765821980801
 22
123.64096914852669
 32
0.0
 13
-533.15765821980801
 23
123.64096914852669
 33
0.0
210
0.0
220
0.0
230
-1.0
  0
SOLID
  5
5FC
  8
0
  6
CONTINUOUS
 10
532.09546110510519
 20
123.64096914852669
 30
0.0
 11
532.18693579637147
 21
123.4007651172579
 31
0.0
 12
533.18693579637147
 22
123.4007651172579
 32
0.0
 13
533.18693579637147
 23
123.4007651172579
 33
0.0
210
0.0
220
0.0
230
1.0
  0
SOLID
  5
5FD
  8
0
  6
CONTINUOUS
 10
-532.09546110510519
 20
123.64096914852669
 30
0.0
 11
-533.15765821980801
 21
123.64096914852669
 31
0.0
 12
-533.18693579637147
 22
123.4007651172579
 32
0.0
 13
-533.18693579637147
 23
123.4007651172579
 33
0.0
210
0.0
220
0.0
230
-1.0
  0
SOLID
  5
5FE
  8
0
  6
CONTINUOUS
 10
510.69146050887412
 20
123.6738643213109
 30
0.0
 11
510.30412239488419
 21
123.04535939205979
 31
0.0
 12
511.46926611049111
 22
123.04535939205979
 32
0.0
 13
511.46926611049111
 23
123.04535939205979
 33
0.0
210
0.0
220
0.0
230
1.0
  0
SOLID
  5
5FF
  8
0
  6
CONTINUOUS
 10
-510.69146050887412
 20
123.6738643213109
 30
0.0
 11
-512.12546480455865
 21
123.6738643213109
 31
0.0
 12
-511.46926611049111
 22
123.04535939205979
 32
0.0
 13
-511.46926611049111
 23
123.04535939205979
 33
0.0
210
0.0
220
0.0
230
-1.0
  0
SOLID
  5
600
  8
0
  6
CONTINUOUS
 10
510.30412239488419
 20
123.04535939205979
 30
0.0
 11
510.05857556023318
 21
122.64692869193961
 31
0.0
 12
511.22371927584032
 22
122.64692869193961
 32
0.0
 13
511.22371927584032
 23
122.64692869193961
 33
0.0
210
0.0
220
0.0
230
1.0
  0
SOLID
  5
601
  8
0
  6
CONTINUOUS
 10
-510.30412239488419
 20
123.04535939205979
 30
0.0
 11
-511.46926611049111
 21
123.04535939205979
 31
0.0
 12
-511.22371927584032
 22
122.64692869193961
 32
0.0
 13
-511.22371927584032
 23
122.64692869193961
 33
0.0
210
0.0
220
0.0
230
-1.0
  0
SOLID
  5
602
  8
0
  6
CONTINUOUS
 10
532.18693579637147
 20
123.4007651172579
 30
0.0
 11
532.29672670848504
 21
122.5
 31
0.0
 12
533.29672670848515
 22
122.5
 32
0.0
 13
533.29672670848515
 23
122.5
 33
0.0
210
0.0
220
0.0
230
1.0
  0
SOLID
  5
603
  8
0
  6
CONTINUOUS
 10
-532.18693579637147
 20
123.4007651172579
 30
0.0
 11
-533.18693579637147
 21
123.4007651172579
 31
0.0
 12
-533.29672670848515
 22
122.5
 32
0.0
 13
-533.29672670848515
 23
122.5
 33
0.0
210
0.0
220
0.0
230
-1.0
  0
SOLID
  5
604
  8
0
  6
CONTINUOUS
 10
510.05857556023318
 20
122.64692869193961
 30
0.0
 11
509.87197892050602
 21
122.2346207372929
 31
0.0
 12
510.96962009840649
 22
122.2346207372929
 32
0.0
 13
510.96962009840649
 23
122.2346207372929
 33
0.0
210
0.0
220
0.0
230
1.0
  0
SOLID
  5
605
  8
0
  6
CONTINUOUS
 10
-510.05857556023318
 20
122.64692869193961
 30
0.0
 11
-511.22371927584032
 21
122.64692869193961
 31
0.0
 12
-510.96962009840649
 22
122.2346207372929
 32
0.0
 13
-510.96962009840649
 23
122.2346207372929
 33
0.0
210
0.0
220
0.0
230
-1.0
  0
SOLID
  5
606
  8
0
  6
CONTINUOUS
 10
532.29672670848504
 20
122.5
 30
0.0
 11
532.29672670848504
 21
106.0882236182439
 31
0.0
 12
533.29672670848515
 22
106.0882236182439
 32
0.0
 13
533.29672670848515
 23
106.0882236182439
 33
0.0
210
0.0
220
0.0
230
1.0
  0
SOLID
  5
607
  8
0
  6
CONTINUOUS
 10
-532.29672670848504
 20
122.5
 30
0.0
 11
-533.29672670848515
 21
122.5
 31
0.0
 12
-533.29672670848515
 22
106.0882236182439
 32
0.0
 13
-533.29672670848515
 23
106.0882236182439
 33
0.0
210
0.0
220
0.0
230
-1.0
  0
SOLID
  5
608
  8
0
  6
CONTINUOUS
 10
-500.96728635695899
 20
102.5586202315944
 30
0.0
 11
-502.06492753485952
 21
102.5586202315944
 31
0.0
 12
-501.87833089513242
 22
102.1463122769478
 32
0.0
 13
-501.87833089513242
 23
102.1463122769478
 33
0.0
210
0.0
220
0.0
230
-1.0
  0
SOLID
  5
609
  8
0
  6
CONTINUOUS
 10
509.87197892050602
 20
122.2346207372929
 30
0.0
 11
500.96728635695899
 21
102.5586202315944
 31
0.0
 12
502.06492753485952
 22
102.5586202315944
 32
0.0
 13
502.06492753485952
 23
102.5586202315944
 33
0.0
210
0.0
220
0.0
230
1.0
  0
SOLID
  5
60A
  8
0
  6
CONTINUOUS
 10
-509.87197892050602
 20
122.2346207372929
 30
0.0
 11
-510.96962009840649
 21
122.2346207372929
 31
0.0
 12
-502.06492753485952
 22
102.5586202315944
 32
0.0
 13
-502.06492753485952
 23
102.5586202315944
 33
0.0
210
0.0
220
0.0
230
-1.0
  0
SOLID
  5
60B
  8
0
  6
CONTINUOUS
 10
532.29672670848504
 20
105.0882236182439
 30
0.0
 11
532.29672670848504
 21
88.600316216313274
 31
0.0
 12
533.29672670848515
 22
88.600316216313274
 32
0.0
 13
533.29672670848515
 23
88.600316216313274
 33
0.0
210
0.0
220
0.0
230
1.0
  0
SOLID
  5
60C
  8
0
  6
CONTINUOUS
 10
-532.29672670848504
 20
105.0882236182439
 30
0.0
 11
-533.29672670848515
 21
105.0882236182439
 31
0.0
 12
-533.29672670848515
 22
88.600316216313274
 32
0.0
 13
-533.29672670848515
 23
88.600316216313274
 33
0.0
210
0.0
220
0.0
230
-1.0
  0
SOLID
  5
60D
  8
0
  6
CONTINUOUS
 10
532.29672670848504
 20
88.600316216313274
 30
0.0
 11
532.24925876673092
 21
88.448054175968892
 31
0.0
 12
533.29672670848515
 22
88.448054175968892
 32
0.0
 13
533.29672670848515
 23
88.448054175968892
 33
0.0
  0
SOLID
  5
60E
  8
0
  6
CONTINUOUS
 10
-532.29672670848504
 20
88.600316216313274
 30
0.0
 11
-533.29672670848515
 21
88.600316216313274
 31
0.0
 12
-533.29672670848515
 22
88.448054175968892
 32
0.0
 13
-533.29672670848515
 23
88.448054175968892
 33
0.0
210
0.0
220
0.0
230
-1.0
  0
SOLID
  5
60F
  8
0
  6
CONTINUOUS
 10
532.24925876673092
 20
88.448054175968892
 30
0.0
 11
530.29672670848515
 21
82.184953143150054
 31
0.0
 12
531.34419465023927
 22
82.184953143150054
 32
0.0
 13
531.34419465023927
 23
82.184953143150054
 33
0.0
210
0.0
220
0.0
230
1.0
  0
SOLID
  5
610
  8
0
  6
CONTINUOUS
 10
-532.24925876673092
 20
88.448054175968892
 30
0.0
 11
-533.29672670848515
 21
88.448054175968892
 31
0.0
 12
-531.34419465023927
 22
82.184953143150054
 32
0.0
 13
-531.34419465023927
 23
82.184953143150054
 33
0.0
210
0.0
220
0.0
230
-1.0
  0
SOLID
  5
611
  8
0
  6
CONTINUOUS
 10
530.29672670848515
 20
82.184953143150054
 30
0.0
 11
530.29672670848515
 21
82.032691102805614
 31
0.0
 12
531.29672670848515
 22
82.032691102805614
 32
0.0
 13
531.29672670848515
 23
82.032691102805614
 33
0.0
210
0.0
220
0.0
230
1.0
  0
SOLID
  5
612
  8
0
  6
CONTINUOUS
 10
-530.29672670848515
 20
82.184953143150054
 30
0.0
 11
-531.34419465023927
 21
82.184953143150054
 31
0.0
 12
-531.29672670848515
 22
82.032691102805614
 32
0.0
 13
-531.29672670848515
 23
82.032691102805614
 33
0.0
210
0.0
220
0.0
230
-1.0
  0
SOLID
  5
613
  8
0
  6
CONTINUOUS
 10
530.29672670848515
 20
82.032691102805614
 30
0.0
 11
530.29672670848515
 21
22.37197972018998
 31
0.0
 12
531.29672670848515
 22
22.37197972018998
 32
0.0
 13
531.29672670848515
 23
22.37197972018998
 33
0.0
210
0.0
220
0.0
230
1.0
  0
SOLID
  5
614
  8
0
  6
CONTINUOUS
 10
-530.29672670848515
 20
82.032691102805614
 30
0.0
 11
-531.29672670848515
 21
82.032691102805614
 31
0.0
 12
-531.29672670848515
 22
22.37197972018998
 32
0.0
 13
-531.29672670848515
 23
22.37197972018998
 33
0.0
210
0.0
220
0.0
230
-1.0
  0
SOLID
  5
615
  8
0
  6
CONTINUOUS
 10
530.29672670848515
 20
22.37197972018998
 30
0.0
 11
530.29672670848515
 21
22.21971767984552
 31
0.0
 12
531.34419465023927
 22
22.21971767984552
 32
0.0
 13
531.34419465023927
 23
22.21971767984552
 33
0.0
  0
SOLID
  5
616
  8
0
  6
CONTINUOUS
 10
-530.29672670848515
 20
22.37197972018998
 30
0.0
 11
-531.29672670848515
 21
22.37197972018998
 31
0.0
 12
-531.34419465023927
 22
22.21971767984552
 32
0.0
 13
-531.34419465023927
 23
22.21971767984552
 33
0.0
210
0.0
220
0.0
230
-1.0
  0
SOLID
  5
617
  8
0
  6
CONTINUOUS
 10
530.29672670848515
 20
22.21971767984552
 30
0.0
 11
532.24925876673092
 21
15.9566166470265
 31
0.0
 12
533.29672670848515
 22
15.9566166470265
 32
0.0
 13
533.29672670848515
 23
15.9566166470265
 33
0.0
210
0.0
220
0.0
230
1.0
  0
SOLID
  5
618
  8
0
  6
CONTINUOUS
 10
-530.29672670848515
 20
22.21971767984552
 30
0.0
 11
-531.34419465023927
 21
22.21971767984552
 31
0.0
 12
-533.29672670848515
 22
15.9566166470265
 32
0.0
 13
-533.29672670848515
 23
15.9566166470265
 33
0.0
210
0.0
220
0.0
230
-1.0
  0
SOLID
  5
619
  8
0
  6
CONTINUOUS
 10
532.24925876673092
 20
15.9566166470265
 30
0.0
 11
532.29672670848515
 21
15.80435460668204
 31
0.0
 12
533.29672670848515
 22
15.80435460668204
 32
0.0
 13
533.29672670848515
 23
15.80435460668204
 33
0.0
210
0.0
220
0.0
230
1.0
  0
SOLID
  5
61A
  8
0
  6
CONTINUOUS
 10
-532.24925876673092
 20
15.9566166470265
 30
0.0
 11
-533.29672670848515
 21
15.9566166470265
 31
0.0
 12
-533.29672670848515
 22
15.80435460668204
 32
0.0
 13
-533.29672670848515
 23
15.80435460668204
 33
0.0
210
0.0
220
0.0
230
-1.0
  0
SOLID
  5
61B
  8
0
  6
CONTINUOUS
 10
502.64405759823143
 20
2.1982054826780191
 30
0.0
 11
502.0000000000004
 21
1.4332284829184581
 31
0.0
 12
503.55265616421138
 22
1.4332284829184581
 32
0.0
 13
503.55265616421138
 23
1.4332284829184581
 33
0.0
210
0.0
220
0.0
230
1.0
  0
SOLID
  5
61C
  8
0
  6
CONTINUOUS
 10
502.0000000000004
 20
1.4332284829184581
 30
0.0
 11
504.6798516948985
 21
-0.8230208510793701
 31
0.0
 12
506.23250785910949
 22
-0.8230208510793701
 32
0.0
 13
506.23250785910949
 23
-0.8230208510793701
 33
0.0
210
0.0
220
0.0
230
1.0
  0
SOLID
  5
61D
  8
0
  6
CONTINUOUS
 10
-502.0000000000004
 20
1.4332284829184581
 30
0.0
 11
-503.55265616421138
 21
1.4332284829184581
 31
0.0
 12
-506.23250785910949
 22
-0.8230208510793701
 32
0.0
 13
-506.23250785910949
 23
-0.8230208510793701
 33
0.0
210
0.0
220
0.0
230
-1.0
  0
SOLID
  5
61E
  8
0
  6
CONTINUOUS
 10
504.6798516948985
 20
-0.8230208510793701
 30
0.0
 11
505.58845026087852
 21
-1.5879978508388599
 31
0.0
 12
506.94028112605298
 22
-1.5879978508388599
 32
0.0
 13
506.94028112605298
 23
-1.5879978508388599
 33
0.0
210
0.0
220
0.0
230
1.0
  0
SOLID
  5
61F
  8
0
  6
CONTINUOUS
 10
-504.6798516948985
 20
-0.8230208510793701
 30
0.0
 11
-506.23250785910949
 21
-0.8230208510793701
 31
0.0
 12
-506.94028112605298
 22
-1.5879978508388599
 32
0.0
 13
-506.94028112605298
 23
-1.5879978508388599
 33
0.0
210
0.0
220
0.0
230
-1.0
  0
SOLID
  5
620
  8
0
  6
CONTINUOUS
 10
505.58845026087852
 20
-1.5879978508388599
 30
0.0
 11
505.59509687094823
 21
-1.595798097852807
 31
0.0
 12
506.94749808331289
 22
-1.595798097852807
 32
0.0
 13
506.94749808331289
 23
-1.595798097852807
 33
0.0
210
0.0
220
0.0
230
1.0
  0
SOLID
  5
621
  8
0
  6
CONTINUOUS
 10
-505.58845026087852
 20
-1.5879978508388599
 30
0.0
 11
-506.94028112605298
 21
-1.5879978508388599
 31
0.0
 12
-506.94749808331289
 22
-1.595798097852807
 32
0.0
 13
-506.94749808331289
 23
-1.595798097852807
 33
0.0
210
0.0
220
0.0
230
-1.0
  0
SOLID
  5
622
  8
0
  6
CONTINUOUS
 10
505.59509687094823
 20
-1.595798097852807
 30
0.0
 11
506.21086009736001
 21
-2.3184379424878472
 31
0.0
 12
507.34013899902737
 22
-2.3184379424878472
 32
0.0
 13
507.34013899902737
 23
-2.3184379424878472
 33
0.0
210
0.0
220
0.0
230
1.0
  0
SOLID
  5
623
  8
0
  6
CONTINUOUS
 10
-505.59509687094823
 20
-1.595798097852807
 30
0.0
 11
-506.94749808331289
 21
-1.595798097852807
 31
0.0
 12
-507.34013899902737
 22
-2.3184379424878472
 32
0.0
 13
-507.34013899902737
 23
-2.3184379424878472
 33
0.0
210
0.0
220
0.0
230
-1.0
  0
SOLID
  5
624
  8
0
  6
CONTINUOUS
 10
506.21086009736001
 20
-2.3184379424878472
 30
0.0
 11
506.51899563760571
 21
-2.8855490356466191
 31
0.0
 12
507.51140971081628
 22
-2.8855490356466191
 32
0.0
 13
507.51140971081628
 23
-2.8855490356466191
 33
0.0
  0
SOLID
  5
625
  8
0
  6
CONTINUOUS
 10
-506.21086009736001
 20
-2.3184379424878472
 30
0.0
 11
-507.34013899902737
 21
-2.3184379424878472
 31
0.0
 12
-507.51140971081628
 22
-2.8855490356466191
 32
0.0
 13
-507.51140971081628
 23
-2.8855490356466191
 33
0.0
210
0.0
220
0.0
230
-1.0
  0
SOLID
  5
626
  8
0
  6
CONTINUOUS
 10
506.51899563760571
 20
-2.8855490356466191
 30
0.0
 11
506.68562445804878
 21
-3.5412411645338082
 31
0.0
 12
507.70943238923599
 22
-3.5412411645338082
 32
0.0
 13
507.70943238923599
 23
-3.5412411645338082
 33
0.0
210
0.0
220
0.0
230
1.0
  0
SOLID
  5
627
  8
0
  6
CONTINUOUS
 10
-506.51899563760571
 20
-2.8855490356466191
 30
0.0
 11
-507.51140971081628
 21
-2.8855490356466191
 31
0.0
 12
-507.70943238923599
 22
-3.5412411645338082
 32
0.0
 13
-507.70943238923599
 23
-3.5412411645338082
 33
0.0
210
0.0
220
0.0
230
-1.0
  0
SOLID
  5
628
  8
0
  6
CONTINUOUS
 10
506.68562445804878
 20
-3.5412411645338082
 30
0.0
 11
506.71716374090659
 21
-3.6653497038946119
 31
0.0
 12
507.70943238923599
 22
-3.6653497038946119
 32
0.0
 13
507.70943238923599
 23
-3.6653497038946119
 33
0.0
210
0.0
220
0.0
230
1.0
  0
SOLID
  5
629
  8
0
  6
CONTINUOUS
 10
-506.68562445804878
 20
-3.5412411645338082
 30
0.0
 11
-507.70943238923599
 21
-3.5412411645338082
 31
0.0
 12
-507.70943238923599
 22
-3.6653497038946119
 32
0.0
 13
-507.70943238923599
 23
-3.6653497038946119
 33
0.0
210
0.0
220
0.0
230
-1.0
  0
SOLID
  5
62A
  8
0
  6
CONTINUOUS
 10
506.71716374090659
 20
-3.6653497038946119
 30
0.0
 11
506.71716374090659
 21
-4.4699363551422797
 31
0.0
 12
507.70943238923599
 22
-4.4699363551422797
 32
0.0
 13
507.70943238923599
 23
-4.4699363551422797
 33
0.0
210
0.0
220
0.0
230
1.0
  0
SOLID
  5
62B
  8
0
  6
CONTINUOUS
 10
-506.71716374090659
 20
-3.6653497038946119
 30
0.0
 11
-507.70943238923599
 21
-3.6653497038946119
 31
0.0
 12
-507.70943238923599
 22
-4.4699363551422797
 32
0.0
 13
-507.70943238923599
 23
-4.4699363551422797
 33
0.0
210
0.0
220
0.0
230
-1.0
  0
SOLID
  5
62C
  8
0
  6
CONTINUOUS
 10
506.71716374090659
 20
-4.4699363551422797
 30
0.0
 11
506.68562445804878
 21
-4.5940448945031562
 31
0.0
 12
507.70943238923599
 22
-4.5940448945031562
 32
0.0
 13
507.70943238923599
 23
-4.5940448945031562
 33
0.0
210
0.0
220
0.0
230
1.0
  0
SOLID
  5
62D
  8
0
  6
CONTINUOUS
 10
-506.71716374090659
 20
-4.4699363551422797
 30
0.0
 11
-507.70943238923599
 21
-4.4699363551422797
 31
0.0
 12
-507.70943238923599
 22
-4.5940448945031562
 32
0.0
 13
-507.70943238923599
 23
-4.5940448945031562
 33
0.0
210
0.0
220
0.0
230
-1.0
  0
SOLID
  5
62E
  8
0
  6
CONTINUOUS
 10
506.68562445804878
 20
-4.5940448945031562
 30
0.0
 11
506.51899563760571
 21
-5.2497370233902103
 31
0.0
 12
507.54280356879309
 22
-5.2497370233902103
 32
0.0
 13
507.54280356879309
 23
-5.2497370233902103
 33
0.0
210
0.0
220
0.0
230
1.0
  0
SOLID
  5
62F
  8
0
  6
CONTINUOUS
 10
-506.68562445804878
 20
-4.5940448945031562
 30
0.0
 11
-507.70943238923599
 21
-4.5940448945031562
 31
0.0
 12
-507.54280356879309
 22
-5.2497370233902103
 32
0.0
 13
-507.54280356879309
 23
-5.2497370233902103
 33
0.0
210
0.0
220
0.0
230
-1.0
  0
SOLID
  5
630
  8
0
  6
CONTINUOUS
 10
506.51899563760571
 20
-5.2497370233902103
 30
0.0
 11
506.320850007959
 21
-5.6144161011233251
 31
0.0
 12
507.4501289096263
 22
-5.6144161011233251
 32
0.0
 13
507.4501289096263
 23
-5.6144161011233251
 33
0.0
210
0.0
220
0.0
230
1.0
  0
SOLID
  5
631
  8
0
  6
CONTINUOUS
 10
-506.51899563760571
 20
-5.2497370233902103
 30
0.0
 11
-507.54280356879309
 21
-5.2497370233902103
 31
0.0
 12
-507.4501289096263
 22
-5.6144161011233251
 32
0.0
 13
-507.4501289096263
 23
-5.6144161011233251
 33
0.0
210
0.0
220
0.0
230
-1.0
  0
SOLID
  5
632
  8
0
  6
CONTINUOUS
 10
506.320850007959
 20
-5.6144161011233251
 30
0.0
 11
506.13486890833468
 21
-5.9567068496384223
 31
0.0
 12
507.26414781000199
 22
-5.9567068496384223
 32
0.0
 13
507.26414781000199
 23
-5.9567068496384223
 33
0.0
210
0.0
220
0.0
230
1.0
  0
SOLID
  5
633
  8
0
  6
CONTINUOUS
 10
-506.320850007959
 20
-5.6144161011233251
 30
0.0
 11
-507.4501289096263
 21
-5.6144161011233251
 31
0.0
 12
-507.26414781000199
 22
-5.9567068496384223
 32
0.0
 13
-507.26414781000199
 23
-5.9567068496384223
 33
0.0
210
0.0
220
0.0
230
-1.0
  0
SOLID
  5
634
  8
0
  6
CONTINUOUS
 10
506.13486890833468
 20
-5.9567068496384223
 30
0.0
 11
505.59566721813809
 21
-6.5394879611841574
 31
0.0
 12
506.94749808331278
 22
-6.5394879611841574
 32
0.0
 13
506.94749808331278
 23
-6.5394879611841574
 33
0.0
  0
SOLID
  5
635
  8
0
  6
CONTINUOUS
 10
-506.13486890833468
 20
-5.9567068496384223
 30
0.0
 11
-507.26414781000199
 21
-5.9567068496384223
 31
0.0
 12
-506.94749808331278
 22
-6.5394879611841574
 32
0.0
 13
-506.94749808331278
 23
-6.5394879611841574
 33
0.0
210
0.0
220
0.0
230
-1.0
  0
SOLID
  5
636
  8
0
  6
CONTINUOUS
 10
505.59566721813809
 20
-6.5394879611841574
 30
0.0
 11
505.58845026087829
 21
-6.547288208198025
 31
0.0
 12
506.94028112605298
 22
-6.547288208198025
 32
0.0
 13
506.94028112605298
 23
-6.547288208198025
 33
0.0
210
0.0
220
0.0
230
1.0
  0
SOLID
  5
637
  8
0
  6
CONTINUOUS
 10
-505.59566721813809
 20
-6.5394879611841574
 30
0.0
 11
-506.94749808331278
 21
-6.5394879611841574
 31
0.0
 12
-506.94028112605298
 22
-6.547288208198025
 32
0.0
 13
-506.94028112605298
 23
-6.547288208198025
 33
0.0
210
0.0
220
0.0
230
-1.0
  0
SOLID
  5
638
  8
0
  6
CONTINUOUS
 10
505.58845026087829
 20
-6.547288208198025
 30
0.0
 11
504.67985169489828
 21
-7.3122652079575943
 31
0.0
 12
506.23250785910932
 22
-7.3122652079575943
 32
0.0
 13
506.23250785910932
 23
-7.3122652079575943
 33
0.0
210
0.0
220
0.0
230
1.0
  0
SOLID
  5
639
  8
0
  6
CONTINUOUS
 10
-505.58845026087829
 20
-6.547288208198025
 30
0.0
 11
-506.94028112605298
 21
-6.547288208198025
 31
0.0
 12
-506.23250785910932
 22
-7.3122652079575943
 32
0.0
 13
-506.23250785910932
 23
-7.3122652079575943
 33
0.0
210
0.0
220
0.0
230
-1.0
  0
SOLID
  5
63A
  8
0
  6
CONTINUOUS
 10
504.67985169489828
 20
-7.3122652079575943
 30
0.0
 11
499.87490817456211
 21
-11.35769452715993
 31
0.0
 12
501.42756433877298
 22
-11.35769452715993
 32
0.0
 13
501.42756433877298
 23
-11.35769452715993
 33
0.0
  0
SOLID
  5
63B
  8
0
  6
CONTINUOUS
 10
-504.67985169489828
 20
-7.3122652079575943
 30
0.0
 11
-506.23250785910932
 21
-7.3122652079575943
 31
0.0
 12
-501.42756433877298
 22
-11.35769452715993
 32
0.0
 13
-501.42756433877298
 23
-11.35769452715993
 33
0.0
210
0.0
220
0.0
230
-1.0
  0
SOLID
  5
63C
  8
0
  6
CONTINUOUS
 10
499.87490817456211
 20
-11.35769452715993
 30
0.0
 11
499.22692196295742
 21
-12.06319109560307
 31
0.0
 12
500.58961343228458
 22
-12.06319109560307
 32
0.0
 13
500.58961343228458
 23
-12.06319109560307
 33
0.0
  0
SOLID
  5
63D
  8
0
  6
CONTINUOUS
 10
-499.87490817456211
 20
-11.35769452715993
 30
0.0
 11
-501.42756433877298
 21
-11.35769452715993
 31
0.0
 12
-500.58961343228458
 22
-12.06319109560307
 32
0.0
 13
-500.58961343228458
 23
-12.06319109560307
 33
0.0
210
0.0
220
0.0
230
-1.0
  0
SOLID
  5
63E
  8
0
  6
CONTINUOUS
 10
499.22692196295742
 20
-12.06319109560307
 30
0.0
 11
499.1954407966486
 21
-12.122671526919421
 31
0.0
 12
500.51896577279291
 22
-12.122671526919421
 32
0.0
 13
500.51896577279291
 23
-12.122671526919421
 33
0.0
210
0.0
220
0.0
230
1.0
  0
SOLID
  5
63F
  8
0
  6
CONTINUOUS
 10
-499.22692196295742
 20
-12.06319109560307
 30
0.0
 11
-500.58961343228458
 21
-12.06319109560307
 31
0.0
 12
-500.51896577279291
 22
-12.122671526919421
 32
0.0
 13
-500.51896577279291
 23
-12.122671526919421
 33
0.0
210
0.0
220
0.0
230
-1.0
  0
SOLID
  5
640
  8
0
  6
CONTINUOUS
 10
499.1954407966486
 20
-12.122671526919421
 30
0.0
 11
498.92161583448973
 21
-12.64003567711104
 31
0.0
 12
500.04377588428292
 22
-12.64003567711104
 32
0.0
 13
500.04377588428292
 23
-12.64003567711104
 33
0.0
210
0.0
220
0.0
230
1.0
  0
SOLID
  5
641
  8
0
  6
CONTINUOUS
 10
-499.1954407966486
 20
-12.122671526919421
 30
0.0
 11
-500.51896577279291
 21
-12.122671526919421
 31
0.0
 12
-500.04377588428292
 22
-12.64003567711104
 32
0.0
 13
-500.04377588428292
 23
-12.64003567711104
 33
0.0
210
0.0
220
0.0
230
-1.0
  0
SOLID
  5
642
  8
0
  6
CONTINUOUS
 10
498.92161583448973
 20
-12.64003567711104
 30
0.0
 11
498.7788169736163
 21
-12.90983946242531
 31
0.0
 12
499.90097702340961
 22
-12.90983946242531
 32
0.0
 13
499.90097702340961
 23
-12.90983946242531
 33
0.0
  0
SOLID
  5
643
  8
0
  6
CONTINUOUS
 10
-498.92161583448973
 20
-12.64003567711104
 30
0.0
 11
-500.04377588428292
 21
-12.64003567711104
 31
0.0
 12
-499.90097702340961
 22
-12.90983946242531
 32
0.0
 13
-499.90097702340961
 23
-12.90983946242531
 33
0.0
210
0.0
220
0.0
230
-1.0
  0
SOLID
  5
644
  8
0
  6
CONTINUOUS
 10
498.7788169736163
 20
-12.90983946242531
 30
0.0
 11
498.69637777878557
 21
-13.26091114611404
 31
0.0
 12
499.7151655587661
 22
-13.26091114611404
 32
0.0
 13
499.7151655587661
 23
-13.26091114611404
 33
0.0
  0
SOLID
  5
645
  8
0
  6
CONTINUOUS
 10
-498.7788169736163
 20
-12.90983946242531
 30
0.0
 11
-499.90097702340961
 21
-12.90983946242531
 31
0.0
 12
-499.7151655587661
 22
-13.26091114611404
 32
0.0
 13
-499.7151655587661
 23
-13.26091114611404
 33
0.0
210
0.0
220
0.0
230
-1.0
  0
SOLID
  5
646
  8
0
  6
CONTINUOUS
 10
498.69637777878557
 20
-13.26091114611404
 30
0.0
 11
498.55983312182371
 21
-13.84239380999381
 31
0.0
 12
499.57862090180419
 22
-13.84239380999381
 32
0.0
 13
499.57862090180419
 23
-13.84239380999381
 33
0.0
210
0.0
220
0.0
230
1.0
  0
SOLID
  5
647
  8
0
  6
CONTINUOUS
 10
-498.69637777878557
 20
-13.26091114611404
 30
0.0
 11
-499.7151655587661
 21
-13.26091114611404
 31
0.0
 12
-499.57862090180419
 22
-13.84239380999381
 32
0.0
 13
-499.57862090180419
 23
-13.84239380999381
 33
0.0
210
0.0
220
0.0
230
-1.0
  0
SOLID
  5
648
  8
0
  6
CONTINUOUS
 10
498.55983312182371
 20
-13.84239380999381
 30
0.0
 11
498.56244487938068
 21
-13.944784334330871
 31
0.0
 12
499.55457740078492
 22
-13.944784334330871
 32
0.0
 13
499.55457740078492
 23
-13.944784334330871
 33
0.0
  0
SOLID
  5
649
  8
0
  6
CONTINUOUS
 10
-498.55983312182371
 20
-13.84239380999381
 30
0.0
 11
-499.57862090180419
 21
-13.84239380999381
 31
0.0
 12
-499.55457740078492
 22
-13.944784334330871
 32
0.0
 13
-499.55457740078492
 23
-13.944784334330871
 33
0.0
210
0.0
220
0.0
230
-1.0
  0
SOLID
  5
64A
  8
0
  6
CONTINUOUS
 10
532.29672670848515
 20
15.80435460668204
 30
0.0
 11
532.29672670848515
 21
-14.000000000000149
 31
0.0
 12
533.29672670848515
 22
-14.000000000000149
 32
0.0
 13
533.29672670848515
 23
-14.000000000000149
 33
0.0
210
0.0
220
0.0
230
1.0
  0
SOLID
  5
64B
  8
0
  6
CONTINUOUS
 10
-532.29672670848515
 20
15.80435460668204
 30
0.0
 11
-533.29672670848515
 21
15.80435460668204
 31
0.0
 12
-533.29672670848515
 22
-14.000000000000149
 32
0.0
 13
-533.29672670848515
 23
-14.000000000000149
 33
0.0
210
0.0
220
0.0
230
-1.0
  0
SOLID
  5
64C
  8
0
  6
CONTINUOUS
 10
498.56244487938068
 20
-13.944784334330871
 30
0.0
 11
498.58035764781192
 21
-14.6470308912984
 31
0.0
 12
499.572490169216
 22
-14.6470308912984
 32
0.0
 13
499.572490169216
 23
-14.6470308912984
 33
0.0
210
0.0
220
0.0
230
1.0
  0
SOLID
  5
64D
  8
0
  6
CONTINUOUS
 10
-498.56244487938068
 20
-13.944784334330871
 30
0.0
 11
-499.55457740078492
 21
-13.944784334330871
 31
0.0
 12
-499.572490169216
 22
-14.6470308912984
 32
0.0
 13
-499.572490169216
 23
-14.6470308912984
 33
0.0
210
0.0
220
0.0
230
-1.0
  0
SOLID
  5
64E
  8
0
  6
CONTINUOUS
 10
498.58035764781192
 20
-14.6470308912984
 30
0.0
 11
498.5842596242299
 21
-14.80000275131337
 31
0.0
 12
499.59616924903719
 22
-14.80000275131337
 32
0.0
 13
499.59616924903719
 23
-14.80000275131337
 33
0.0
210
0.0
220
0.0
230
1.0
  0
SOLID
  5
64F
  8
0
  6
CONTINUOUS
 10
-498.58035764781192
 20
-14.6470308912984
 30
0.0
 11
-499.572490169216
 21
-14.6470308912984
 31
0.0
 12
-499.59616924903719
 22
-14.80000275131337
 32
0.0
 13
-499.59616924903719
 23
-14.80000275131337
 33
0.0
210
0.0
220
0.0
230
-1.0
  0
SOLID
  5
650
  8
0
  6
CONTINUOUS
 10
532.29672670848515
 20
-14.000000000000149
 30
0.0
 11
532.03265186222552
 21
-16.005847599544609
 31
0.0
 12
533.03265186222552
 22
-16.005847599544609
 32
0.0
 13
533.03265186222552
 23
-16.005847599544609
 33
0.0
210
0.0
220
0.0
230
1.0
  0
SOLID
  5
651
  8
0
  6
CONTINUOUS
 10
-532.29672670848515
 20
-14.000000000000149
 30
0.0
 11
-533.29672670848515
 21
-14.000000000000149
 31
0.0
 12
-533.03265186222552
 22
-16.005847599544609
 32
0.0
 13
-533.03265186222552
 23
-16.005847599544609
 33
0.0
210
0.0
220
0.0
230
-1.0
  0
SOLID
  5
652
  8
0
  6
CONTINUOUS
 10
532.03265186222552
 20
-16.005847599544609
 30
0.0
 11
531.92544550354364
 21
-16.264666644647161
 31
0.0
 12
532.99857768851462
 22
-16.264666644647161
 32
0.0
 13
532.99857768851462
 23
-16.264666644647161
 33
0.0
210
0.0
220
0.0
230
1.0
  0
SOLID
  5
653
  8
0
  6
CONTINUOUS
 10
-532.03265186222552
 20
-16.005847599544609
 30
0.0
 11
-533.03265186222552
 21
-16.005847599544609
 31
0.0
 12
-532.99857768851462
 22
-16.264666644647161
 32
0.0
 13
-532.99857768851462
 23
-16.264666644647161
 33
0.0
210
0.0
220
0.0
230
-1.0
  0
SOLID
  5
654
  8
0
  6
CONTINUOUS
 10
531.92544550354364
 20
-16.264666644647161
 30
0.0
 11
531.25842358781472
 21
-17.875000000000011
 31
0.0
 12
532.33155577278546
 22
-17.875000000000011
 32
0.0
 13
532.33155577278546
 23
-17.875000000000011
 33
0.0
210
0.0
220
0.0
230
1.0
  0
SOLID
  5
655
  8
0
  6
CONTINUOUS
 10
-531.92544550354364
 20
-16.264666644647161
 30
0.0
 11
-532.99857768851462
 21
-16.264666644647161
 31
0.0
 12
-532.33155577278546
 22
-17.875000000000011
 32
0.0
 13
-532.33155577278546
 23
-17.875000000000011
 33
0.0
210
0.0
220
0.0
230
-1.0
  0
SOLID
  5
656
  8
0
  6
CONTINUOUS
 10
531.25842358781472
 20
-17.875000000000011
 30
0.0
 11
530.8747600938251
 21
-18.37500000000011
 31
0.0
 12
532.12444899159902
 22
-18.37500000000011
 32
0.0
 13
532.12444899159902
 23
-18.37500000000011
 33
0.0
  0
SOLID
  5
657
  8
0
  6
CONTINUOUS
 10
-531.25842358781472
 20
-17.875000000000011
 30
0.0
 11
-532.33155577278546
 21
-17.875000000000011
 31
0.0
 12
-532.12444899159902
 22
-18.37500000000011
 32
0.0
 13
-532.12444899159902
 23
-18.37500000000011
 33
0.0
210
0.0
220
0.0
230
-1.0
  0
SOLID
  5
658
  8
0
  6
CONTINUOUS
 10
498.5842596242299
 20
-14.80000275131337
 30
0.0
 11
499.299510197242
 21
-19.420672615041081
 31
0.0
 12
500.31141982204917
 22
-19.420672615041081
 32
0.0
 13
500.31141982204917
 23
-19.420672615041081
 33
0.0
210
0.0
220
0.0
230
1.0
  0
SOLID
  5
659
  8
0
  6
CONTINUOUS
 10
-498.5842596242299
 20
-14.80000275131337
 30
0.0
 11
-499.59616924903719
 21
-14.80000275131337
 31
0.0
 12
-500.31141982204917
 22
-19.420672615041081
 32
0.0
 13
-500.31141982204917
 23
-19.420672615041081
 33
0.0
210
0.0
220
0.0
230
-1.0
  0
SOLID
  5
65A
  8
0
  6
CONTINUOUS
 10
530.8747600938251
 20
-18.37500000000011
 30
0.0
 11
530.02680426268103
 21
-19.48007755419572
 31
0.0
 12
531.27649316045495
 22
-19.48007755419572
 32
0.0
 13
531.27649316045495
 23
-19.48007755419572
 33
0.0
210
0.0
220
0.0
230
1.0
  0
SOLID
  5
65B
  8
0
  6
CONTINUOUS
 10
-530.8747600938251
 20
-18.37500000000011
 30
0.0
 11
-532.12444899159902
 21
-18.37500000000011
 31
0.0
 12
-531.27649316045495
 22
-19.48007755419572
 32
0.0
 13
-531.27649316045495
 23
-19.48007755419572
 33
0.0
210
0.0
220
0.0
230
-1.0
  0
SOLID
  5
65C
  8
0
  6
CONTINUOUS
 10
499.299510197242
 20
-19.420672615041081
 30
0.0
 11
499.32318927706308
 21
-19.573644475055911
 31
0.0
 12
500.35403227821121
 22
-19.573644475055911
 32
0.0
 13
500.35403227821121
 23
-19.573644475055911
 33
0.0
210
0.0
220
0.0
230
1.0
  0
SOLID
  5
65D
  8
0
  6
CONTINUOUS
 10
-499.299510197242
 20
-19.420672615041081
 30
0.0
 11
-500.31141982204917
 21
-19.420672615041081
 31
0.0
 12
-500.35403227821121
 22
-19.573644475055911
 32
0.0
 13
-500.35403227821121
 23
-19.573644475055911
 33
0.0
210
0.0
220
0.0
230
-1.0
  0
SOLID
  5
65E
  8
0
  6
CONTINUOUS
 10
499.32318927706308
 20
-19.573644475055911
 30
0.0
 11
499.45447929526563
 21
-20.04495451194888
 31
0.0
 12
500.48532229641359
 22
-20.04495451194888
 32
0.0
 13
500.48532229641359
 23
-20.04495451194888
 33
0.0
210
0.0
220
0.0
230
1.0
  0
SOLID
  5
65F
  8
0
  6
CONTINUOUS
 10
-499.32318927706308
 20
-19.573644475055911
 30
0.0
 11
-500.35403227821121
 21
-19.573644475055911
 31
0.0
 12
-500.48532229641359
 22
-20.04495451194888
 32
0.0
 13
-500.48532229641359
 23
-20.04495451194888
 33
0.0
210
0.0
220
0.0
230
-1.0
  0
SOLID
  5
660
  8
0
  6
CONTINUOUS
 10
530.02680426268103
 20
-19.48007755419572
 30
0.0
 11
529.1052847641306
 21
-20.18718433538238
 31
0.0
 12
530.73391104386735
 22
-20.18718433538238
 32
0.0
 13
530.73391104386735
 23
-20.18718433538238
 33
0.0
210
0.0
220
0.0
230
1.0
  0
SOLID
  5
661
  8
0
  6
CONTINUOUS
 10
-530.02680426268103
 20
-19.48007755419572
 30
0.0
 11
-531.27649316045495
 21
-19.48007755419572
 31
0.0
 12
-530.73391104386735
 22
-20.18718433538238
 32
0.0
 13
-530.73391104386735
 23
-20.18718433538238
 33
0.0
210
0.0
220
0.0
230
-1.0
  0
SOLID
  5
662
  8
0
  6
CONTINUOUS
 10
499.45447929526563
 20
-20.04495451194888
 30
0.0
 11
499.56032901483297
 21
-20.42493797083927
 31
0.0
 12
500.6968130973641
 22
-20.42493797083927
 32
0.0
 13
500.6968130973641
 23
-20.42493797083927
 33
0.0
210
0.0
220
0.0
230
1.0
  0
SOLID
  5
663
  8
0
  6
CONTINUOUS
 10
-499.45447929526563
 20
-20.04495451194888
 30
0.0
 11
-500.48532229641359
 21
-20.04495451194888
 31
0.0
 12
-500.6968130973641
 22
-20.42493797083927
 32
0.0
 13
-500.6968130973641
 23
-20.42493797083927
 33
0.0
210
0.0
220
0.0
230
-1.0
  0
SOLID
  5
664
  8
0
  6
CONTINUOUS
 10
499.56032901483297
 20
-20.42493797083927
 30
0.0
 11
499.66400228426818
 21
-20.611206722659659
 31
0.0
 12
500.80048636679942
 22
-20.611206722659659
 32
0.0
 13
500.80048636679942
 23
-20.611206722659659
 33
0.0
210
0.0
220
0.0
230
1.0
  0
SOLID
  5
665
  8
0
  6
CONTINUOUS
 10
-499.56032901483297
 20
-20.42493797083927
 30
0.0
 11
-500.6968130973641
 21
-20.42493797083927
 31
0.0
 12
-500.80048636679942
 22
-20.611206722659659
 32
0.0
 13
-500.80048636679942
 23
-20.611206722659659
 33
0.0
210
0.0
220
0.0
230
-1.0
  0
SOLID
  5
666
  8
0
  6
CONTINUOUS
 10
529.1052847641306
 20
-20.18718433538238
 30
0.0
 11
528.42172670848527
 21
-20.711696879329399
 31
0.0
 12
530.05035298822224
 22
-20.711696879329399
 32
0.0
 13
530.05035298822224
 23
-20.711696879329399
 33
0.0
  0
SOLID
  5
667
  8
0
  6
CONTINUOUS
 10
-529.1052847641306
 20
-20.18718433538238
 30
0.0
 11
-530.73391104386735
 21
-20.18718433538238
 31
0.0
 12
-530.05035298822224
 22
-20.711696879329399
 32
0.0
 13
-530.05035298822224
 23
-20.711696879329399
 33
0.0
210
0.0
220
0.0
230
-1.0
  0
SOLID
  5
668
  8
0
  6
CONTINUOUS
 10
499.66400228426818
 20
-20.611206722659659
 30
0.0
 11
499.92936617699547
 21
-21.087983439992168
 31
0.0
 12
501.23940995833499
 22
-21.087983439992168
 32
0.0
 13
501.23940995833499
 23
-21.087983439992168
 33
0.0
210
0.0
220
0.0
230
1.0
  0
SOLID
  5
669
  8
0
  6
CONTINUOUS
 10
-499.66400228426818
 20
-20.611206722659659
 30
0.0
 11
-500.80048636679942
 21
-20.611206722659659
 31
0.0
 12
-501.23940995833499
 22
-21.087983439992168
 32
0.0
 13
-501.23940995833499
 23
-21.087983439992168
 33
0.0
210
0.0
220
0.0
230
-1.0
  0
SOLID
  5
66A
  8
0
  6
CONTINUOUS
 10
499.92936617699547
 20
-21.087983439992168
 30
0.0
 11
499.99009820172239
 21
-21.197100076353991
 31
0.0
 12
501.40219941450459
 22
-21.197100076353991
 32
0.0
 13
501.40219941450459
 23
-21.197100076353991
 33
0.0
210
0.0
220
0.0
230
1.0
  0
SOLID
  5
66B
  8
0
  6
CONTINUOUS
 10
-499.92936617699547
 20
-21.087983439992168
 30
0.0
 11
-501.23940995833499
 21
-21.087983439992168
 31
0.0
 12
-501.40219941450459
 22
-21.197100076353991
 32
0.0
 13
-501.40219941450459
 23
-21.197100076353991
 33
0.0
210
0.0
220
0.0
230
-1.0
  0
SOLID
  5
66C
  8
0
  6
CONTINUOUS
 10
499.99009820172239
 20
-21.197100076353991
 30
0.0
 11
500.22182181242579
 21
-21.448807718800591
 31
0.0
 12
501.77771823174288
 22
-21.448807718800591
 32
0.0
 13
501.77771823174288
 23
-21.448807718800591
 33
0.0
210
0.0
220
0.0
230
1.0
  0
SOLID
  5
66D
  8
0
  6
CONTINUOUS
 10
-499.99009820172239
 20
-21.197100076353991
 30
0.0
 11
-501.40219941450459
 21
-21.197100076353991
 31
0.0
 12
-501.77771823174288
 22
-21.448807718800591
 32
0.0
 13
-501.77771823174288
 23
-21.448807718800591
 33
0.0
210
0.0
220
0.0
230
-1.0
  0
SOLID
  5
66E
  8
0
  6
CONTINUOUS
 10
528.42172670848527
 20
-20.711696879329399
 30
0.0
 11
526.55257430802976
 21
-21.485925153740311
 31
0.0
 12
529.04135905663884
 22
-21.485925153740311
 32
0.0
 13
529.04135905663884
 23
-21.485925153740311
 33
0.0
210
0.0
220
0.0
230
1.0
  0
SOLID
  5
66F
  8
0
  6
CONTINUOUS
 10
-528.42172670848527
 20
-20.711696879329399
 30
0.0
 11
-530.05035298822224
 21
-20.711696879329399
 31
0.0
 12
-529.04135905663884
 22
-21.485925153740311
 32
0.0
 13
-529.04135905663884
 23
-21.485925153740311
 33
0.0
210
0.0
220
0.0
230
-1.0
  0
SOLID
  5
670
  8
0
  6
CONTINUOUS
 10
526.55257430802976
 20
-21.485925153740311
 30
0.0
 11
525.85530588505424
 21
-21.577722283113872
 31
0.0
 12
528.92172670848515
 22
-21.577722283113872
 32
0.0
 13
528.92172670848515
 23
-21.577722283113872
 33
0.0
210
0.0
220
0.0
230
1.0
  0
SOLID
  5
671
  8
0
  6
CONTINUOUS
 10
-526.55257430802976
 20
-21.485925153740311
 30
0.0
 11
-529.04135905663884
 21
-21.485925153740311
 31
0.0
 12
-528.92172670848515
 22
-21.577722283113872
 32
0.0
 13
-528.92172670848515
 23
-21.577722283113872
 33
0.0
210
0.0
220
0.0
230
-1.0
  0
SOLID
  5
672
  8
0
  6
CONTINUOUS
 10
500.22182181242579
 20
-21.448807718800591
 30
0.0
 11
500.42880548048771
 21
-21.673641825927799
 31
0.0
 12
502.38551719659
 22
-21.673641825927799
 32
0.0
 13
502.38551719659
 23
-21.673641825927799
 33
0.0
210
0.0
220
0.0
230
1.0
  0
SOLID
  5
673
  8
0
  6
CONTINUOUS
 10
-500.22182181242579
 20
-21.448807718800591
 30
0.0
 11
-501.77771823174288
 21
-21.448807718800591
 31
0.0
 12
-502.38551719659
 22
-21.673641825927799
 32
0.0
 13
-502.38551719659
 23
-21.673641825927799
 33
0.0
210
0.0
220
0.0
230
-1.0
  0
SOLID
  5
674
  8
0
  6
CONTINUOUS
 10
525.85530588505424
 20
-21.577722283113872
 30
0.0
 11
524.54672670848538
 21
-21.750000000000021
 31
0.0
 12
528.505811507884
 22
-21.750000000000021
 32
0.0
 13
528.505811507884
 23
-21.750000000000021
 33
0.0
210
0.0
220
0.0
230
1.0
  0
SOLID
  5
675
  8
0
  6
CONTINUOUS
 10
-525.85530588505424
 20
-21.577722283113872
 30
0.0
 11
-528.92172670848515
 21
-21.577722283113872
 31
0.0
 12
-528.505811507884
 22
-21.750000000000021
 32
0.0
 13
-528.505811507884
 23
-21.750000000000021
 33
0.0
210
0.0
220
0.0
230
-1.0
  0
SOLID
  5
676
  8
0
  6
CONTINUOUS
 10
500.42880548048771
 20
-21.673641825927799
 30
0.0
 11
500.4991012872847
 21
-21.750000000000021
 31
0.0
 12
503.02905382076068
 22
-21.750000000000021
 32
0.0
 13
503.02905382076068
 23
-21.750000000000021
 33
0.0
  0
SOLID
  5
677
  8
0
  6
CONTINUOUS
 10
-500.42880548048771
 20
-21.673641825927799
 30
0.0
 11
-502.38551719659
 21
-21.673641825927799
 31
0.0
 12
-503.02905382076068
 22
-21.750000000000021
 32
0.0
 13
-503.02905382076068
 23
-21.750000000000021
 33
0.0
210
0.0
220
0.0
230
-1.0
  0
SOLID
  5
678
  8
0
  6
CONTINUOUS
 10
500.4991012872847
 20
-21.750000000000021
 30
0.0
 11
500.58863037199831
 21
-21.847250145443851
 31
0.0
 12
528.27102888781064
 22
-21.847250145443851
 32
0.0
 13
528.27102888781064
 23
-21.847250145443851
 33
0.0
210
0.0
220
0.0
230
1.0
  0
SOLID
  5
679
  8
0
  6
CONTINUOUS
 10
-500.4991012872847
 20
-21.750000000000021
 30
0.0
 11
-528.505811507884
 21
-21.750000000000021
 31
0.0
 12
-528.27102888781064
 22
-21.847250145443851
 32
0.0
 13
-528.27102888781064
 23
-21.847250145443851
 33
0.0
210
0.0
220
0.0
230
-1.0
  0
SOLID
  5
67A
  8
0
  6
CONTINUOUS
 10
500.58863037199831
 20
-21.847250145443851
 30
0.0
 11
501.32268710846358
 21
-22.33928325290972
 31
0.0
 12
527.08315588663015
 22
-22.33928325290972
 32
0.0
 13
527.08315588663015
 23
-22.33928325290972
 33
0.0
210
0.0
220
0.0
230
1.0
  0
SOLID
  5
67B
  8
0
  6
CONTINUOUS
 10
-500.58863037199831
 20
-21.847250145443851
 30
0.0
 11
-528.27102888781064
 21
-21.847250145443851
 31
0.0
 12
-527.08315588663015
 22
-22.33928325290972
 32
0.0
 13
-527.08315588663015
 23
-22.33928325290972
 33
0.0
210
0.0
220
0.0
230
-1.0
  0
SOLID
  5
67C
  8
0
  6
CONTINUOUS
 10
501.32268710846358
 20
-22.33928325290972
 30
0.0
 11
501.62699391001013
 21
-22.451850980029331
 31
0.0
 12
526.8113933531323
 22
-22.451850980029331
 32
0.0
 13
526.8113933531323
 23
-22.451850980029331
 33
0.0
  0
SOLID
  5
67D
  8
0
  6
CONTINUOUS
 10
-501.32268710846358
 20
-22.33928325290972
 30
0.0
 11
-527.08315588663015
 21
-22.33928325290972
 31
0.0
 12
-526.8113933531323
 22
-22.451850980029331
 32
0.0
 13
-526.8113933531323
 23
-22.451850980029331
 33
0.0
210
0.0
220
0.0
230
-1.0
  0
SOLID
  5
67E
  8
0
  6
CONTINUOUS
 10
501.62699391001013
 20
-22.451850980029331
 30
0.0
 11
502.1515038787096
 21
-22.645875217174339
 31
0.0
 12
525.33763295586959
 22
-22.645875217174339
 32
0.0
 13
525.33763295586959
 23
-22.645875217174339
 33
0.0
210
0.0
220
0.0
230
1.0
  0
SOLID
  5
67F
  8
0
  6
CONTINUOUS
 10
-501.62699391001013
 20
-22.451850980029331
 30
0.0
 11
-526.8113933531323
 21
-22.451850980029331
 31
0.0
 12
-525.33763295586959
 22
-22.645875217174339
 32
0.0
 13
-525.33763295586959
 23
-22.645875217174339
 33
0.0
210
0.0
220
0.0
230
-1.0
  0
SOLID
  5
680
  8
0
  6
CONTINUOUS
 10
502.1515038787096
 20
-22.645875217174339
 30
0.0
 11
503.02905382076068
 21
-22.749999999999929
 31
0.0
 12
524.54672670848538
 22
-22.749999999999929
 32
0.0
 13
524.54672670848538
 23
-22.749999999999929
 33
0.0
  0
SOLID
  5
681
  8
0
  6
CONTINUOUS
 10
-502.1515038787096
 20
-22.645875217174339
 30
0.0
 11
-525.33763295586959
 21
-22.645875217174339
 31
0.0
 12
-524.54672670848538
 22
-22.749999999999929
 32
0.0
 13
-524.54672670848538
 23
-22.749999999999929
 33
0.0
210
0.0
220
0.0
230
-1.0
  0
LINE
  5
682
  8
0
  6
CONTINUOUS
 10
529.09337845645712
 20
127.2184395584177
 30
0.0
 11
527.94398561482205
 21
127.2116030365483
 31
0.0
  0
LINE
  5
683
  8
0
  6
CONTINUOUS
 10
529.12172860793225
 20
127.2116030365483
 30
0.0
 11
529.09337845645712
 21
127.2184395584177
 31
0.0
  0
LINE
  5
684
  8
0
  6
CONTINUOUS
 10
527.94398561482205
 20
127.2116030365483
 30
0.0
 11
525.89112756603402
 21
126.94898712942231
 31
0.0
  0
LINE
  5
685
  8
0
  6
CONTINUOUS
 10
529.12172860793225
 20
127.2116030365483
 30
0.0
 11
530.21076202128211
 21
126.94898712942231
 31
0.0
  0
LINE
  5
686
  8
0
  6
CONTINUOUS
 10
525.89112756603402
 20
126.94898712942231
 30
0.0
 11
521.74842366659072
 21
126.4190235778027
 31
0.0
  0
LINE
  5
687
  8
0
  6
CONTINUOUS
 10
530.21076202128211
 20
126.94898712942231
 30
0.0
 11
531.23070774355733
 21
126.4190235778027
 31
0.0
  0
LINE
  5
688
  8
0
  6
CONTINUOUS
 10
521.74842366659072
 20
126.4190235778027
 30
0.0
 11
520.23240465955621
 21
126.2250838619087
 31
0.0
  0
LINE
  5
689
  8
0
  6
CONTINUOUS
 10
531.23070774355733
 20
126.4190235778027
 30
0.0
 11
531.4510380810043
 21
126.2250838619087
 31
0.0
  0
LINE
  5
68A
  8
0
  6
CONTINUOUS
 10
531.4510380810043
 20
126.2250838619087
 30
0.0
 11
531.45716977410939
 21
126.21968660780141
 31
0.0
  0
LINE
  5
68B
  8
0
  6
CONTINUOUS
 10
520.23240465955621
 20
126.2250838619087
 30
0.0
 11
520.19021453993719
 21
126.21968660780141
 31
0.0
  0
LINE
  5
68C
  8
0
  6
CONTINUOUS
 10
529.00067557646935
 20
126.21968660780141
 30
0.0
 11
529.86043879753538
 21
126.0123582600702
 31
0.0
  0
LINE
  5
68D
  8
0
  6
CONTINUOUS
 10
531.45716977410939
 20
126.21968660780141
 30
0.0
 11
531.69271062043561
 21
126.0123582600702
 31
0.0
  0
LINE
  5
68E
  8
0
  6
CONTINUOUS
 10
529.86043879753538
 20
126.0123582600702
 30
0.0
 11
530.53937918077474
 21
125.6595810004756
 31
0.0
  0
LINE
  5
68F
  8
0
  6
CONTINUOUS
 10
531.69271062043561
 20
126.0123582600702
 30
0.0
 11
532.09349254533333
 21
125.6595810004756
 31
0.0
  0
LINE
  5
690
  8
0
  6
CONTINUOUS
 10
530.53937918077474
 20
125.6595810004756
 30
0.0
 11
530.66565910459474
 21
125.59396598247579
 31
0.0
  0
LINE
  5
691
  8
0
  6
CONTINUOUS
 10
532.09349254533333
 20
125.6595810004756
 30
0.0
 11
532.13900529297837
 21
125.59396598247579
 31
0.0
  0
LINE
  5
692
  8
0
  6
CONTINUOUS
 10
520.19021453993719
 20
126.21968660780141
 30
0.0
 11
513.78329602289239
 21
125.400068943916
 31
0.0
  0
LINE
  5
693
  8
0
  6
CONTINUOUS
 10
528.07087847664604
 20
126.21968660780141
 30
0.0
 11
521.66395995960158
 21
125.400068943916
 31
0.0
  0
LINE
  5
694
  8
0
  6
CONTINUOUS
 10
513.78329602289239
 20
125.400068943916
 30
0.0
 11
512.6158771595791
 21
125.0963036683022
 31
0.0
  0
LINE
  5
695
  8
0
  6
CONTINUOUS
 10
521.66395995960158
 20
125.400068943916
 30
0.0
 11
519.28943894215615
 21
125.0963036683022
 31
0.0
  0
LINE
  5
696
  8
0
  6
CONTINUOUS
 10
530.66565910459474
 20
125.59396598247579
 30
0.0
 11
531.34680500073375
 21
124.9944060530072
 31
0.0
  0
LINE
  5
697
  8
0
  6
CONTINUOUS
 10
532.13900529297837
 20
125.59396598247579
 30
0.0
 11
532.55487989912547
 21
124.9944060530072
 31
0.0
  0
LINE
  5
698
  8
0
  6
CONTINUOUS
 10
531.34680500073375
 20
124.9944060530072
 30
0.0
 11
531.54052103203435
 21
124.715128673848
 31
0.0
  0
LINE
  5
699
  8
0
  6
CONTINUOUS
 10
532.55487989912547
 20
124.9944060530072
 30
0.0
 11
532.74859593042618
 21
124.715128673848
 31
0.0
  0
LINE
  5
69A
  8
0
  6
CONTINUOUS
 10
512.6158771595791
 20
125.0963036683022
 30
0.0
 11
511.56262254298611
 21
124.5082604235371
 31
0.0
  0
LINE
  5
69B
  8
0
  6
CONTINUOUS
 10
519.28943894215615
 20
125.0963036683022
 30
0.0
 11
514.69272840294218
 21
124.5082604235371
 31
0.0
  0
LINE
  5
69C
  8
0
  6
CONTINUOUS
 10
511.56262254298611
 20
124.5082604235371
 30
0.0
 11
511.45810358747798
 21
124.40815251516899
 31
0.0
  0
LINE
  5
69D
  8
0
  6
CONTINUOUS
 10
514.69272840294218
 20
124.5082604235371
 30
0.0
 11
513.91018888471626
 21
124.40815251516899
 31
0.0
  0
LINE
  5
69E
  8
0
  6
CONTINUOUS
 10
531.54052103203435
 20
124.715128673848
 30
0.0
 11
531.86399188370194
 21
124.24878579514321
 31
0.0
  0
LINE
  5
69F
  8
0
  6
CONTINUOUS
 10
532.74859593042618
 20
124.715128673848
 30
0.0
 11
532.92618899840454
 21
124.24878579514321
 31
0.0
  0
LINE
  5
6A0
  8
0
  6
CONTINUOUS
 10
511.45810358747798
 20
124.40815251516899
 30
0.0
 11
511.207721959732
 21
124.1683378238949
 31
0.0
  0
LINE
  5
6A1
  8
0
  6
CONTINUOUS
 10
513.91018888471626
 20
124.40815251516899
 30
0.0
 11
512.9885424136794
 21
124.1683378238949
 31
0.0
  0
LINE
  5
6A2
  8
0
  6
CONTINUOUS
 10
511.207721959732
 20
124.1683378238949
 30
0.0
 11
510.72302131542119
 21
123.70409315697511
 31
0.0
  0
LINE
  5
6A3
  8
0
  6
CONTINUOUS
 10
512.9885424136794
 20
124.1683378238949
 30
0.0
 11
512.15702561110595
 21
123.70409315697511
 31
0.0
  0
LINE
  5
6A4
  8
0
  6
CONTINUOUS
 10
510.72302131542119
 20
123.70409315697511
 30
0.0
 11
510.69146050887412
 21
123.6738643213109
 31
0.0
  0
LINE
  5
6A5
  8
0
  6
CONTINUOUS
 10
512.15702561110595
 20
123.70409315697511
 30
0.0
 11
512.12546480455865
 21
123.6738643213109
 31
0.0
  0
LINE
  5
6A6
  8
0
  6
CONTINUOUS
 10
531.86399188370194
 20
124.24878579514321
 30
0.0
 11
532.09546110510519
 21
123.64096914852669
 31
0.0
  0
LINE
  5
6A7
  8
0
  6
CONTINUOUS
 10
532.92618899840454
 20
124.24878579514321
 30
0.0
 11
533.15765821980801
 21
123.64096914852669
 31
0.0
  0
LINE
  5
6A8
  8
0
  6
CONTINUOUS
 10
532.09546110510519
 20
123.64096914852669
 30
0.0
 11
532.18693579637147
 21
123.4007651172579
 31
0.0
  0
LINE
  5
6A9
  8
0
  6
CONTINUOUS
 10
533.15765821980801
 20
123.64096914852669
 30
0.0
 11
533.18693579637147
 21
123.4007651172579
 31
0.0
  0
LINE
  5
6AA
  8
0
  6
CONTINUOUS
 10
510.69146050887412
 20
123.6738643213109
 30
0.0
 11
510.30412239488419
 21
123.04535939205979
 31
0.0
  0
LINE
  5
6AB
  8
0
  6
CONTINUOUS
 10
512.12546480455865
 20
123.6738643213109
 30
0.0
 11
511.46926611049111
 21
123.04535939205979
 31
0.0
  0
LINE
  5
6AC
  8
0
  6
CONTINUOUS
 10
510.30412239488419
 20
123.04535939205979
 30
0.0
 11
510.05857556023318
 21
122.64692869193961
 31
0.0
  0
LINE
  5
6AD
  8
0
  6
CONTINUOUS
 10
511.46926611049111
 20
123.04535939205979
 30
0.0
 11
511.22371927584032
 21
122.64692869193961
 31
0.0
  0
LINE
  5
6AE
  8
0
  6
CONTINUOUS
 10
532.18693579637147
 20
123.4007651172579
 30
0.0
 11
532.29672670848504
 21
122.5
 31
0.0
  0
LINE
  5
6AF
  8
0
  6
CONTINUOUS
 10
533.18693579637147
 20
123.4007651172579
 30
0.0
 11
533.29672670848515
 21
122.5
 31
0.0
  0
LINE
  5
6B0
  8
0
  6
CONTINUOUS
 10
510.05857556023318
 20
122.64692869193961
 30
0.0
 11
509.87197892050602
 21
122.2346207372929
 31
0.0
  0
LINE
  5
6B1
  8
0
  6
CONTINUOUS
 10
511.22371927584032
 20
122.64692869193961
 30
0.0
 11
510.96962009840649
 21
122.2346207372929
 31
0.0
  0
LINE
  5
6B2
  8
0
  6
CONTINUOUS
 10
532.29672670848504
 20
122.5
 30
0.0
 11
532.29672670848504
 21
106.0882236182439
 31
0.0
  0
LINE
  5
6B3
  8
0
  6
CONTINUOUS
 10
533.29672670848515
 20
122.5
 30
0.0
 11
533.29672670848515
 21
106.0882236182439
 31
0.0
  0
LINE
  5
6B4
  8
0
  6
CONTINUOUS
 10
502.06492753485952
 20
102.5586202315944
 30
0.0
 11
501.87833089513242
 21
102.1463122769478
 31
0.0
  0
LINE
  5
6B5
  8
0
  6
CONTINUOUS
 10
501.87833089513242
 20
102.1463122769478
 30
0.0
 11
500.96728635695899
 21
102.5586202315944
 31
0.0
  0
LINE
  5
6B6
  8
0
  6
CONTINUOUS
 10
509.87197892050602
 20
122.2346207372929
 30
0.0
 11
500.96728635695899
 21
102.5586202315944
 31
0.0
  0
LINE
  5
6B7
  8
0
  6
CONTINUOUS
 10
510.96962009840649
 20
122.2346207372929
 30
0.0
 11
502.06492753485952
 21
102.5586202315944
 31
0.0
  0
LINE
  5
6B8
  8
0
  6
CONTINUOUS
 10
532.29672670848504
 20
105.0882236182439
 30
0.0
 11
532.29672670848504
 21
88.600316216313274
 31
0.0
  0
LINE
  5
6B9
  8
0
  6
CONTINUOUS
 10
533.29672670848515
 20
105.0882236182439
 30
0.0
 11
533.29672670848515
 21
88.600316216313274
 31
0.0
  0
LINE
  5
6BA
  8
0
  6
CONTINUOUS
 10
532.29672670848504
 20
88.600316216313274
 30
0.0
 11
532.24925876673092
 21
88.448054175968892
 31
0.0
  0
LINE
  5
6BB
  8
0
  6
CONTINUOUS
 10
533.29672670848515
 20
88.600316216313274
 30
0.0
 11
533.29672670848515
 21
88.448054175968892
 31
0.0
  0
LINE
  5
6BC
  8
0
  6
CONTINUOUS
 10
532.24925876673092
 20
88.448054175968892
 30
0.0
 11
530.29672670848515
 21
82.184953143150054
 31
0.0
  0
LINE
  5
6BD
  8
0
  6
CONTINUOUS
 10
533.29672670848515
 20
88.448054175968892
 30
0.0
 11
531.34419465023927
 21
82.184953143150054
 31
0.0
  0
LINE
  5
6BE
  8
0
  6
CONTINUOUS
 10
530.29672670848515
 20
82.184953143150054
 30
0.0
 11
530.29672670848515
 21
82.032691102805614
 31
0.0
  0
LINE
  5
6BF
  8
0
  6
CONTINUOUS
 10
531.34419465023927
 20
82.184953143150054
 30
0.0
 11
531.29672670848515
 21
82.032691102805614
 31
0.0
  0
LINE
  5
6C0
  8
0
  6
CONTINUOUS
 10
530.29672670848515
 20
82.032691102805614
 30
0.0
 11
530.29672670848515
 21
22.37197972018998
 31
0.0
  0
LINE
  5
6C1
  8
0
  6
CONTINUOUS
 10
531.29672670848515
 20
82.032691102805614
 30
0.0
 11
531.29672670848515
 21
22.37197972018998
 31
0.0
  0
LINE
  5
6C2
  8
0
  6
CONTINUOUS
 10
530.29672670848515
 20
22.37197972018998
 30
0.0
 11
530.29672670848515
 21
22.21971767984552
 31
0.0
  0
LINE
  5
6C3
  8
0
  6
CONTINUOUS
 10
531.29672670848515
 20
22.37197972018998
 30
0.0
 11
531.34419465023927
 21
22.21971767984552
 31
0.0
  0
LINE
  5
6C4
  8
0
  6
CONTINUOUS
 10
530.29672670848515
 20
22.21971767984552
 30
0.0
 11
532.24925876673092
 21
15.9566166470265
 31
0.0
  0
LINE
  5
6C5
  8
0
  6
CONTINUOUS
 10
531.34419465023927
 20
22.21971767984552
 30
0.0
 11
533.29672670848515
 21
15.9566166470265
 31
0.0
  0
LINE
  5
6C6
  8
0
  6
CONTINUOUS
 10
532.24925876673092
 20
15.9566166470265
 30
0.0
 11
532.29672670848515
 21
15.80435460668204
 31
0.0
  0
LINE
  5
6C7
  8
0
  6
CONTINUOUS
 10
533.29672670848515
 20
15.9566166470265
 30
0.0
 11
533.29672670848515
 21
15.80435460668204
 31
0.0
  0
LINE
  5
6C8
  8
0
  6
CONTINUOUS
 10
502.64405759823143
 20
2.1982054826780191
 30
0.0
 11
502.0000000000004
 21
1.4332284829184581
 31
0.0
  0
LINE
  5
6C9
  8
0
  6
CONTINUOUS
 10
503.55265616421138
 20
1.4332284829184581
 30
0.0
 11
502.64405759823143
 21
2.1982054826780191
 31
0.0
  0
LINE
  5
6CA
  8
0
  6
CONTINUOUS
 10
502.0000000000004
 20
1.4332284829184581
 30
0.0
 11
504.6798516948985
 21
-0.8230208510793701
 31
0.0
  0
LINE
  5
6CB
  8
0
  6
CONTINUOUS
 10
503.55265616421138
 20
1.4332284829184581
 30
0.0
 11
506.23250785910949
 21
-0.8230208510793701
 31
0.0
  0
LINE
  5
6CC
  8
0
  6
CONTINUOUS
 10
504.6798516948985
 20
-0.8230208510793701
 30
0.0
 11
505.58845026087852
 21
-1.5879978508388599
 31
0.0
  0
LINE
  5
6CD
  8
0
  6
CONTINUOUS
 10
506.23250785910949
 20
-0.8230208510793701
 30
0.0
 11
506.94028112605298
 21
-1.5879978508388599
 31
0.0
  0
LINE
  5
6CE
  8
0
  6
CONTINUOUS
 10
505.58845026087852
 20
-1.5879978508388599
 30
0.0
 11
505.59509687094823
 21
-1.595798097852807
 31
0.0
  0
LINE
  5
6CF
  8
0
  6
CONTINUOUS
 10
506.94028112605298
 20
-1.5879978508388599
 30
0.0
 11
506.94749808331289
 21
-1.595798097852807
 31
0.0
  0
LINE
  5
6D0
  8
0
  6
CONTINUOUS
 10
505.59509687094823
 20
-1.595798097852807
 30
0.0
 11
506.21086009736001
 21
-2.3184379424878472
 31
0.0
  0
LINE
  5
6D1
  8
0
  6
CONTINUOUS
 10
506.94749808331289
 20
-1.595798097852807
 30
0.0
 11
507.34013899902737
 21
-2.3184379424878472
 31
0.0
  0
LINE
  5
6D2
  8
0
  6
CONTINUOUS
 10
506.21086009736001
 20
-2.3184379424878472
 30
0.0
 11
506.51899563760571
 21
-2.8855490356466191
 31
0.0
  0
LINE
  5
6D3
  8
0
  6
CONTINUOUS
 10
507.34013899902737
 20
-2.3184379424878472
 30
0.0
 11
507.51140971081628
 21
-2.8855490356466191
 31
0.0
  0
LINE
  5
6D4
  8
0
  6
CONTINUOUS
 10
506.51899563760571
 20
-2.8855490356466191
 30
0.0
 11
506.68562445804878
 21
-3.5412411645338082
 31
0.0
  0
LINE
  5
6D5
  8
0
  6
CONTINUOUS
 10
507.51140971081628
 20
-2.8855490356466191
 30
0.0
 11
507.70943238923599
 21
-3.5412411645338082
 31
0.0
  0
LINE
  5
6D6
  8
0
  6
CONTINUOUS
 10
506.68562445804878
 20
-3.5412411645338082
 30
0.0
 11
506.71716374090659
 21
-3.6653497038946119
 31
0.0
  0
LINE
  5
6D7
  8
0
  6
CONTINUOUS
 10
507.70943238923599
 20
-3.5412411645338082
 30
0.0
 11
507.70943238923599
 21
-3.6653497038946119
 31
0.0
  0
LINE
  5
6D8
  8
0
  6
CONTINUOUS
 10
506.71716374090659
 20
-3.6653497038946119
 30
0.0
 11
506.71716374090659
 21
-4.4699363551422797
 31
0.0
  0
LINE
  5
6D9
  8
0
  6
CONTINUOUS
 10
507.70943238923599
 20
-3.6653497038946119
 30
0.0
 11
507.70943238923599
 21
-4.4699363551422797
 31
0.0
  0
LINE
  5
6DA
  8
0
  6
CONTINUOUS
 10
506.71716374090659
 20
-4.4699363551422797
 30
0.0
 11
506.68562445804878
 21
-4.5940448945031562
 31
0.0
  0
LINE
  5
6DB
  8
0
  6
CONTINUOUS
 10
507.70943238923599
 20
-4.4699363551422797
 30
0.0
 11
507.70943238923599
 21
-4.5940448945031562
 31
0.0
  0
LINE
  5
6DC
  8
0
  6
CONTINUOUS
 10
506.68562445804878
 20
-4.5940448945031562
 30
0.0
 11
506.51899563760571
 21
-5.2497370233902103
 31
0.0
  0
LINE
  5
6DD
  8
0
  6
CONTINUOUS
 10
507.70943238923599
 20
-4.5940448945031562
 30
0.0
 11
507.54280356879309
 21
-5.2497370233902103
 31
0.0
  0
LINE
  5
6DE
  8
0
  6
CONTINUOUS
 10
506.51899563760571
 20
-5.2497370233902103
 30
0.0
 11
506.320850007959
 21
-5.6144161011233251
 31
0.0
  0
LINE
  5
6DF
  8
0
  6
CONTINUOUS
 10
507.54280356879309
 20
-5.2497370233902103
 30
0.0
 11
507.4501289096263
 21
-5.6144161011233251
 31
0.0
  0
LINE
  5
6E0
  8
0
  6
CONTINUOUS
 10
506.320850007959
 20
-5.6144161011233251
 30
0.0
 11
506.13486890833468
 21
-5.9567068496384223
 31
0.0
  0
LINE
  5
6E1
  8
0
  6
CONTINUOUS
 10
507.4501289096263
 20
-5.6144161011233251
 30
0.0
 11
507.26414781000199
 21
-5.9567068496384223
 31
0.0
  0
LINE
  5
6E2
  8
0
  6
CONTINUOUS
 10
506.13486890833468
 20
-5.9567068496384223
 30
0.0
 11
505.59566721813809
 21
-6.5394879611841574
 31
0.0
  0
LINE
  5
6E3
  8
0
  6
CONTINUOUS
 10
507.26414781000199
 20
-5.9567068496384223
 30
0.0
 11
506.94749808331278
 21
-6.5394879611841574
 31
0.0
  0
LINE
  5
6E4
  8
0
  6
CONTINUOUS
 10
505.59566721813809
 20
-6.5394879611841574
 30
0.0
 11
505.58845026087829
 21
-6.547288208198025
 31
0.0
  0
LINE
  5
6E5
  8
0
  6
CONTINUOUS
 10
506.94749808331278
 20
-6.5394879611841574
 30
0.0
 11
506.94028112605298
 21
-6.547288208198025
 31
0.0
  0
LINE
  5
6E6
  8
0
  6
CONTINUOUS
 10
505.58845026087829
 20
-6.547288208198025
 30
0.0
 11
504.67985169489828
 21
-7.3122652079575943
 31
0.0
  0
LINE
  5
6E7
  8
0
  6
CONTINUOUS
 10
506.94028112605298
 20
-6.547288208198025
 30
0.0
 11
506.23250785910932
 21
-7.3122652079575943
 31
0.0
  0
LINE
  5
6E8
  8
0
  6
CONTINUOUS
 10
504.67985169489828
 20
-7.3122652079575943
 30
0.0
 11
499.87490817456211
 21
-11.35769452715993
 31
0.0
  0
LINE
  5
6E9
  8
0
  6
CONTINUOUS
 10
506.23250785910932
 20
-7.3122652079575943
 30
0.0
 11
501.42756433877298
 21
-11.35769452715993
 31
0.0
  0
LINE
  5
6EA
  8
0
  6
CONTINUOUS
 10
499.87490817456211
 20
-11.35769452715993
 30
0.0
 11
499.22692196295742
 21
-12.06319109560307
 31
0.0
  0
LINE
  5
6EB
  8
0
  6
CONTINUOUS
 10
501.42756433877298
 20
-11.35769452715993
 30
0.0
 11
500.58961343228458
 21
-12.06319109560307
 31
0.0
  0
LINE
  5
6EC
  8
0
  6
CONTINUOUS
 10
499.22692196295742
 20
-12.06319109560307
 30
0.0
 11
499.1954407966486
 21
-12.122671526919421
 31
0.0
  0
LINE
  5
6ED
  8
0
  6
CONTINUOUS
 10
500.58961343228458
 20
-12.06319109560307
 30
0.0
 11
500.51896577279291
 21
-12.122671526919421
 31
0.0
  0
LINE
  5
6EE
  8
0
  6
CONTINUOUS
 10
499.1954407966486
 20
-12.122671526919421
 30
0.0
 11
498.92161583448973
 21
-12.64003567711104
 31
0.0
  0
LINE
  5
6EF
  8
0
  6
CONTINUOUS
 10
500.51896577279291
 20
-12.122671526919421
 30
0.0
 11
500.04377588428292
 21
-12.64003567711104
 31
0.0
  0
LINE
  5
6F0
  8
0
  6
CONTINUOUS
 10
498.92161583448973
 20
-12.64003567711104
 30
0.0
 11
498.7788169736163
 21
-12.90983946242531
 31
0.0
  0
LINE
  5
6F1
  8
0
  6
CONTINUOUS
 10
500.04377588428292
 20
-12.64003567711104
 30
0.0
 11
499.90097702340961
 21
-12.90983946242531
 31
0.0
  0
LINE
  5
6F2
  8
0
  6
CONTINUOUS
 10
498.7788169736163
 20
-12.90983946242531
 30
0.0
 11
498.69637777878557
 21
-13.26091114611404
 31
0.0
  0
LINE
  5
6F3
  8
0
  6
CONTINUOUS
 10
499.90097702340961
 20
-12.90983946242531
 30
0.0
 11
499.7151655587661
 21
-13.26091114611404
 31
0.0
  0
LINE
  5
6F4
  8
0
  6
CONTINUOUS
 10
498.69637777878557
 20
-13.26091114611404
 30
0.0
 11
498.55983312182371
 21
-13.84239380999381
 31
0.0
  0
LINE
  5
6F5
  8
0
  6
CONTINUOUS
 10
499.7151655587661
 20
-13.26091114611404
 30
0.0
 11
499.57862090180419
 21
-13.84239380999381
 31
0.0
  0
LINE
  5
6F6
  8
0
  6
CONTINUOUS
 10
498.55983312182371
 20
-13.84239380999381
 30
0.0
 11
498.56244487938068
 21
-13.944784334330871
 31
0.0
  0
LINE
  5
6F7
  8
0
  6
CONTINUOUS
 10
499.57862090180419
 20
-13.84239380999381
 30
0.0
 11
499.55457740078492
 21
-13.944784334330871
 31
0.0
  0
LINE
  5
6F8
  8
0
  6
CONTINUOUS
 10
532.29672670848515
 20
15.80435460668204
 30
0.0
 11
532.29672670848515
 21
-14.000000000000149
 31
0.0
  0
LINE
  5
6F9
  8
0
  6
CONTINUOUS
 10
533.29672670848515
 20
15.80435460668204
 30
0.0
 11
533.29672670848515
 21
-14.000000000000149
 31
0.0
  0
LINE
  5
6FA
  8
0
  6
CONTINUOUS
 10
498.56244487938068
 20
-13.944784334330871
 30
0.0
 11
498.58035764781192
 21
-14.6470308912984
 31
0.0
  0
LINE
  5
6FB
  8
0
  6
CONTINUOUS
 10
499.55457740078492
 20
-13.944784334330871
 30
0.0
 11
499.572490169216
 21
-14.6470308912984
 31
0.0
  0
LINE
  5
6FC
  8
0
  6
CONTINUOUS
 10
498.58035764781192
 20
-14.6470308912984
 30
0.0
 11
498.5842596242299
 21
-14.80000275131337
 31
0.0
  0
LINE
  5
6FD
  8
0
  6
CONTINUOUS
 10
499.572490169216
 20
-14.6470308912984
 30
0.0
 11
499.59616924903719
 21
-14.80000275131337
 31
0.0
  0
LINE
  5
6FE
  8
0
  6
CONTINUOUS
 10
532.29672670848515
 20
-14.000000000000149
 30
0.0
 11
532.03265186222552
 21
-16.005847599544609
 31
0.0
  0
LINE
  5
6FF
  8
0
  6
CONTINUOUS
 10
533.29672670848515
 20
-14.000000000000149
 30
0.0
 11
533.03265186222552
 21
-16.005847599544609
 31
0.0
  0
LINE
  5
700
  8
0
  6
CONTINUOUS
 10
532.03265186222552
 20
-16.005847599544609
 30
0.0
 11
531.92544550354364
 21
-16.264666644647161
 31
0.0
  0
LINE
  5
701
  8
0
  6
CONTINUOUS
 10
533.03265186222552
 20
-16.005847599544609
 30
0.0
 11
532.99857768851462
 21
-16.264666644647161
 31
0.0
  0
LINE
  5
702
  8
0
  6
CONTINUOUS
 10
531.92544550354364
 20
-16.264666644647161
 30
0.0
 11
531.25842358781472
 21
-17.875000000000011
 31
0.0
  0
LINE
  5
703
  8
0
  6
CONTINUOUS
 10
532.99857768851462
 20
-16.264666644647161
 30
0.0
 11
532.33155577278546
 21
-17.875000000000011
 31
0.0
  0
LINE
  5
704
  8
0
  6
CONTINUOUS
 10
531.25842358781472
 20
-17.875000000000011
 30
0.0
 11
530.8747600938251
 21
-18.37500000000011
 31
0.0
  0
LINE
  5
705
  8
0
  6
CONTINUOUS
 10
532.33155577278546
 20
-17.875000000000011
 30
0.0
 11
532.12444899159902
 21
-18.37500000000011
 31
0.0
  0
LINE
  5
706
  8
0
  6
CONTINUOUS
 10
498.5842596242299
 20
-14.80000275131337
 30
0.0
 11
499.299510197242
 21
-19.420672615041081
 31
0.0
  0
LINE
  5
707
  8
0
  6
CONTINUOUS
 10
499.59616924903719
 20
-14.80000275131337
 30
0.0
 11
500.31141982204917
 21
-19.420672615041081
 31
0.0
  0
LINE
  5
708
  8
0
  6
CONTINUOUS
 10
530.8747600938251
 20
-18.37500000000011
 30
0.0
 11
530.02680426268103
 21
-19.48007755419572
 31
0.0
  0
LINE
  5
709
  8
0
  6
CONTINUOUS
 10
532.12444899159902
 20
-18.37500000000011
 30
0.0
 11
531.27649316045495
 21
-19.48007755419572
 31
0.0
  0
LINE
  5
70A
  8
0
  6
CONTINUOUS
 10
499.299510197242
 20
-19.420672615041081
 30
0.0
 11
499.32318927706308
 21
-19.573644475055911
 31
0.0
  0
LINE
  5
70B
  8
0
  6
CONTINUOUS
 10
500.31141982204917
 20
-19.420672615041081
 30
0.0
 11
500.35403227821121
 21
-19.573644475055911
 31
0.0
  0
LINE
  5
70C
  8
0
  6
CONTINUOUS
 10
499.32318927706308
 20
-19.573644475055911
 30
0.0
 11
499.45447929526563
 21
-20.04495451194888
 31
0.0
  0
LINE
  5
70D
  8
0
  6
CONTINUOUS
 10
500.35403227821121
 20
-19.573644475055911
 30
0.0
 11
500.48532229641359
 21
-20.04495451194888
 31
0.0
  0
LINE
  5
70E
  8
0
  6
CONTINUOUS
 10
530.02680426268103
 20
-19.48007755419572
 30
0.0
 11
529.1052847641306
 21
-20.18718433538238
 31
0.0
  0
LINE
  5
70F
  8
0
  6
CONTINUOUS
 10
531.27649316045495
 20
-19.48007755419572
 30
0.0
 11
530.73391104386735
 21
-20.18718433538238
 31
0.0
  0
LINE
  5
710
  8
0
  6
CONTINUOUS
 10
499.45447929526563
 20
-20.04495451194888
 30
0.0
 11
499.56032901483297
 21
-20.42493797083927
 31
0.0
  0
LINE
  5
711
  8
0
  6
CONTINUOUS
 10
500.48532229641359
 20
-20.04495451194888
 30
0.0
 11
500.6968130973641
 21
-20.42493797083927
 31
0.0
  0
LINE
  5
712
  8
0
  6
CONTINUOUS
 10
499.56032901483297
 20
-20.42493797083927
 30
0.0
 11
499.66400228426818
 21
-20.611206722659659
 31
0.0
  0
LINE
  5
713
  8
0
  6
CONTINUOUS
 10
500.6968130973641
 20
-20.42493797083927
 30
0.0
 11
500.80048636679942
 21
-20.611206722659659
 31
0.0
  0
LINE
  5
714
  8
0
  6
CONTINUOUS
 10
529.1052847641306
 20
-20.18718433538238
 30
0.0
 11
528.42172670848527
 21
-20.711696879329399
 31
0.0
  0
LINE
  5
715
  8
0
  6
CONTINUOUS
 10
530.73391104386735
 20
-20.18718433538238
 30
0.0
 11
530.05035298822224
 21
-20.711696879329399
 31
0.0
  0
LINE
  5
716
  8
0
  6
CONTINUOUS
 10
499.66400228426818
 20
-20.611206722659659
 30
0.0
 11
499.92936617699547
 21
-21.087983439992168
 31
0.0
  0
LINE
  5
717
  8
0
  6
CONTINUOUS
 10
500.80048636679942
 20
-20.611206722659659
 30
0.0
 11
501.23940995833499
 21
-21.087983439992168
 31
0.0
  0
LINE
  5
718
  8
0
  6
CONTINUOUS
 10
499.92936617699547
 20
-21.087983439992168
 30
0.0
 11
499.99009820172239
 21
-21.197100076353991
 31
0.0
  0
LINE
  5
719
  8
0
  6
CONTINUOUS
 10
501.23940995833499
 20
-21.087983439992168
 30
0.0
 11
501.40219941450459
 21
-21.197100076353991
 31
0.0
  0
LINE
  5
71A
  8
0
  6
CONTINUOUS
 10
499.99009820172239
 20
-21.197100076353991
 30
0.0
 11
500.22182181242579
 21
-21.448807718800591
 31
0.0
  0
LINE
  5
71B
  8
0
  6
CONTINUOUS
 10
501.40219941450459
 20
-21.197100076353991
 30
0.0
 11
501.77771823174288
 21
-21.448807718800591
 31
0.0
  0
LINE
  5
71C
  8
0
  6
CONTINUOUS
 10
528.42172670848527
 20
-20.711696879329399
 30
0.0
 11
526.55257430802976
 21
-21.485925153740311
 31
0.0
  0
LINE
  5
71D
  8
0
  6
CONTINUOUS
 10
530.05035298822224
 20
-20.711696879329399
 30
0.0
 11
529.04135905663884
 21
-21.485925153740311
 31
0.0
  0
LINE
  5
71E
  8
0
  6
CONTINUOUS
 10
526.55257430802976
 20
-21.485925153740311
 30
0.0
 11
525.85530588505424
 21
-21.577722283113872
 31
0.0
  0
LINE
  5
71F
  8
0
  6
CONTINUOUS
 10
529.04135905663884
 20
-21.485925153740311
 30
0.0
 11
528.92172670848515
 21
-21.577722283113872
 31
0.0
  0
LINE
  5
720
  8
0
  6
CONTINUOUS
 10
500.22182181242579
 20
-21.448807718800591
 30
0.0
 11
500.42880548048771
 21
-21.673641825927799
 31
0.0
  0
LINE
  5
721
  8
0
  6
CONTINUOUS
 10
501.77771823174288
 20
-21.448807718800591
 30
0.0
 11
502.38551719659
 21
-21.673641825927799
 31
0.0
  0
LINE
  5
722
  8
0
  6
CONTINUOUS
 10
525.85530588505424
 20
-21.577722283113872
 30
0.0
 11
524.54672670848538
 21
-21.750000000000021
 31
0.0
  0
LINE
  5
723
  8
0
  6
CONTINUOUS
 10
528.92172670848515
 20
-21.577722283113872
 30
0.0
 11
528.505811507884
 21
-21.750000000000021
 31
0.0
  0
LINE
  5
724
  8
0
  6
CONTINUOUS
 10
500.42880548048771
 20
-21.673641825927799
 30
0.0
 11
500.4991012872847
 21
-21.750000000000021
 31
0.0
  0
LINE
  5
725
  8
0
  6
CONTINUOUS
 10
502.38551719659
 20
-21.673641825927799
 30
0.0
 11
503.02905382076068
 21
-21.750000000000021
 31
0.0
  0
LINE
  5
726
  8
0
  6
CONTINUOUS
 10
500.4991012872847
 20
-21.750000000000021
 30
0.0
 11
500.58863037199831
 21
-21.847250145443851
 31
0.0
  0
LINE
  5
727
  8
0
  6
CONTINUOUS
 10
528.505811507884
 20
-21.750000000000021
 30
0.0
 11
528.27102888781064
 21
-21.847250145443851
 31
0.0
  0
LINE
  5
728
  8
0
  6
CONTINUOUS
 10
500.58863037199831
 20
-21.847250145443851
 30
0.0
 11
501.32268710846358
 21
-22.33928325290972
 31
0.0
  0
LINE
  5
729
  8
0
  6
CONTINUOUS
 10
528.27102888781064
 20
-21.847250145443851
 30
0.0
 11
527.08315588663015
 21
-22.33928325290972
 31
0.0
  0
LINE
  5
72A
  8
0
  6
CONTINUOUS
 10
501.32268710846358
 20
-22.33928325290972
 30
0.0
 11
501.62699391001013
 21
-22.451850980029331
 31
0.0
  0
LINE
  5
72B
  8
0
  6
CONTINUOUS
 10
527.08315588663015
 20
-22.33928325290972
 30
0.0
 11
526.8113933531323
 21
-22.451850980029331
 31
0.0
  0
LINE
  5
72C
  8
0
  6
CONTINUOUS
 10
501.62699391001013
 20
-22.451850980029331
 30
0.0
 11
502.1515038787096
 21
-22.645875217174339
 31
0.0
  0
LINE
  5
72D
  8
0
  6
CONTINUOUS
 10
526.8113933531323
 20
-22.451850980029331
 30
0.0
 11
525.33763295586959
 21
-22.645875217174339
 31
0.0
  0
LINE
  5
72E
  8
0
  6
CONTINUOUS
 10
502.1515038787096
 20
-22.645875217174339
 30
0.0
 11
503.02905382076068
 21
-22.749999999999929
 31
0.0
  0
LINE
  5
72F
  8
0
  6
CONTINUOUS
 10
525.33763295586959
 20
-22.645875217174339
 30
0.0
 11
524.54672670848538
 21
-22.749999999999929
 31
0.0
  0
ENDBLK
  5
731
  8
0
  0
BLOCK
  8
0
  2
*U47
 70
     1
 10
0.0
 20
0.0
 30
0.0
  3
*U47
  1

  0
SOLID
  5
733
  8
0
  6
CONTINUOUS
 10
498.7717267084862
 20
134.50000000000051
 30
0.0
 11
498.7717267084862
 21
133.5000000000004
 31
0.0
 12
536.41421356237311
 22
133.5000000000004
 32
0.0
 13
536.41421356237311
 23
133.5000000000004
 33
0.0
210
0.0
220
0.0
230
1.0
  0
SOLID
  5
734
  8
0
  6
CONTINUOUS
 10
-498.7717267084862
 20
134.50000000000051
 30
0.0
 11
-535.41421356237311
 21
134.50000000000051
 31
0.0
 12
-536.41421356237311
 22
133.5000000000004
 32
0.0
 13
-536.41421356237311
 23
133.5000000000004
 33
0.0
210
0.0
220
0.0
230
-1.0
  0
SOLID
  5
735
  8
0
  6
CONTINUOUS
 10
-220.00000000000091
 20
134.50000000000051
 30
0.0
 11
-220.00000000000091
 21
133.5000000000004
 31
0.0
 12
497.7717267084862
 22
133.5000000000004
 32
0.0
 13
497.7717267084862
 23
133.5000000000004
 33
0.0
  0
SOLID
  5
736
  8
0
  6
CONTINUOUS
 10
220.00000000000091
 20
134.50000000000051
 30
0.0
 11
-497.7717267084862
 21
134.50000000000051
 31
0.0
 12
-497.7717267084862
 22
133.5000000000004
 32
0.0
 13
-497.7717267084862
 23
133.5000000000004
 33
0.0
210
0.0
220
0.0
230
-1.0
  0
SOLID
  5
737
  8
0
  6
CONTINUOUS
 10
-537.87867965644045
 20
130.62132034355989
 30
0.0
 11
-539.29289321881367
 21
130.62132034355989
 31
0.0
 12
-538.58578643762712
 22
129.9142135623735
 32
0.0
 13
-538.58578643762712
 23
129.9142135623735
 33
0.0
210
0.0
220
0.0
230
-1.0
  0
SOLID
  5
738
  8
0
  6
CONTINUOUS
 10
535.0
 20
133.5000000000004
 30
0.0
 11
537.87867965644045
 21
130.62132034355989
 31
0.0
 12
539.29289321881367
 22
130.62132034355989
 32
0.0
 13
539.29289321881367
 23
130.62132034355989
 33
0.0
  0
SOLID
  5
739
  8
0
  6
CONTINUOUS
 10
-535.0
 20
133.5000000000004
 30
0.0
 11
-536.41421356237311
 21
133.5000000000004
 31
0.0
 12
-539.29289321881367
 22
130.62132034355989
 32
0.0
 13
-539.29289321881367
 23
130.62132034355989
 33
0.0
210
0.0
220
0.0
230
-1.0
  0
LINE
  5
73A
  8
0
  6
CONTINUOUS
 10
498.7717267084862
 20
134.50000000000051
 30
0.0
 11
498.7717267084862
 21
133.5000000000004
 31
0.0
  0
LINE
  5
73B
  8
0
  6
CONTINUOUS
 10
535.41421356237311
 20
134.50000000000051
 30
0.0
 11
536.41421356237311
 21
133.5000000000004
 31
0.0
  0
LINE
  5
73C
  8
0
  6
CONTINUOUS
 10
-220.00000000000091
 20
134.50000000000051
 30
0.0
 11
-220.00000000000091
 21
133.5000000000004
 31
0.0
  0
LINE
  5
73D
  8
0
  6
CONTINUOUS
 10
497.7717267084862
 20
134.50000000000051
 30
0.0
 11
497.7717267084862
 21
133.5000000000004
 31
0.0
  0
LINE
  5
73E
  8
0
  6
CONTINUOUS
 10
539.29289321881367
 20
130.62132034355989
 30
0.0
 11
538.58578643762712
 21
129.9142135623735
 31
0.0
  0
LINE
  5
73F
  8
0
  6
CONTINUOUS
 10
538.58578643762712
 20
129.9142135623735
 30
0.0
 11
537.87867965644045
 21
130.62132034355989
 31
0.0
  0
LINE
  5
740
  8
0
  6
CONTINUOUS
 10
535.0
 20
133.5000000000004
 30
0.0
 11
537.87867965644045
 21
130.62132034355989
 31
0.0
  0
LINE
  5
741
  8
0
  6
CONTINUOUS
 10
536.41421356237311
 20
133.5000000000004
 30
0.0
 11
539.29289321881367
 21
130.62132034355989
 31
0.0
  0
ENDBLK
  5
743
  8
0
  0
BLOCK
  8
0
  2
*U48
 70
     1
 10
0.0
 20
0.0
 30
0.0
  3
*U48
  1

  0
SOLID
  5
745
  8
0
  6
CONTINUOUS
 10
498.77172670848609
 20
155.50000000000051
 30
0.0
 11
498.77172670848609
 21
154.50000000000051
 31
0.0
 12
559.0717267084849
 22
154.50000000000051
 32
0.0
 13
559.0717267084849
 23
154.50000000000051
 33
0.0
  0
SOLID
  5
746
  8
0
  6
CONTINUOUS
 10
-498.77172670848609
 20
155.50000000000051
 30
0.0
 11
-559.0717267084849
 21
155.50000000000051
 31
0.0
 12
-559.0717267084849
 22
154.50000000000051
 32
0.0
 13
-559.0717267084849
 23
154.50000000000051
 33
0.0
210
0.0
220
0.0
230
-1.0
  0
SOLID
  5
747
  8
0
  6
CONTINUOUS
 10
445.29672670848493
 20
155.50000000000051
 30
0.0
 11
445.29672670848493
 21
154.50000000000051
 31
0.0
 12
497.7717267084862
 22
154.50000000000051
 32
0.0
 13
497.7717267084862
 23
154.50000000000051
 33
0.0
  0
SOLID
  5
748
  8
0
  6
CONTINUOUS
 10
-445.29672670848493
 20
155.50000000000051
 30
0.0
 11
-497.7717267084862
 21
155.50000000000051
 31
0.0
 12
-497.7717267084862
 22
154.50000000000051
 32
0.0
 13
-497.7717267084862
 23
154.50000000000051
 33
0.0
210
0.0
220
0.0
230
-1.0
  0
SOLID
  5
749
  8
0
  6
CONTINUOUS
 10
558.07172670848513
 20
154.50000000000051
 30
0.0
 11
558.07172670848513
 21
125.5000000000005
 31
0.0
 12
559.0717267084849
 22
125.5000000000005
 32
0.0
 13
559.0717267084849
 23
125.5000000000005
 33
0.0
210
0.0
220
0.0
230
1.0
  0
SOLID
  5
74A
  8
0
  6
CONTINUOUS
 10
-558.07172670848513
 20
154.50000000000051
 30
0.0
 11
-559.0717267084849
 21
154.50000000000051
 31
0.0
 12
-559.0717267084849
 22
125.5000000000005
 32
0.0
 13
-559.0717267084849
 23
125.5000000000005
 33
0.0
210
0.0
220
0.0
230
-1.0
  0
SOLID
  5
74B
  8
0
  6
CONTINUOUS
 10
536.29672670848504
 20
125.5000000000005
 30
0.0
 11
536.29672670848504
 21
124.5000000000005
 31
0.0
 12
559.0717267084849
 22
124.5000000000005
 32
0.0
 13
559.0717267084849
 23
124.5000000000005
 33
0.0
210
0.0
220
0.0
230
1.0
  0
SOLID
  5
74C
  8
0
  6
CONTINUOUS
 10
-536.29672670848504
 20
125.5000000000005
 30
0.0
 11
-559.0717267084849
 21
125.5000000000005
 31
0.0
 12
-559.0717267084849
 22
124.5000000000005
 32
0.0
 13
-559.0717267084849
 23
124.5000000000005
 33
0.0
210
0.0
220
0.0
230
-1.0
  0
SOLID
  5
74D
  8
0
  6
CONTINUOUS
 10
536.29672670848504
 20
124.5000000000005
 30
0.0
 11
536.29672670848504
 21
106.0882236182439
 31
0.0
 12
537.29672670848493
 22
106.0882236182439
 32
0.0
 13
537.29672670848493
 23
106.0882236182439
 33
0.0
210
0.0
220
0.0
230
1.0
  0
SOLID
  5
74E
  8
0
  6
CONTINUOUS
 10
-536.29672670848504
 20
124.5000000000005
 30
0.0
 11
-537.29672670848493
 21
124.5000000000005
 31
0.0
 12
-537.29672670848493
 22
106.0882236182439
 32
0.0
 13
-537.29672670848493
 23
106.0882236182439
 33
0.0
210
0.0
220
0.0
230
-1.0
  0
SOLID
  5
74F
  8
0
  6
CONTINUOUS
 10
536.29672670848504
 20
105.0882236182439
 30
0.0
 11
536.29672670848504
 21
85.338264846611153
 31
0.0
 12
537.29672670848493
 22
85.338264846611153
 32
0.0
 13
537.29672670848493
 23
85.338264846611153
 33
0.0
210
0.0
220
0.0
230
1.0
  0
SOLID
  5
750
  8
0
  6
CONTINUOUS
 10
-536.29672670848504
 20
105.0882236182439
 30
0.0
 11
-537.29672670848493
 21
105.0882236182439
 31
0.0
 12
-537.29672670848493
 22
85.338264846611153
 32
0.0
 13
-537.29672670848493
 23
85.338264846611153
 33
0.0
210
0.0
220
0.0
230
-1.0
  0
SOLID
  5
751
  8
0
  6
CONTINUOUS
 10
536.29672670848504
 20
85.338264846611153
 30
0.0
 11
536.29672670848504
 21
85.168355344395124
 31
0.0
 12
537.35618160395506
 22
85.168355344395124
 32
0.0
 13
537.35618160395506
 23
85.168355344395124
 33
0.0
210
0.0
220
0.0
230
1.0
  0
SOLID
  5
752
  8
0
  6
CONTINUOUS
 10
-536.29672670848504
 20
85.338264846611153
 30
0.0
 11
-537.29672670848493
 21
85.338264846611153
 31
0.0
 12
-537.35618160395506
 22
85.168355344395124
 32
0.0
 13
-537.35618160395506
 23
85.168355344395124
 33
0.0
210
0.0
220
0.0
230
-1.0
  0
SOLID
  5
753
  8
0
  6
CONTINUOUS
 10
-540.18115343013278
 20
74.067486266254292
 30
0.0
 11
-541.24060832560315
 21
74.067486266254292
 31
0.0
 12
-540.29672670848515
 22
73.737202308322964
 32
0.0
 13
-540.29672670848515
 23
73.737202308322964
 33
0.0
210
0.0
220
0.0
230
-1.0
  0
SOLID
  5
754
  8
0
  6
CONTINUOUS
 10
536.29672670848504
 20
85.168355344395124
 30
0.0
 11
540.18115343013278
 21
74.067486266254292
 31
0.0
 12
541.24060832560315
 22
74.067486266254292
 32
0.0
 13
541.24060832560315
 23
74.067486266254292
 33
0.0
  0
SOLID
  5
755
  8
0
  6
CONTINUOUS
 10
-536.29672670848504
 20
85.168355344395124
 30
0.0
 11
-537.35618160395506
 21
85.168355344395124
 31
0.0
 12
-541.24060832560315
 22
74.067486266254292
 32
0.0
 13
-541.24060832560315
 23
74.067486266254292
 33
0.0
210
0.0
220
0.0
230
-1.0
  0
LINE
  5
756
  8
0
  6
CONTINUOUS
 10
498.77172670848609
 20
155.50000000000051
 30
0.0
 11
498.77172670848609
 21
154.50000000000051
 31
0.0
  0
LINE
  5
757
  8
0
  6
CONTINUOUS
 10
559.0717267084849
 20
155.50000000000051
 30
0.0
 11
559.0717267084849
 21
154.50000000000051
 31
0.0
  0
LINE
  5
758
  8
0
  6
CONTINUOUS
 10
445.29672670848493
 20
155.50000000000051
 30
0.0
 11
445.29672670848493
 21
154.50000000000051
 31
0.0
  0
LINE
  5
759
  8
0
  6
CONTINUOUS
 10
497.7717267084862
 20
155.50000000000051
 30
0.0
 11
497.7717267084862
 21
154.50000000000051
 31
0.0
  0
LINE
  5
75A
  8
0
  6
CONTINUOUS
 10
558.07172670848513
 20
154.50000000000051
 30
0.0
 11
558.07172670848513
 21
125.5000000000005
 31
0.0
  0
LINE
  5
75B
  8
0
  6
CONTINUOUS
 10
559.0717267084849
 20
154.50000000000051
 30
0.0
 11
559.0717267084849
 21
125.5000000000005
 31
0.0
  0
LINE
  5
75C
  8
0
  6
CONTINUOUS
 10
536.29672670848504
 20
125.5000000000005
 30
0.0
 11
536.29672670848504
 21
124.5000000000005
 31
0.0
  0
LINE
  5
75D
  8
0
  6
CONTINUOUS
 10
559.0717267084849
 20
125.5000000000005
 30
0.0
 11
559.0717267084849
 21
124.5000000000005
 31
0.0
  0
LINE
  5
75E
  8
0
  6
CONTINUOUS
 10
536.29672670848504
 20
124.5000000000005
 30
0.0
 11
536.29672670848504
 21
106.0882236182439
 31
0.0
  0
LINE
  5
75F
  8
0
  6
CONTINUOUS
 10
537.29672670848493
 20
124.5000000000005
 30
0.0
 11
537.29672670848493
 21
106.0882236182439
 31
0.0
  0
LINE
  5
760
  8
0
  6
CONTINUOUS
 10
536.29672670848504
 20
105.0882236182439
 30
0.0
 11
536.29672670848504
 21
85.338264846611153
 31
0.0
  0
LINE
  5
761
  8
0
  6
CONTINUOUS
 10
537.29672670848493
 20
105.0882236182439
 30
0.0
 11
537.29672670848493
 21
85.338264846611153
 31
0.0
  0
LINE
  5
762
  8
0
  6
CONTINUOUS
 10
536.29672670848504
 20
85.338264846611153
 30
0.0
 11
536.29672670848504
 21
85.168355344395124
 31
0.0
  0
LINE
  5
763
  8
0
  6
CONTINUOUS
 10
537.29672670848493
 20
85.338264846611153
 30
0.0
 11
537.35618160395506
 21
85.168355344395124
 31
0.0
  0
LINE
  5
764
  8
0
  6
CONTINUOUS
 10
541.24060832560315
 20
74.067486266254292
 30
0.0
 11
540.29672670848515
 21
73.737202308322964
 31
0.0
  0
LINE
  5
765
  8
0
  6
CONTINUOUS
 10
540.29672670848515
 20
73.737202308322964
 30
0.0
 11
540.18115343013278
 21
74.067486266254292
 31
0.0
  0
LINE
  5
766
  8
0
  6
CONTINUOUS
 10
536.29672670848504
 20
85.168355344395124
 30
0.0
 11
540.18115343013278
 21
74.067486266254292
 31
0.0
  0
LINE
  5
767
  8
0
  6
CONTINUOUS
 10
537.35618160395506
 20
85.168355344395124
 30
0.0
 11
541.24060832560315
 21
74.067486266254292
 31
0.0
  0
ENDBLK
  5
769
  8
0
  0
ENDSEC
  0
SECTION
  2
ENTITIES
  0
CIRCLE
  5
1E7
  8
0
 10
-150.51034575045739
 20
118.000000000003
 30
0.0
 40
2.500000000000004
1001
REVIT
1002
{
1070
     1
1000
335360
1002
}
1002
{
1070
     5
1000
233013
1002
}
1002
{
1070
     2
1000
-2005028
1002
}
  0
INSERT
  5
1E8
  8
0
  6
CONTINUOUS
  2
*U20
 10
0.0
 20
0.0
 30
0.0
1001
REVIT
1002
{
1070
     1
1000
335360
1002
}
1002
{
1070
     5
1000
233013
1002
}
1002
{
1070
     2
1000
-2005028
1002
}
1001
ACAD
1002
{
1000
R14_HATCH_DATA
1000
1E8
1011
1.0
1021
0.0
1031
0.0
1021
0.0
1031
0.0
1011
0.0
1021
0.0
1031
0.0
1021
1.0
1031
0.0
1011
0.0
1021
0.0
1031
0.0
1021
0.0
1031
1.0
1040
0.0
1010
0.0
1020
0.0
1030
1.0
1000
SOLID
1070
     1
1070
     0
1071
        1
1071
        0
1071
        1
1070
     2
1040
-150.51034575045739
1040
118.000000000003
1040
2.500000000000004
1040
0.0
1040
6.2831853071795862
1070
     1
1071
        0
1070
     0
1070
     1
1071
        1
1040
0.0
1040
0.0
1040
0.0
1002
}
  0
LINE
  5
1E9
  8
0
 10
-150.51034575045739
 20
118.000000000003
 30
0.0
 11
-224.3315905757388
 21
208.2595282132722
 31
0.0
1001
REVIT
1002
{
1070
     1
1000
335360
1002
}
1002
{
1070
     5
1000
233013
1002
}
1002
{
1070
     2
1000
-2005028
1002
}
  0
INSERT
  5
1EB
  8
0
  2
*U21
 10
0.0
 20
0.0
 30
0.0
  0
CIRCLE
  5
1EC
  8
0
 10
414.80110512497521
 20
-6.8438215980008286
 30
0.0
 40
2.4999999999999432
1001
REVIT
1002
{
1070
     1
1000
335361
1002
}
1002
{
1070
     5
1000
233013
1002
}
1002
{
1070
     2
1000
-2005028
1002
}
  0
INSERT
  5
1ED
  8
0
  6
CONTINUOUS
  2
*U22
 10
0.0
 20
0.0
 30
0.0
1001
REVIT
1002
{
1070
     1
1000
335361
1002
}
1002
{
1070
     5
1000
233013
1002
}
1002
{
1070
     2
1000
-2005028
1002
}
1001
ACAD
1002
{
1000
R14_HATCH_DATA
1000
1ED
1011
1.0
1021
0.0
1031
0.0
1021
0.0
1031
0.0
1011
0.0
1021
0.0
1031
0.0
1021
1.0
1031
0.0
1011
0.0
1021
0.0
1031
0.0
1021
0.0
1031
1.0
1040
0.0
1010
0.0
1020
0.0
1030
1.0
1000
SOLID
1070
     1
1070
     0
1071
        1
1071
        0
1071
        1
1070
     2
1040
414.80110512497521
1040
-6.8438215980008286
1040
2.4999999999999432
1040
0.0
1040
6.2831853071795862
1070
     1
1071
        0
1070
     0
1070
     1
1071
        1
1040
0.0
1040
0.0
1040
0.0
1002
}
  0
LINE
  5
1EE
  8
0
 10
414.80110512497521
 20
-159.50512864394469
 30
0.0
 11
611.86708295179426
 21
-159.50512864394469
 31
0.0
1001
REVIT
1002
{
1070
     1
1000
335361
1002
}
1002
{
1070
     5
1000
233013
1002
}
1002
{
1070
     2
1000
-2005028
1002
}
  0
LINE
  5
1EF
  8
0
 10
414.80110512497521
 20
-6.8438215980008286
 30
0.0
 11
414.80110512497521
 21
-159.50512864394469
 31
0.0
1001
REVIT
1002
{
1070
     1
1000
335361
1002
}
1002
{
1070
     5
1000
233013
1002
}
1002
{
1070
     2
1000
-2005028
1002
}
  0
INSERT
  5
1F0
  8
0
  2
*U23
 10
0.0
 20
0.0
 30
0.0
  0
CIRCLE
  5
1F1
  8
0
 10
540.16923167628715
 20
100.36421681504601
 30
0.0
 40
2.5000000000000022
1001
REVIT
1002
{
1070
     1
1000
335363
1002
}
1002
{
1070
     5
1000
233011
1002
}
1002
{
1070
     2
1000
-2005028
1002
}
  0
INSERT
  5
1F2
  8
0
  6
CONTINUOUS
  2
*U24
 10
0.0
 20
0.0
 30
0.0
1001
REVIT
1002
{
1070
     1
1000
335363
1002
}
1002
{
1070
     5
1000
233011
1002
}
1002
{
1070
     2
1000
-2005028
1002
}
1001
ACAD
1002
{
1000
R14_HATCH_DATA
1000
1F2
1011
1.0
1021
0.0
1031
0.0
1021
0.0
1031
0.0
1011
0.0
1021
0.0
1031
0.0
1021
1.0
1031
0.0
1011
0.0
1021
0.0
1031
0.0
1021
0.0
1031
1.0
1040
0.0
1010
0.0
1020
0.0
1030
1.0
1000
SOLID
1070
     1
1070
     0
1071
        1
1071
        0
1071
        1
1070
     2
1040
540.16923167628715
1040
100.36421681504601
1040
2.5000000000000022
1040
0.0
1040
6.2831853071795862
1070
     1
1071
        0
1070
     0
1070
     1
1071
        1
1040
0.0
1040
0.0
1040
0.0
1002
}
  0
LINE
  5
1F3
  8
0
 10
592.1415371573255
 20
-4.894185148631971
 30
0.0
 11
611.86708295179426
 21
-4.8941851486319656
 31
0.0
1001
REVIT
1002
{
1070
     1
1000
335363
1002
}
1002
{
1070
     5
1000
233011
1002
}
1002
{
1070
     2
1000
-2005028
1002
}
  0
LINE
  5
1F4
  8
0
 10
540.16923167628715
 20
100.36421681504601
 30
0.0
 11
592.1415371573255
 21
-4.8941851486319798
 31
0.0
1001
REVIT
1002
{
1070
     1
1000
335363
1002
}
1002
{
1070
     5
1000
233011
1002
}
1002
{
1070
     2
1000
-2005028
1002
}
  0
INSERT
  5
1F5
  8
0
  2
*U25
 10
0.0
 20
0.0
 30
0.0
  0
CIRCLE
  5
1F6
  8
0
 10
539.43915660961443
 20
134.52139031750681
 30
0.0
 40
2.5000000000000431
1001
REVIT
1002
{
1070
     1
1000
335372
1002
}
1002
{
1070
     5
1000
233011
1002
}
1002
{
1070
     2
1000
-2005028
1002
}
  0
INSERT
  5
1F7
  8
0
  6
CONTINUOUS
  2
*U26
 10
0.0
 20
0.0
 30
0.0
1001
REVIT
1002
{
1070
     1
1000
335372
1002
}
1002
{
1070
     5
1000
233011
1002
}
1002
{
1070
     2
1000
-2005028
1002
}
1001
ACAD
1002
{
1000
R14_HATCH_DATA
1000
1F7
1011
1.0
1021
0.0
1031
0.0
1021
0.0
1031
0.0
1011
0.0
1021
0.0
1031
0.0
1021
1.0
1031
0.0
1011
0.0
1021
0.0
1031
0.0
1021
0.0
1031
1.0
1040
0.0
1010
0.0
1020
0.0
1030
1.0
1000
SOLID
1070
     1
1070
     0
1071
        1
1071
        0
1071
        1
1070
     2
1040
539.43915660961443
1040
134.52139031750681
1040
2.5000000000000431
1040
0.0
1040
6.2831853071795862
1070
     1
1071
        0
1070
     0
1070
     1
1071
        1
1040
0.0
1040
0.0
1040
0.0
1002
}
  0
LINE
  5
1F8
  8
0
 10
592.1415371573255
 20
168.0853245346934
 30
0.0
 11
611.86708295179426
 21
168.0853245346934
 31
0.0
1001
REVIT
1002
{
1070
     1
1000
335372
1002
}
1002
{
1070
     5
1000
233011
1002
}
1002
{
1070
     2
1000
-2005028
1002
}
  0
LINE
  5
1F9
  8
0
 10
539.43915660961443
 20
134.52139031750681
 30
0.0
 11
592.1415371573255
 21
168.0853245346934
 31
0.0
1001
REVIT
1002
{
1070
     1
1000
335372
1002
}
1002
{
1070
     5
1000
233011
1002
}
1002
{
1070
     2
1000
-2005028
1002
}
  0
INSERT
  5
1FA
  8
0
  2
*U27
 10
0.0
 20
0.0
 30
0.0
  0
CIRCLE
  5
1FB
  8
0
 10
478.80844414904658
 20
146.13926629370621
 30
0.0
 40
2.5000000000000071
1001
REVIT
1002
{
1070
     1
1000
335373
1002
}
1002
{
1070
     5
1000
233013
1002
}
1002
{
1070
     2
1000
-2005028
1002
}
  0
INSERT
  5
1FC
  8
0
  6
CONTINUOUS
  2
*U28
 10
0.0
 20
0.0
 30
0.0
1001
REVIT
1002
{
1070
     1
1000
335373
1002
}
1002
{
1070
     5
1000
233013
1002
}
1002
{
1070
     2
1000
-2005028
1002
}
1001
ACAD
1002
{
1000
R14_HATCH_DATA
1000
1FC
1011
1.0
1021
0.0
1031
0.0
1021
0.0
1031
0.0
1011
0.0
1021
0.0
1031
0.0
1021
1.0
1031
0.0
1011
0.0
1021
0.0
1031
0.0
1021
0.0
1031
1.0
1040
0.0
1010
0.0
1020
0.0
1030
1.0
1000
SOLID
1070
     1
1070
     0
1071
        1
1071
        0
1071
        1
1070
     2
1040
478.80844414904658
1040
146.13926629370621
1040
2.5000000000000071
1040
0.0
1040
6.2831853071795862
1070
     1
1071
        0
1070
     0
1070
     1
1071
        1
1040
0.0
1040
0.0
1040
0.0
1002
}
  0
LINE
  5
1FD
  8
0
 10
570.68962304685203
 20
257.2708327600651
 30
0.0
 11
613.24208295179415
 21
257.2708327600651
 31
0.0
1001
REVIT
1002
{
1070
     1
1000
335373
1002
}
1002
{
1070
     5
1000
233013
1002
}
1002
{
1070
     2
1000
-2005028
1002
}
  0
LINE
  5
1FE
  8
0
 10
478.80844414904658
 20
146.13926629370621
 30
0.0
 11
570.68962304685203
 21
257.2708327600651
 31
0.0
1001
REVIT
1002
{
1070
     1
1000
335373
1002
}
1002
{
1070
     5
1000
233013
1002
}
1002
{
1070
     2
1000
-2005028
1002
}
  0
INSERT
  5
1FF
  8
0
  2
*U29
 10
0.0
 20
0.0
 30
0.0
  0
CIRCLE
  5
200
  8
0
 10
502.04937372087608
 20
158.6119264478537
 30
0.0
 40
2.499999999999964
1001
REVIT
1002
{
1070
     1
1000
335374
1002
}
1002
{
1070
     5
1000
233011
1002
}
1002
{
1070
     2
1000
-2005028
1002
}
  0
INSERT
  5
201
  8
0
  6
CONTINUOUS
  2
*U30
 10
0.0
 20
0.0
 30
0.0
1001
REVIT
1002
{
1070
     1
1000
335374
1002
}
1002
{
1070
     5
1000
233011
1002
}
1002
{
1070
     2
1000
-2005028
1002
}
1001
ACAD
1002
{
1000
R14_HATCH_DATA
1000
201
1011
1.0
1021
0.0
1031
0.0
1021
0.0
1031
0.0
1011
0.0
1021
0.0
1031
0.0
1021
1.0
1031
0.0
1011
0.0
1021
0.0
1031
0.0
1021
0.0
1031
1.0
1040
0.0
1010
0.0
1020
0.0
1030
1.0
1000
SOLID
1070
     1
1070
     0
1071
        1
1071
        0
1071
        1
1070
     2
1040
502.04937372087608
1040
158.6119264478537
1040
2.499999999999964
1040
0.0
1040
6.2831853071795862
1070
     1
1071
        0
1070
     0
1070
     1
1071
        1
1040
0.0
1040
0.0
1040
0.0
1002
}
  0
LINE
  5
202
  8
0
 10
576.47420688705847
 20
219.1945783691269
 30
0.0
 11
613.24208295179415
 21
219.1945783691269
 31
0.0
1001
REVIT
1002
{
1070
     1
1000
335374
1002
}
1002
{
1070
     5
1000
233011
1002
}
1002
{
1070
     2
1000
-2005028
1002
}
  0
LINE
  5
203
  8
0
 10
502.04937372087608
 20
158.6119264478537
 30
0.0
 11
576.47420688705847
 21
219.1945783691269
 31
0.0
1001
REVIT
1002
{
1070
     1
1000
335374
1002
}
1002
{
1070
     5
1000
233011
1002
}
1002
{
1070
     2
1000
-2005028
1002
}
  0
INSERT
  5
204
  8
0
  2
*U31
 10
0.0
 20
0.0
 30
0.0
  0
CIRCLE
  5
205
  8
0
 10
454.61182190599601
 20
157.68311826728191
 30
0.0
 40
2.5000000000000071
1001
REVIT
1002
{
1070
     1
1000
335375
1002
}
1002
{
1070
     5
1000
233013
1002
}
1002
{
1070
     2
1000
-2005028
1002
}
  0
INSERT
  5
206
  8
0
  6
CONTINUOUS
  2
*U32
 10
0.0
 20
0.0
 30
0.0
1001
REVIT
1002
{
1070
     1
1000
335375
1002
}
1002
{
1070
     5
1000
233013
1002
}
1002
{
1070
     2
1000
-2005028
1002
}
1001
ACAD
1002
{
1000
R14_HATCH_DATA
1000
206
1011
1.0
1021
0.0
1031
0.0
1021
0.0
1031
0.0
1011
0.0
1021
0.0
1031
0.0
1021
1.0
1031
0.0
1011
0.0
1021
0.0
1031
0.0
1021
0.0
1031
1.0
1040
0.0
1010
0.0
1020
0.0
1030
1.0
1000
SOLID
1070
     1
1070
     0
1071
        1
1071
        0
1071
        1
1070
     2
1040
454.61182190599601
1040
157.68311826728191
1040
2.5000000000000071
1040
0.0
1040
6.2831853071795862
1070
     1
1071
        0
1070
     0
1070
     1
1071
        1
1040
0.0
1040
0.0
1040
0.0
1002
}
  0
LINE
  5
207
  8
0
 10
578.47420688705859
 20
304.01284668474159
 30
0.0
 11
615.24208295179426
 21
304.01284668474159
 31
0.0
1001
REVIT
1002
{
1070
     1
1000
335375
1002
}
1002
{
1070
     5
1000
233013
1002
}
1002
{
1070
     2
1000
-2005028
1002
}
  0
LINE
  5
208
  8
0
 10
454.61182190599601
 20
157.68311826728191
 30
0.0
 11
578.47420688705859
 21
304.01284668474159
 31
0.0
1001
REVIT
1002
{
1070
     1
1000
335375
1002
}
1002
{
1070
     5
1000
233013
1002
}
1002
{
1070
     2
1000
-2005028
1002
}
  0
INSERT
  5
209
  8
0
  2
*U33
 10
0.0
 20
0.0
 30
0.0
  0
CIRCLE
  5
20A
  8
0
 10
515.92827991515367
 20
-22.749999999999961
 30
0.0
 40
2.5000000000000089
1001
REVIT
1002
{
1070
     1
1000
336446
1002
}
1002
{
1070
     5
1000
233013
1002
}
1002
{
1070
     2
1000
-2005028
1002
}
  0
INSERT
  5
20B
  8
0
  6
CONTINUOUS
  2
*U34
 10
0.0
 20
0.0
 30
0.0
1001
REVIT
1002
{
1070
     1
1000
336446
1002
}
1002
{
1070
     5
1000
233013
1002
}
1002
{
1070
     2
1000
-2005028
1002
}
1001
ACAD
1002
{
1000
R14_HATCH_DATA
1000
20B
1011
1.0
1021
0.0
1031
0.0
1021
0.0
1031
0.0
1011
0.0
1021
0.0
1031
0.0
1021
1.0
1031
0.0
1011
0.0
1021
0.0
1031
0.0
1021
0.0
1031
1.0
1040
0.0
1010
0.0
1020
0.0
1030
1.0
1000
SOLID
1070
     1
1070
     0
1071
        1
1071
        0
1071
        1
1070
     2
1040
515.92827991515367
1040
-22.749999999999961
1040
2.5000000000000089
1040
0.0
1040
6.2831853071795862
1070
     1
1071
        0
1070
     0
1070
     1
1071
        1
1040
0.0
1040
0.0
1040
0.0
1002
}
  0
LINE
  5
20C
  8
0
 10
571.73354478771637
 20
-72.271806977609728
 30
0.0
 11
615.24208295179426
 21
-72.271806977609728
 31
0.0
1001
REVIT
1002
{
1070
     1
1000
336446
1002
}
1002
{
1070
     5
1000
233013
1002
}
1002
{
1070
     2
1000
-2005028
1002
}
  0
LINE
  5
20D
  8
0
 10
515.92827991515367
 20
-22.749999999999961
 30
0.0
 11
571.73354478771637
 21
-72.271806977609728
 31
0.0
1001
REVIT
1002
{
1070
     1
1000
336446
1002
}
1002
{
1070
     5
1000
233013
1002
}
1002
{
1070
     2
1000
-2005028
1002
}
  0
INSERT
  5
20E
  8
0
  2
*U35
 10
0.0
 20
0.0
 30
0.0
  0
CIRCLE
  5
20F
  8
0
 10
-135.27423599568971
 20
136.3823562452643
 30
0.0
 40
2.5000000000000271
1001
REVIT
1002
{
1070
     1
1000
336524
1002
}
1002
{
1070
     5
1000
515860
1002
}
1002
{
1070
     2
1000
-2005028
1002
}
  0
INSERT
  5
210
  8
0
  6
CONTINUOUS
  2
*U36
 10
0.0
 20
0.0
 30
0.0
1001
REVIT
1002
{
1070
     1
1000
336524
1002
}
1002
{
1070
     5
1000
515860
1002
}
1002
{
1070
     2
1000
-2005028
1002
}
1001
ACAD
1002
{
1000
R14_HATCH_DATA
1000
210
1011
1.0
1021
0.0
1031
0.0
1021
0.0
1031
0.0
1011
0.0
1021
0.0
1031
0.0
1021
1.0
1031
0.0
1011
0.0
1021
0.0
1031
0.0
1021
0.0
1031
1.0
1040
0.0
1010
0.0
1020
0.0
1030
1.0
1000
SOLID
1070
     1
1070
     0
1071
        1
1071
        0
1071
        1
1070
     2
1040
-135.27423599568971
1040
136.3823562452643
1040
2.5000000000000271
1040
0.0
1040
6.2831853071795862
1070
     1
1071
        0
1070
     0
1070
     1
1071
        1
1040
0.0
1040
0.0
1040
0.0
1002
}
  0
LINE
  5
211
  8
0
 10
-192.29835236131021
 20
256.7708327600651
 30
0.0
 11
-217.95502153808189
 21
256.7708327600651
 31
0.0
1001
REVIT
1002
{
1070
     1
1000
336524
1002
}
1002
{
1070
     5
1000
515860
1002
}
1002
{
1070
     2
1000
-2005028
1002
}
  0
LINE
  5
212
  8
0
 10
-135.27423599568971
 20
136.3823562452643
 30
0.0
 11
-192.29835236131021
 21
256.7708327600651
 31
0.0
1001
REVIT
1002
{
1070
     1
1000
336524
1002
}
1002
{
1070
     5
1000
515860
1002
}
1002
{
1070
     2
1000
-2005028
1002
}
  0
INSERT
  5
213
  8
0
  2
*U37
 10
0.0
 20
0.0
 30
0.0
  0
INSERT
  5
222
  8
0
  2
*U38
 10
0.0
 20
0.0
 30
0.0
  0
CIRCLE
  5
223
  8
0
 10
-150.51034575045739
 20
50.000000000000391
 30
0.0
 40
2.5
1001
REVIT
1002
{
1070
     1
1000
530902
1002
}
1002
{
1070
     5
1000
233013
1002
}
1002
{
1070
     2
1000
-2005028
1002
}
  0
INSERT
  5
224
  8
0
  6
CONTINUOUS
  2
*U39
 10
0.0
 20
0.0
 30
0.0
1001
REVIT
1002
{
1070
     1
1000
530902
1002
}
1002
{
1070
     5
1000
233013
1002
}
1002
{
1070
     2
1000
-2005028
1002
}
1001
ACAD
1002
{
1000
R14_HATCH_DATA
1000
224
1011
1.0
1021
0.0
1031
0.0
1021
0.0
1031
0.0
1011
0.0
1021
0.0
1031
0.0
1021
1.0
1031
0.0
1011
0.0
1021
0.0
1031
0.0
1021
0.0
1031
1.0
1040
0.0
1010
0.0
1020
0.0
1030
1.0
1000
SOLID
1070
     1
1070
     0
1071
        1
1071
        0
1071
        1
1070
     2
1040
-150.51034575045739
1040
50.000000000000391
1040
2.5
1040
0.0
1040
6.2831853071795862
1070
     1
1071
        0
1070
     0
1070
     1
1071
        1
1040
0.0
1040
0.0
1040
0.0
1002
}
  0
LINE
  5
225
  8
0
 10
-249.9621025487063
 20
5.8005370888307102
 30
0.0
 11
-293.0710048016802
 21
5.8005370888307102
 31
0.0
1001
REVIT
1002
{
1070
     1
1000
530902
1002
}
1002
{
1070
     5
1000
233013
1002
}
1002
{
1070
     2
1000
-2005028
1002
}
  0
LINE
  5
226
  8
0
 10
-150.51034575045739
 20
50.000000000000391
 30
0.0
 11
-249.9621025487063
 21
5.8005370888307057
 31
0.0
1001
REVIT
1002
{
1070
     1
1000
530902
1002
}
1002
{
1070
     5
1000
233013
1002
}
1002
{
1070
     2
1000
-2005028
1002
}
  0
INSERT
  5
227
  8
0
  2
*U40
 10
0.0
 20
0.0
 30
0.0
  0
CIRCLE
  5
228
  8
0
 10
475.4287047401358
 20
18.01354464207758
 30
0.0
 40
2.4999999999999432
1001
REVIT
1002
{
1070
     1
1000
530903
1002
}
1002
{
1070
     5
1000
233013
1002
}
1002
{
1070
     2
1000
-2005028
1002
}
  0
INSERT
  5
229
  8
0
  6
CONTINUOUS
  2
*U41
 10
0.0
 20
0.0
 30
0.0
1001
REVIT
1002
{
1070
     1
1000
530903
1002
}
1002
{
1070
     5
1000
233013
1002
}
1002
{
1070
     2
1000
-2005028
1002
}
1001
ACAD
1002
{
1000
R14_HATCH_DATA
1000
229
1011
1.0
1021
0.0
1031
0.0
1021
0.0
1031
0.0
1011
0.0
1021
0.0
1031
0.0
1021
1.0
1031
0.0
1011
0.0
1021
0.0
1031
0.0
1021
0.0
1031
1.0
1040
0.0
1010
0.0
1020
0.0
1030
1.0
1000
SOLID
1070
     1
1070
     0
1071
        1
1071
        0
1071
        1
1070
     2
1040
475.4287047401358
1040
18.01354464207758
1040
2.4999999999999432
1040
0.0
1040
6.2831853071795862
1070
     1
1071
        0
1070
     0
1070
     1
1071
        1
1040
0.0
1040
0.0
1040
0.0
1002
}
  0
LINE
  5
22A
  8
0
 10
475.4287047401358
 20
-115.2436538737732
 30
0.0
 11
615.24208295179426
 21
-115.2436538737732
 31
0.0
1001
REVIT
1002
{
1070
     1
1000
530903
1002
}
1002
{
1070
     5
1000
233013
1002
}
1002
{
1070
     2
1000
-2005028
1002
}
  0
LINE
  5
22B
  8
0
 10
475.4287047401358
 20
18.01354464207758
 30
0.0
 11
475.4287047401358
 21
-115.2436538737732
 31
0.0
1001
REVIT
1002
{
1070
     1
1000
530903
1002
}
1002
{
1070
     5
1000
233013
1002
}
1002
{
1070
     2
1000
-2005028
1002
}
  0
INSERT
  5
22C
  8
0
  2
*U42
 10
0.0
 20
0.0
 30
0.0
  0
CIRCLE
  5
22D
  8
0
 10
-145.6972905752437
 20
102.5253823978061
 30
0.0
 40
2.4999999999999791
1001
REVIT
1002
{
1070
     1
1000
567561
1002
}
1002
{
1070
     5
1000
233013
1002
}
1002
{
1070
     2
1000
-2005028
1002
}
  0
INSERT
  5
22E
  8
0
  6
CONTINUOUS
  2
*U43
 10
0.0
 20
0.0
 30
0.0
1001
REVIT
1002
{
1070
     1
1000
567561
1002
}
1002
{
1070
     5
1000
233013
1002
}
1002
{
1070
     2
1000
-2005028
1002
}
1001
ACAD
1002
{
1000
R14_HATCH_DATA
1000
22E
1011
1.0
1021
0.0
1031
0.0
1021
0.0
1031
0.0
1011
0.0
1021
0.0
1031
0.0
1021
1.0
1031
0.0
1011
0.0
1021
0.0
1031
0.0
1021
0.0
1031
1.0
1040
0.0
1010
0.0
1020
0.0
1030
1.0
1000
SOLID
1070
     1
1070
     0
1071
        1
1071
        0
1071
        1
1070
     2
1040
-145.6972905752437
1040
102.5253823978061
1040
2.4999999999999791
1040
0.0
1040
6.2831853071795862
1070
     1
1071
        0
1070
     0
1070
     1
1071
        1
1040
0.0
1040
0.0
1040
0.0
1002
}
  0
LINE
  5
22F
  8
0
 10
-250.01684810247951
 20
80.837548983935065
 30
0.0
 11
-296.38682070126168
 21
80.837548983935065
 31
0.0
1001
REVIT
1002
{
1070
     1
1000
567561
1002
}
1002
{
1070
     5
1000
233013
1002
}
1002
{
1070
     2
1000
-2005028
1002
}
  0
LINE
  5
230
  8
0
 10
-145.6972905752437
 20
102.5253823978061
 30
0.0
 11
-250.01684810247951
 21
80.837548983935065
 31
0.0
1001
REVIT
1002
{
1070
     1
1000
567561
1002
}
1002
{
1070
     5
1000
233013
1002
}
1002
{
1070
     2
1000
-2005028
1002
}
  0
INSERT
  5
231
  8
0
  2
*U44
 10
0.0
 20
0.0
 30
0.0
  0
LINE
  5
297
  8
0
 10
-220.17162953024689
 20
-28.408250613458009
 30
0.0
 11
-220.17162953024669
 21
68.037756244941889
 31
0.0
  0
LINE
  5
298
  8
0
 10
-220.17162953024649
 20
171.59174938654201
 30
0.0
 11
-220.17162953024669
 21
75.145742528142094
 31
0.0
  0
LINE
  5
299
  8
0
 10
-220.17162953024689
 20
-28.408250613458009
 30
0.0
 11
-220.17162953024669
 21
68.037756244941889
 31
0.0
  0
LINE
  5
29A
  8
0
 10
-220.17162953024669
 20
68.037756244941889
 30
0.0
 11
-209.8640103693659
 21
69.855267609872655
 31
0.0
  0
LINE
  5
29B
  8
0
 10
-209.86401036936579
 20
69.855267609872655
 30
0.0
 11
-230.47924869112759
 21
73.328231163211328
 31
0.0
  0
LINE
  5
29C
  8
0
 10
-230.47924869112759
 20
73.328231163211328
 30
0.0
 11
-220.17162953024669
 21
75.145742528142094
 31
0.0
  0
LINE
  5
29D
  8
0
 10
-220.17162953024669
 20
75.145742528142094
 30
0.0
 11
-220.17162953024649
 21
171.59174938654201
 31
0.0
  0
LINE
  5
29E
  8
0
 10
70.000000000000171
 20
-218.41902815239609
 30
0.0
 11
-26.446006858399731
 21
-218.41902815239609
 31
0.0
  0
LINE
  5
29F
  8
0
 10
-129.9999999999998
 20
-218.41902815239609
 30
0.0
 11
-33.553993141599932
 21
-218.41902815239609
 31
0.0
  0
LINE
  5
2A0
  8
0
 10
70.000000000000171
 20
-218.41902815239609
 30
0.0
 11
-26.446006858399731
 21
-218.41902815239609
 31
0.0
  0
LINE
  5
2A1
  8
0
 10
-26.446006858399731
 20
-218.41902815239609
 30
0.0
 11
-28.263518223330522
 21
-208.1114089915153
 31
0.0
  0
LINE
  5
2A2
  8
0
 10
-28.263518223330522
 20
-208.11140899151519
 30
0.0
 11
-31.736481776669141
 21
-228.726647313277
 31
0.0
  0
LINE
  5
2A3
  8
0
 10
-31.736481776669141
 20
-228.726647313277
 30
0.0
 11
-33.553993141599932
 21
-218.41902815239609
 31
0.0
  0
LINE
  5
2A4
  8
0
 10
-33.553993141599932
 20
-218.41902815239609
 30
0.0
 11
-129.9999999999998
 21
-218.41902815239609
 31
0.0
  0
ARC
  5
2A5
  8
0
 10
48.000000000001137
 20
73.000000000000455
 30
0.0
 40
1.9999999999999969
 50
0.0
 51
90.000000000000185
1001
REVIT
1002
{
1070
     3
1000
224526
1002
}
  0
ARC
  5
2A6
  8
0
 10
2.0000000000011968
 20
73.000000000000526
 30
0.0
 40
2.0
 50
89.999999999999801
 51
179.9999999999996
1001
REVIT
1002
{
1070
     3
1000
224526
1002
}
  0
ARC
  5
2A7
  8
0
 10
2.000000000001207
 20
2.0000000000004898
 30
0.0
 40
1.999999999999994
 50
180.0
 51
269.99999999999977
1001
REVIT
1002
{
1070
     3
1000
224526
1002
}
  0
ARC
  5
2A8
  8
0
 10
48.000000000001208
 20
2.0000000000004832
 30
0.0
 40
1.9999999999999949
 50
269.9999999999996
 51
0.0
1001
REVIT
1002
{
1070
     3
1000
224526
1002
}
  0
LINE
  5
2A9
  8
0
 10
48.000000000001137
 20
75.000000000000526
 30
0.0
 11
2.000000000001207
 21
75.000000000000526
 31
0.0
1001
REVIT
1002
{
1070
     3
1000
224526
1002
}
  0
LINE
  5
2AA
  8
0
 10
0.0000000000011973
 20
73.00000000000054
 30
0.0
 11
0.0000000000011973
 21
2.0000000000004969
 31
0.0
1001
REVIT
1002
{
1070
     3
1000
224526
1002
}
  0
LINE
  5
2AB
  8
0
 10
2.0000000000011928
 20
0.0000000000004832
 30
0.0
 11
48.000000000001208
 21
0.0000000000004832
 31
0.0
1001
REVIT
1002
{
1070
     3
1000
224526
1002
}
  0
LINE
  5
2AC
  8
0
 10
50.000000000001201
 20
2.0000000000004832
 30
0.0
 11
50.000000000001201
 21
73.000000000000455
 31
0.0
1001
REVIT
1002
{
1070
     3
1000
224526
1002
}
  0
LINE
  5
2AD
  8
0
 10
2.0000000000010369
 20
73.000000000000711
 30
0.0
 11
48.000000000001243
 21
2.0000000000005538
 31
0.0
  0
LINE
  5
2AE
  8
0
 10
48.000000000001243
 20
73.000000000000711
 30
0.0
 11
2.000000000001239
 21
2.0000000000004832
 31
0.0
  0
LINE
  5
2AF
  8
0
  6
DASH
 10
2.5000000000000742
 20
-2.072339171135444
 30
0.0
 11
2.4999999999996572
 21
-214.84228192367729
 31
0.0
1001
REVIT
1002
{
1070
     3
1000
217411
1002
}
  0
INSERT
  5
2B0
  8
0
  6
CONTINUOUS
  2
*X45
 10
0.0
 20
0.0
 30
0.0
1001
ACAD
1000
HATCH
1002
{
1070
    19
1000
FP_1
1040
1.0
1040
0.0
1000
R14_HATCH_DATA
1000
2B0
1011
1.0
1021
0.0
1031
0.0
1021
0.0
1031
0.0
1011
0.0
1021
0.0
1031
0.0
1021
1.0
1031
0.0
1011
0.0
1021
0.0
1031
0.0
1021
0.0
1031
1.0
1040
0.0
1010
0.0
1020
0.0
1030
1.0
1000
FP_1
1070
     0
1070
     0
1071
        1
1071
        0
1071
        4
1070
     1
1040
50.308241135171379
1040
-218.41902815239629
1040
50.30824113517064
1040
-8.9999999999999147
1070
     1
1040
50.308241135170647
1040
-8.9999999999999147
1040
30.308241135170661
1040
-8.9999999999999716
1070
     1
1040
30.30824113517065
1040
-8.9999999999999716
1040
30.308241135171539
1040
-218.41902815239629
1070
     1
1040
30.308241135171539
1040
-218.41902815239629
1040
50.308241135171379
1040
-218.41902815239629
1071
        0
1070
     0
1070
     2
1040
0.0
1040
1.0
1070
     0
1070
     1
1040
0.0
1040
0.0002411351715637
1040
-0.0000281523961405
1040
0.0
1040
15.0
1070
     0
1071
        1
1040
40.308241135171563
1040
-218.41902815239609
1040
0.0
1002
}
  0
LINE
  5
2B1
  8
0
 10
50.30824113517059
 20
-9.0000000000000568
 30
0.0
 11
30.30824113517059
 21
-9.0000000000001137
 31
0.0
1001
REVIT
1002
{
1070
     3
1000
224526
1002
}
  0
LINE
  5
2B2
  8
0
 10
30.30824113517059
 20
-9.0000000000001137
 30
0.0
 11
30.308241135171279
 21
-218.41902815239621
 31
0.0
1001
REVIT
1002
{
1070
     3
1000
224526
1002
}
  0
LINE
  5
2B3
  8
0
 10
50.308241135171279
 20
-218.41902815239609
 30
0.0
 11
50.30824113517059
 21
-9.0000000000000568
 31
0.0
1001
REVIT
1002
{
1070
     3
1000
224526
1002
}
  0
LINE
  5
2B4
  8
0
 10
0.0000000000000995
 20
-218.41902815239661
 30
0.0
 11
0.0000000000004263
 21
-51.000000000000057
 31
0.0
1001
REVIT
1002
{
1070
     3
1000
206265
1002
}
  0
LINE
  5
2B5
  8
0
 10
-99.999999999999744
 20
-50.999999999999872
 30
0.0
 11
-100.0
 21
-218.41902815239641
 31
0.0
1001
REVIT
1002
{
1070
     3
1000
206265
1002
}
  0
ARC
  5
2B6
  8
0
 10
497.99999999999949
 20
97.999999999997911
 30
0.0
 40
1.9999999999999969
 50
0.0
 51
90.0
1001
REVIT
1002
{
1070
     3
1000
224526
1002
}
  0
ARC
  5
2B7
  8
0
 10
451.99999999999949
 20
97.999999999997982
 30
0.0
 40
2.0
 50
90.0
 51
179.9999999999996
1001
REVIT
1002
{
1070
     3
1000
224526
1002
}
  0
ARC
  5
2B8
  8
0
 10
451.99999999999949
 20
1.999999999997953
 30
0.0
 40
1.999999999999996
 50
179.9999999999996
 51
270.0
1001
REVIT
1002
{
1070
     3
1000
224526
1002
}
  0
ARC
  5
2B9
  8
0
 10
497.99999999999949
 20
1.9999999999979461
 30
0.0
 40
2.0000000000000009
 50
270.0
 51
0.0
1001
REVIT
1002
{
1070
     3
1000
224526
1002
}
  0
LINE
  5
2BA
  8
0
 10
497.99999999999949
 20
99.999999999997996
 30
0.0
 11
451.99999999999949
 21
99.999999999997996
 31
0.0
1001
REVIT
1002
{
1070
     3
1000
224526
1002
}
  0
LINE
  5
2BB
  8
0
 10
449.99999999999949
 20
97.999999999997982
 30
0.0
 11
449.99999999999949
 21
1.999999999997953
 31
0.0
1001
REVIT
1002
{
1070
     3
1000
224526
1002
}
  0
LINE
  5
2BC
  8
0
 10
451.99999999999949
 20
-0.0000000000020606
 30
0.0
 11
497.99999999999949
 21
-0.0000000000020606
 31
0.0
1001
REVIT
1002
{
1070
     3
1000
224526
1002
}
  0
LINE
  5
2BD
  8
0
 10
499.99999999999949
 20
1.9999999999979461
 30
0.0
 11
499.99999999999949
 21
97.999999999997911
 31
0.0
1001
REVIT
1002
{
1070
     3
1000
224526
1002
}
  0
LINE
  5
2BE
  8
0
 10
451.99999999999937
 20
97.999999999998153
 30
0.0
 11
497.99999999999949
 21
1.9999999999980169
 31
0.0
  0
LINE
  5
2BF
  8
0
 10
497.99999999999949
 20
97.999999999998153
 30
0.0
 11
451.9999999999996
 21
1.999999999997953
 31
0.0
  0
LINE
  5
2C0
  8
0
 10
450.0
 20
100.0000000000004
 30
0.0
 11
-220.17162953024669
 21
100.0000000000004
 31
0.0
1001
REVIT
1002
{
1070
     3
1000
206265
1002
}
  0
LINE
  5
2C1
  8
0
 10
-220.17162953024669
 20
0.0000000000003055
 30
0.0
 11
0.0000000000012506
 21
0.0000000000003055
 31
0.0
1001
REVIT
1002
{
1070
     3
1000
206265
1002
}
  0
LINE
  5
2C2
  8
0
 10
50.000000000001272
 20
0.0000000000003055
 30
0.0
 11
450.0
 21
0.0000000000003055
 31
0.0
1001
REVIT
1002
{
1070
     3
1000
206265
1002
}
  0
ARC
  5
2C3
  8
0
 10
-2.0000000000000071
 20
-3.0000000000000488
 30
0.0
 40
1.9999999999999969
 50
0.0000000000002036
 51
90.0
1001
REVIT
1002
{
1070
     3
1000
224526
1002
}
  0
ARC
  5
2C4
  8
0
 10
-97.999999999999943
 20
-2.9999999999999818
 30
0.0
 40
1.999999999999996
 50
90.0
 51
179.9999999999998
1001
REVIT
1002
{
1070
     3
1000
224526
1002
}
  0
ARC
  5
2C5
  8
0
 10
-97.999999999999943
 20
-49.0
 30
0.0
 40
1.999999999999992
 50
179.9999999999998
 51
269.9999999999996
1001
REVIT
1002
{
1070
     3
1000
224526
1002
}
  0
ARC
  5
2C6
  8
0
 10
-1.9999999999999429
 20
-49.000000000000021
 30
0.0
 40
2.0000000000000071
 50
269.9999999999996
 51
0.0
1001
REVIT
1002
{
1070
     3
1000
224526
1002
}
  0
LINE
  5
2C7
  8
0
 10
-2.0000000000000071
 20
-0.9999999999999786
 30
0.0
 11
-97.999999999999943
 21
-0.9999999999999786
 31
0.0
1001
REVIT
1002
{
1070
     3
1000
224526
1002
}
  0
LINE
  5
2C8
  8
0
 10
-99.999999999999943
 20
-2.9999999999999711
 30
0.0
 11
-99.999999999999943
 21
-49.0
 31
0.0
1001
REVIT
1002
{
1070
     3
1000
224526
1002
}
  0
LINE
  5
2C9
  8
0
 10
0.0000000000000639
 20
-49.000000000000021
 30
0.0
 11
0.0000000000000639
 21
-3.0000000000000488
 31
0.0
1001
REVIT
1002
{
1070
     3
1000
224526
1002
}
  0
LINE
  5
2CA
  8
0
 10
-98.000000000000114
 20
-2.9999999999998042
 30
0.0
 11
-1.9999999999999141
 21
-48.999999999999943
 31
0.0
  0
LINE
  5
2CB
  8
0
 10
-1.9999999999999141
 20
-2.9999999999998042
 30
0.0
 11
-97.999999999999901
 21
-49.000000000000007
 31
0.0
  0
LINE
  5
2CC
  8
0
 10
526.28110170848424
 20
103.588223618242
 30
0.0
 11
527.03110170848424
 21
103.8883600771324
 31
0.0
  0
LINE
  5
2CD
  8
0
 10
527.03110170848424
 20
103.8883600771324
 30
0.0
 11
527.03110170848424
 21
105.0882236182438
 31
0.0
  0
LINE
  5
2CE
  8
0
 10
527.03110170848424
 20
105.0882236182438
 30
0.0
 11
539.03110170848424
 21
105.0882236182438
 31
0.0
  0
LINE
  5
2CF
  8
0
 10
539.03110170848424
 20
105.0882236182438
 30
0.0
 11
539.03110170848424
 21
103.8965400674893
 31
0.0
  0
LINE
  5
2D0
  8
0
 10
539.03110170848424
 20
103.8965400674893
 30
0.0
 11
539.78110170848424
 21
103.596403608599
 31
0.0
  0
LINE
  5
2D1
  8
0
 10
539.78110170848424
 20
103.596403608599
 30
0.0
 11
539.78110170848424
 21
107.5800436278863
 31
0.0
  0
LINE
  5
2D2
  8
0
 10
539.78110170848424
 20
107.5800436278863
 30
0.0
 11
539.03110170848424
 21
107.27990716899779
 31
0.0
  0
LINE
  5
2D3
  8
0
 10
539.03110170848424
 20
107.27990716899779
 30
0.0
 11
539.03110170848424
 21
106.0882236182438
 31
0.0
  0
LINE
  5
2D4
  8
0
 10
539.03110170848424
 20
106.0882236182438
 30
0.0
 11
527.03110170848424
 21
106.0882236182438
 31
0.0
  0
LINE
  5
2D5
  8
0
 10
527.03110170848424
 20
106.0882236182438
 30
0.0
 11
527.03110170848424
 21
107.2880871593548
 31
0.0
  0
LINE
  5
2D6
  8
0
 10
527.03110170848424
 20
107.2880871593548
 30
0.0
 11
526.28110170848424
 21
107.5882236182433
 31
0.0
  0
LINE
  5
2D7
  8
0
 10
526.28110170848424
 20
107.5882236182433
 30
0.0
 11
526.28110170848424
 21
103.588223618242
 31
0.0
  0
INSERT
  5
2D8
  8
0
  6
CONTINUOUS
  2
*U46
 10
0.0
 20
0.0
 30
0.0
1001
ACAD
1002
{
1000
R14_HATCH_DATA
1000
2D8
1011
1.0
1021
0.0
1031
0.0
1021
0.0
1031
0.0
1011
0.0
1021
0.0
1031
0.0
1021
1.0
1031
0.0
1011
0.0
1021
0.0
1031
0.0
1021
0.0
1031
1.0
1040
0.0
1010
0.0
1020
0.0
1030
1.0
1000
SOLID
1070
     1
1070
     0
1071
        2
1071
        0
1071
       66
1070
     1
1040
524.54672670848538
1040
-22.749999999999929
1040
526.8113933531323
1040
-22.451850980029331
1070
     1
1040
526.8113933531323
1040
-22.451850980029331
1040
528.92172670848515
1040
-21.577722283113872
1070
     1
1040
528.92172670848515
1040
-21.577722283113872
1040
530.73391104386735
1040
-20.18718433538238
1070
     1
1040
530.73391104386735
1040
-20.18718433538238
1040
532.12444899159902
1040
-18.37500000000011
1070
     1
1040
532.12444899159902
1040
-18.37500000000011
1040
532.9985776885145
1040
-16.264666644647161
1070
     1
1040
532.99857768851462
1040
-16.264666644647161
1040
533.29672670848515
1040
-14.000000000000149
1070
     1
1040
533.29672670848515
1040
-14.000000000000149
1040
533.29672670848515
1040
15.9566166470265
1070
     1
1040
533.29672670848515
1040
15.9566166470265
1040
531.29672670848515
1040
22.37197972018998
1070
     1
1040
531.29672670848515
1040
22.37197972018998
1040
531.29672670848515
1040
82.032691102805614
1070
     1
1040
531.29672670848515
1040
82.032691102805614
1040
533.29672670848515
1040
88.448054175968892
1070
     1
1040
533.29672670848515
1040
88.448054175968892
1040
533.29672670848515
1040
105.0882236182439
1070
     1
1040
533.29672670848515
1040
105.0882236182439
1040
532.29672670848504
1040
105.0882236182439
1070
     1
1040
532.29672670848504
1040
105.0882236182439
1040
532.29672670848504
1040
88.600316216313274
1070
     1
1040
532.29672670848504
1040
88.600316216313274
1040
530.29672670848504
1040
82.184953143150054
1070
     1
1040
530.29672670848515
1040
82.184953143150054
1040
530.29672670848515
1040
22.21971767984552
1070
     1
1040
530.29672670848515
1040
22.21971767984552
1040
532.29672670848527
1040
15.80435460668204
1070
     1
1040
532.29672670848515
1040
15.80435460668204
1040
532.29672670848515
1040
-14.000000000000149
1070
     1
1040
532.29672670848515
1040
-14.000000000000149
1040
532.03265186222541
1040
-16.005847599544609
1070
     1
1040
532.03265186222552
1040
-16.005847599544609
1040
531.25842358781472
1040
-17.875000000000011
1070
     1
1040
531.25842358781472
1040
-17.875000000000011
1040
530.02680426268103
1040
-19.48007755419572
1070
     1
1040
530.02680426268103
1040
-19.48007755419572
1040
528.42172670848527
1040
-20.711696879329399
1070
     1
1040
528.42172670848527
1040
-20.711696879329399
1040
526.55257430802976
1040
-21.485925153740311
1070
     1
1040
526.55257430802976
1040
-21.485925153740311
1040
524.54672670848515
1040
-21.750000000000021
1070
     1
1040
524.54672670848538
1040
-21.750000000000021
1040
503.02905382076079
1040
-21.750000000000021
1070
     1
1040
503.02905382076068
1040
-21.750000000000021
1040
502.38551719659
1040
-21.673641825927799
1070
     1
1040
502.38551719659
1040
-21.673641825927799
1040
501.77771823174288
1040
-21.448807718800591
1070
     1
1040
501.77771823174288
1040
-21.448807718800591
1040
501.23940995833499
1040
-21.087983439992168
1070
     1
1040
501.23940995833499
1040
-21.087983439992168
1040
500.80048636679942
1040
-20.611206722659659
1070
     1
1040
500.80048636679942
1040
-20.611206722659659
1040
500.48532229641359
1040
-20.04495451194888
1070
     1
1040
500.48532229641359
1040
-20.04495451194888
1040
500.31141982204917
1040
-19.420672615041081
1070
     1
1040
500.31141982204917
1040
-19.420672615041081
1040
499.572490169216
1040
-14.6470308912984
1070
     1
1040
499.572490169216
1040
-14.6470308912984
1040
499.55457740078481
1040
-13.944784334330871
1070
     1
1040
499.55457740078492
1040
-13.944784334330871
1040
499.71516555876622
1040
-13.26091114611404
1070
     1
1040
499.7151655587661
1040
-13.26091114611404
1040
500.04377588428292
1040
-12.64003567711104
1070
     1
1040
500.04377588428292
1040
-12.64003567711104
1040
500.51896577279291
1040
-12.122671526919421
1070
     1
1040
500.51896577279291
1040
-12.122671526919421
1040
506.23250785910932
1040
-7.3122652079575943
1070
     1
1040
506.23250785910932
1040
-7.3122652079575943
1040
506.94749808331278
1040
-6.5394879611841574
1070
     1
1040
506.94749808331278
1040
-6.5394879611841574
1040
507.4501289096263
1040
-5.6144161011233251
1070
     1
1040
507.4501289096263
1040
-5.6144161011233251
1040
507.70943238923599
1040
-4.5940448945031562
1070
     1
1040
507.70943238923599
1040
-4.5940448945031562
1040
507.70943238923599
1040
-3.5412411645338082
1070
     1
1040
507.70943238923599
1040
-3.5412411645338082
1040
507.34013899902737
1040
-2.3184379424878472
1070
     1
1040
507.34013899902737
1040
-2.3184379424878472
1040
506.94749808331289
1040
-1.595798097852807
1070
     1
1040
506.94749808331289
1040
-1.595798097852807
1040
506.23250785910949
1040
-0.8230208510793701
1070
     1
1040
506.23250785910949
1040
-0.8230208510793701
1040
502.64405759823143
1040
2.1982054826780191
1070
     1
1040
502.64405759823143
1040
2.1982054826780191
1040
502.0000000000004
1040
1.4332284829184581
1070
     1
1040
502.0000000000004
1040
1.4332284829184581
1040
505.58845026087852
1040
-1.5879978508388599
1070
     1
1040
505.58845026087852
1040
-1.5879978508388599
1040
506.21086009736001
1040
-2.3184379424878472
1070
     1
1040
506.21086009736001
1040
-2.3184379424878472
1040
506.51899563760571
1040
-2.8855490356466191
1070
     1
1040
506.51899563760571
1040
-2.8855490356466191
1040
506.71716374090659
1040
-3.6653497038946119
1070
     1
1040
506.71716374090659
1040
-3.6653497038946119
1040
506.71716374090659
1040
-4.4699363551422797
1070
     1
1040
506.71716374090659
1040
-4.4699363551422797
1040
506.51899563760583
1040
-5.2497370233902103
1070
     1
1040
506.51899563760571
1040
-5.2497370233902103
1040
506.13486890833468
1040
-5.9567068496384223
1070
     1
1040
506.13486890833468
1040
-5.9567068496384223
1040
505.58845026087829
1040
-6.547288208198025
1070
     1
1040
505.58845026087829
1040
-6.547288208198025
1040
499.87490817456211
1040
-11.35769452715993
1070
     1
1040
499.87490817456211
1040
-11.35769452715993
1040
499.22692196295742
1040
-12.06319109560307
1070
     1
1040
499.22692196295742
1040
-12.06319109560307
1040
498.77881697361641
1040
-12.90983946242531
1070
     1
1040
498.7788169736163
1040
-12.90983946242531
1040
498.5598331218236
1040
-13.84239380999381
1070
     1
1040
498.55983312182371
1040
-13.84239380999381
1040
498.5842596242299
1040
-14.80000275131337
1070
     1
1040
498.5842596242299
1040
-14.80000275131337
1040
499.32318927706308
1040
-19.573644475055911
1070
     1
1040
499.32318927706308
1040
-19.573644475055911
1040
499.56032901483297
1040
-20.42493797083927
1070
     1
1040
499.56032901483297
1040
-20.42493797083927
1040
499.99009820172239
1040
-21.197100076353991
1070
     1
1040
499.99009820172239
1040
-21.197100076353991
1040
500.58863037199842
1040
-21.847250145443851
1070
     1
1040
500.58863037199831
1040
-21.847250145443851
1040
501.32268710846358
1040
-22.33928325290972
1070
     1
1040
501.32268710846358
1040
-22.33928325290972
1040
502.1515038787096
1040
-22.645875217174339
1070
     1
1040
502.1515038787096
1040
-22.645875217174339
1040
503.02905382076068
1040
-22.749999999999929
1070
     1
1040
503.02905382076068
1040
-22.749999999999929
1040
524.54672670848538
1040
-22.749999999999929
1071
        0
1071
        0
1071
       30
1070
     1
1040
501.87833089513242
1040
102.1463122769478
1040
510.96962009840649
1040
122.2346207372929
1070
     1
1040
510.96962009840649
1040
122.2346207372929
1040
511.46926611049111
1040
123.04535939205979
1070
     1
1040
511.46926611049111
1040
123.04535939205979
1040
512.15702561110595
1040
123.70409315697511
1070
     1
1040
512.15702561110595
1040
123.70409315697511
1040
512.9885424136794
1040
124.1683378238949
1070
     1
1040
512.9885424136794
1040
124.1683378238949
1040
513.91018888471626
1040
124.40815251516899
1070
     1
1040
513.91018888471626
1040
124.40815251516899
1040
528.07087847664604
1040
126.21968660780141
1070
     1
1040
528.07087847664604
1040
126.21968660780141
1040
528.97829387793661
1040
126.2250838619087
1070
     1
1040
528.97829387793661
1040
126.2250838619087
1040
529.86043879753549
1040
126.0123582600702
1070
     1
1040
529.86043879753538
1040
126.0123582600702
1040
530.66565910459462
1040
125.59396598247579
1070
     1
1040
530.66565910459474
1040
125.59396598247579
1040
531.34680500073387
1040
124.9944060530072
1070
     1
1040
531.34680500073375
1040
124.9944060530072
1040
531.86399188370183
1040
124.24878579514321
1070
     1
1040
531.86399188370194
1040
124.24878579514321
1040
532.18693579637147
1040
123.4007651172579
1070
     1
1040
532.18693579637147
1040
123.4007651172579
1040
532.29672670848504
1040
122.5
1070
     1
1040
532.29672670848504
1040
122.5
1040
532.29672670848504
1040
106.0882236182439
1070
     1
1040
532.29672670848504
1040
106.0882236182439
1040
533.29672670848515
1040
106.0882236182439
1070
     1
1040
533.29672670848515
1040
106.0882236182439
1040
533.29672670848515
1040
122.5
1070
     1
1040
533.29672670848515
1040
122.5
1040
533.15765821980801
1040
123.64096914852669
1070
     1
1040
533.15765821980801
1040
123.64096914852669
1040
532.74859593042629
1040
124.715128673848
1070
     1
1040
532.74859593042618
1040
124.715128673848
1040
532.09349254533333
1040
125.6595810004756
1070
     1
1040
532.09349254533333
1040
125.6595810004756
1040
531.23070774355733
1040
126.4190235778027
1070
     1
1040
531.23070774355733
1040
126.4190235778027
1040
530.21076202128211
1040
126.94898712942231
1070
     1
1040
530.21076202128211
1040
126.94898712942231
1040
529.09337845645712
1040
127.2184395584177
1070
     1
1040
529.09337845645712
1040
127.2184395584177
1040
527.94398561482205
1040
127.2116030365483
1070
     1
1040
527.94398561482205
1040
127.2116030365483
1040
513.78329602289216
1040
125.400068943916
1070
     1
1040
513.78329602289239
1040
125.400068943916
1040
512.6158771595791
1040
125.0963036683022
1070
     1
1040
512.6158771595791
1040
125.0963036683022
1040
511.56262254298611
1040
124.5082604235371
1070
     1
1040
511.56262254298611
1040
124.5082604235371
1040
510.69146050887412
1040
123.6738643213109
1070
     1
1040
510.69146050887412
1040
123.6738643213109
1040
510.05857556023312
1040
122.64692869193961
1070
     1
1040
510.05857556023318
1040
122.64692869193961
1040
500.96728635695911
1040
102.5586202315944
1070
     1
1040
500.96728635695899
1040
102.5586202315944
1040
501.87833089513231
1040
102.1463122769477
1071
        0
1070
     0
1070
     1
1071
        1
1040
502.00491993538168
1040
52.250000000000547
1040
0.0
1002
}
  0
LINE
  5
2D9
  8
0
 10
500.96728635695831
 20
102.5586202315943
 30
0.0
 11
501.87833089513163
 21
102.1463122769476
 31
0.0
1001
REVIT
1002
{
1070
     3
1000
476644
1002
}
  0
LINE
  5
2DA
  8
0
 10
501.87833089513163
 20
102.1463122769476
 30
0.0
 11
510.96962009840558
 21
122.2346207372928
 31
0.0
1001
REVIT
1002
{
1070
     3
1000
476644
1002
}
  0
ARC
  5
2DB
  8
0
 10
514.38603711655435
 20
120.6884659073683
 30
0.0
 40
3.7499999999993241
 50
97.290079331027357
 51
155.6501004082825
1001
REVIT
1002
{
1070
     3
1000
476644
1002
}
  0
LINE
  5
2DC
  8
0
 10
513.91018888471547
 20
124.40815251516889
 30
0.0
 11
528.07087847664525
 21
126.21968660780119
 31
0.0
1001
REVIT
1002
{
1070
     3
1000
476644
1002
}
  0
ARC
  5
2DD
  8
0
 10
528.54672670848424
 20
122.4999999999999
 30
0.0
 40
3.7500000000001301
 50
0.0000000000004071
 51
97.290079331027357
1001
REVIT
1002
{
1070
     3
1000
476644
1002
}
  0
LINE
  5
2DE
  8
0
 10
532.29672670848424
 20
122.4999999999999
 30
0.0
 11
532.29672670848424
 21
106.0882236182438
 31
0.0
1001
REVIT
1002
{
1070
     3
1000
476644
1002
}
  0
LINE
  5
2DF
  8
0
 10
532.29672670848424
 20
105.0882236182438
 30
0.0
 11
532.29672670848424
 21
88.600316216313189
 31
0.0
1001
REVIT
1002
{
1070
     3
1000
476644
1002
}
  0
LINE
  5
2E0
  8
0
 10
532.29672670848424
 20
88.600316216313189
 30
0.0
 11
530.29672670848436
 21
82.184953143149968
 31
0.0
1001
REVIT
1002
{
1070
     3
1000
476644
1002
}
  0
LINE
  5
2E1
  8
0
 10
530.29672670848436
 20
82.184953143149954
 30
0.0
 11
530.29672670848436
 21
22.219717679845498
 31
0.0
1001
REVIT
1002
{
1070
     3
1000
476644
1002
}
  0
LINE
  5
2E2
  8
0
 10
530.29672670848436
 20
22.21971767984552
 30
0.0
 11
532.29672670848447
 21
15.804354606682059
 31
0.0
1001
REVIT
1002
{
1070
     3
1000
476644
1002
}
  0
LINE
  5
2E3
  8
0
 10
532.29672670848447
 20
15.804354606682059
 30
0.0
 11
532.29672670848447
 21
-14.00000000000014
 31
0.0
1001
REVIT
1002
{
1070
     3
1000
476644
1002
}
  0
ARC
  5
2E4
  8
0
 10
524.5467267084847
 20
-14.000000000000171
 30
0.0
 40
7.7499999999997984
 50
270.0
 51
0.0000000000004071
1001
REVIT
1002
{
1070
     3
1000
476644
1002
}
  0
LINE
  5
2E5
  8
0
 10
524.54672670848458
 20
-21.749999999999972
 30
0.0
 11
503.02905382076011
 21
-21.749999999999972
 31
0.0
1001
REVIT
1002
{
1070
     3
1000
476644
1002
}
  0
ARC
  5
2E6
  8
0
 10
503.02905382076011
 20
-19.000000000000171
 30
0.0
 40
2.7499999999998019
 50
188.79918968087259
 51
270.0
1001
REVIT
1002
{
1070
     3
1000
476644
1002
}
  0
LINE
  5
2E7
  8
0
 10
500.31141982204849
 20
-19.420672615041038
 30
0.0
 11
499.57249016921548
 21
-14.64703089129841
 31
0.0
1001
REVIT
1002
{
1070
     3
1000
476644
1002
}
  0
ARC
  5
2E8
  8
0
 10
502.29012416792659
 20
-14.22635827625761
 30
0.0
 40
2.7499999999992468
 50
130.0950541447589
 51
188.79918968087259
1001
REVIT
1002
{
1070
     3
1000
476644
1002
}
  0
LINE
  5
2E9
  8
0
 10
500.51896577279228
 20
-12.12267152691946
 30
0.0
 11
506.23250785910858
 21
-7.3122652079575232
 31
0.0
1001
REVIT
1002
{
1070
     3
1000
476644
1002
}
  0
ARC
  5
2EA
  8
0
 10
503.50076093329392
 20
-4.0676430295183641
 30
0.0
 40
4.2414637034303961
 50
310.09505414475871
 51
49.904945855237528
1001
REVIT
1002
{
1070
     3
1000
476644
1002
}
  0
LINE
  5
2EB
  8
0
 10
506.23250785910869
 20
-0.8230208510793488
 30
0.0
 11
502.64405759823069
 21
2.1982054826780049
 31
0.0
1001
REVIT
1002
{
1070
     3
1000
476644
1002
}
  0
LINE
  5
2EC
  8
0
 10
502.64405759823069
 20
2.1982054826780049
 30
0.0
 11
501.99999999999977
 21
1.433228482918472
 31
0.0
1001
REVIT
1002
{
1070
     3
1000
476644
1002
}
  0
LINE
  5
2ED
  8
0
 10
501.99999999999977
 20
1.433228482918472
 30
0.0
 11
505.58845026087789
 21
-1.5879978508388459
 31
0.0
1001
REVIT
1002
{
1070
     3
1000
476644
1002
}
  0
ARC
  5
2EE
  8
0
 10
503.50076093329392
 20
-4.0676430295183641
 30
0.0
 40
3.241463703430385
 50
310.09505414475871
 51
49.904945855237798
1001
REVIT
1002
{
1070
     3
1000
476644
1002
}
  0
LINE
  5
2EF
  8
0
 10
505.58845026087772
 20
-6.5472882081979762
 30
0.0
 11
499.87490817456131
 21
-11.3576945271599
 31
0.0
1001
REVIT
1002
{
1070
     3
1000
476644
1002
}
  0
ARC
  5
2F0
  8
0
 10
502.29012416792659
 20
-14.226358276257629
 30
0.0
 40
3.749999999999313
 50
130.0950541447589
 51
188.79918968087179
1001
REVIT
1002
{
1070
     3
1000
476644
1002
}
  0
LINE
  5
2F1
  8
0
 10
498.58425962422928
 20
-14.800002751313279
 30
0.0
 11
499.32318927706228
 21
-19.573644475055939
 31
0.0
1001
REVIT
1002
{
1070
     3
1000
476644
1002
}
  0
ARC
  5
2F2
  8
0
 10
503.02905382076011
 20
-19.000000000000149
 30
0.0
 40
3.749999999999829
 50
188.79918968087259
 51
270.0
1001
REVIT
1002
{
1070
     3
1000
476644
1002
}
  0
LINE
  5
2F3
  8
0
 10
503.02905382076011
 20
-22.749999999999972
 30
0.0
 11
524.54672670848458
 21
-22.749999999999972
 31
0.0
1001
REVIT
1002
{
1070
     3
1000
476644
1002
}
  0
ARC
  5
2F4
  8
0
 10
524.54672670848458
 20
-14.00000000000014
 30
0.0
 40
8.7499999999998277
 50
270.0
 51
0.0
1001
REVIT
1002
{
1070
     3
1000
476644
1002
}
  0
LINE
  5
2F5
  8
0
 10
533.29672670848436
 20
-14.00000000000014
 30
0.0
 11
533.29672670848436
 21
15.956616647026481
 31
0.0
1001
REVIT
1002
{
1070
     3
1000
476644
1002
}
  0
LINE
  5
2F6
  8
0
 10
533.29672670848436
 20
15.9566166470265
 30
0.0
 11
531.29672670848436
 21
22.371979720189959
 31
0.0
1001
REVIT
1002
{
1070
     3
1000
476644
1002
}
  0
LINE
  5
2F7
  8
0
 10
531.29672670848436
 20
22.371979720189959
 30
0.0
 11
531.29672670848436
 21
82.032691102805543
 31
0.0
1001
REVIT
1002
{
1070
     3
1000
476644
1002
}
  0
LINE
  5
2F8
  8
0
 10
531.29672670848436
 20
82.032691102805529
 30
0.0
 11
533.29672670848436
 21
88.448054175968764
 31
0.0
1001
REVIT
1002
{
1070
     3
1000
476644
1002
}
  0
LINE
  5
2F9
  8
0
 10
533.29672670848436
 20
88.448054175968764
 30
0.0
 11
533.29672670848436
 21
105.0882236182438
 31
0.0
1001
REVIT
1002
{
1070
     3
1000
476644
1002
}
  0
LINE
  5
2FA
  8
0
 10
533.29672670848436
 20
106.0882236182438
 30
0.0
 11
533.29672670848436
 21
122.4999999999999
 31
0.0
1001
REVIT
1002
{
1070
     3
1000
476644
1002
}
  0
ARC
  5
2FB
  8
0
 10
528.54672670848424
 20
122.4999999999999
 30
0.0
 40
4.7500000000001341
 50
359.9999999999996
 51
97.290079331027357
1001
REVIT
1002
{
1070
     3
1000
476644
1002
}
  0
LINE
  5
2FC
  8
0
 10
527.9439856148216
 20
127.2116030365482
 30
0.0
 11
513.78329602289182
 21
125.4000689439158
 31
0.0
1001
REVIT
1002
{
1070
     3
1000
476644
1002
}
  0
ARC
  5
2FD
  8
0
 10
514.38603711655435
 20
120.6884659073683
 30
0.0
 40
4.7499999999993356
 50
97.290079331027357
 51
155.65010040828221
1001
REVIT
1002
{
1070
     3
1000
476644
1002
}
  0
LINE
  5
2FE
  8
0
 10
510.0585755602325
 20
122.64692869193949
 30
0.0
 11
500.96728635695831
 21
102.5586202315942
 31
0.0
1001
REVIT
1002
{
1070
     3
1000
476644
1002
}
  0
LINE
  5
2FF
  8
0
 10
507.53322748789122
 20
74.582483376572753
 30
0.0
 11
502.00491993538168
 21
73.343853493734088
 31
0.0
1001
REVIT
1002
{
1070
     3
1000
211597
1002
}
  0
ARC
  5
300
  8
0
 10
506.65870000628871
 20
78.485713024431519
 30
0.0
 40
4.0000000000001821
 50
282.62868886850868
 51
358.64091467694709
1001
REVIT
1002
{
1070
     3
1000
211597
1002
}
  0
LINE
  5
301
  8
0
 10
512.55631321563851
 20
117.1410765066106
 30
0.0
 11
510.65757473351221
 21
78.39083986713662
 31
0.0
1001
REVIT
1002
{
1070
     3
1000
211597
1002
}
  0
ARC
  5
302
  8
0
 10
520.54672670848436
 20
116.749551011473
 30
0.0
 40
7.9999999999999609
 50
359.9999999999996
 51
177.1947845960012
1001
REVIT
1002
{
1070
     3
1000
211597
1002
}
  0
LINE
  5
303
  8
0
 10
528.54672670848436
 20
27.227690912111719
 30
0.0
 11
528.54672670848436
 21
105.0882236182438
 31
0.0
1001
REVIT
1002
{
1070
     3
1000
211597
1002
}
  0
LINE
  5
304
  8
0
 10
528.54672670848436
 20
106.0882236182438
 30
0.0
 11
528.54672670848436
 21
116.749551011473
 31
0.0
1001
REVIT
1002
{
1070
     3
1000
211597
1002
}
  0
ARC
  5
305
  8
0
 10
518.54672670848436
 20
27.227690912111719
 30
0.0
 40
10.00000000000005
 50
338.13781969887839
 51
0.0
1001
REVIT
1002
{
1070
     3
1000
211597
1002
}
  0
LINE
  5
306
  8
0
 10
519.52363189082689
 20
2.8078309159235602
 30
0.0
 11
527.82754923728157
 21
23.50393834393924
 31
0.0
1001
REVIT
1002
{
1070
     3
1000
211597
1002
}
  0
ARC
  5
307
  8
0
 10
510.24280936202888
 20
6.5315834840963731
 30
0.0
 40
10.00000000000094
 50
258.04551126001581
 51
338.13781969887839
1001
REVIT
1002
{
1070
     3
1000
211597
1002
}
  0
LINE
  5
308
  8
0
 10
496.27172670848381
 20
157.2500000000004
 30
0.0
 11
496.5718631673742
 21
156.50000000000031
 31
0.0
  0
LINE
  5
309
  8
0
 10
496.5718631673742
 20
156.50000000000031
 30
0.0
 11
497.77172670848557
 21
156.50000000000031
 31
0.0
  0
LINE
  5
30A
  8
0
 10
497.77172670848557
 20
156.50000000000031
 30
0.0
 11
497.77172670848557
 21
132.50000000000031
 31
0.0
  0
LINE
  5
30B
  8
0
 10
497.77172670848557
 20
132.50000000000031
 30
0.0
 11
496.58004315773121
 21
132.50000000000031
 31
0.0
  0
LINE
  5
30C
  8
0
 10
496.58004315773121
 20
132.50000000000031
 30
0.0
 11
496.27990669884082
 21
131.75000000000031
 31
0.0
  0
LINE
  5
30D
  8
0
 10
496.27990669884082
 20
131.75000000000031
 30
0.0
 11
500.26354671812811
 21
131.75000000000031
 31
0.0
  0
LINE
  5
30E
  8
0
 10
500.26354671812811
 20
131.75000000000031
 30
0.0
 11
499.96341025923959
 21
132.50000000000031
 31
0.0
  0
LINE
  5
30F
  8
0
 10
499.96341025923959
 20
132.50000000000031
 30
0.0
 11
498.77172670848557
 21
132.50000000000031
 31
0.0
  0
LINE
  5
310
  8
0
 10
498.77172670848557
 20
132.50000000000031
 30
0.0
 11
498.77172670848557
 21
156.50000000000031
 31
0.0
  0
LINE
  5
311
  8
0
 10
498.77172670848557
 20
156.50000000000031
 30
0.0
 11
499.9715902495966
 21
156.50000000000031
 31
0.0
  0
LINE
  5
312
  8
0
 10
499.9715902495966
 20
156.50000000000031
 30
0.0
 11
500.27172670848512
 21
157.2500000000004
 31
0.0
  0
LINE
  5
313
  8
0
 10
500.27172670848512
 20
157.2500000000004
 30
0.0
 11
496.27172670848381
 21
157.2500000000004
 31
0.0
  0
LINE
  5
314
  8
0
 10
453.27172670848438
 20
138.5000000000002
 30
0.0
 11
493.27172670848461
 21
138.5000000000002
 31
0.0
1001
REVIT
1002
{
1070
     3
1000
211597
1002
}
  0
LINE
  5
315
  8
0
 10
453.27172670848438
 20
138.5000000000002
 30
0.0
 11
453.27172670848449
 21
150.5000000000002
 31
0.0
1001
REVIT
1002
{
1070
     3
1000
211597
1002
}
  0
LINE
  5
316
  8
0
 10
493.27172670848449
 20
138.5000000000002
 30
0.0
 11
493.27172670848461
 21
150.5000000000002
 31
0.0
1001
REVIT
1002
{
1070
     3
1000
211597
1002
}
  0
LINE
  5
317
  8
0
 10
453.27172670848449
 20
150.5000000000002
 30
0.0
 11
493.27172670848461
 21
150.5000000000002
 31
0.0
1001
REVIT
1002
{
1070
     3
1000
211597
1002
}
  0
INSERT
  5
318
  8
0
  6
CONTINUOUS
  2
*U47
 10
0.0
 20
0.0
 30
0.0
1001
ACAD
1002
{
1000
R14_HATCH_DATA
1000
318
1011
1.0
1021
0.0
1031
0.0
1021
0.0
1031
0.0
1011
0.0
1021
0.0
1031
0.0
1021
1.0
1031
0.0
1011
0.0
1021
0.0
1031
0.0
1021
0.0
1031
1.0
1040
0.0
1010
0.0
1020
0.0
1030
1.0
1000
SOLID
1070
     1
1070
     0
1071
        2
1071
        0
1071
        6
1070
     1
1040
538.58578643762712
1040
129.9142135623735
1040
539.29289321881356
1040
130.62132034355989
1070
     1
1040
539.29289321881367
1040
130.62132034355989
1040
535.41421356237322
1040
134.50000000000051
1070
     1
1040
535.41421356237311
1040
134.50000000000051
1040
498.77172670848609
1040
134.50000000000051
1070
     1
1040
498.7717267084862
1040
134.50000000000051
1040
498.7717267084862
1040
133.50000000000051
1070
     1
1040
498.7717267084862
1040
133.50000000000051
1040
535.0
1040
133.50000000000051
1070
     1
1040
535.0
1040
133.5000000000004
1040
538.58578643762712
1040
129.9142135623735
1071
        0
1071
        0
1071
        5
1070
     1
1040
497.7717267084862
1040
133.50000000000051
1040
497.7717267084862
1040
134.5000000000006
1070
     1
1040
497.7717267084862
1040
134.50000000000051
1040
-220.00000000000091
1040
134.5000000000029
1070
     1
1040
-220.00000000000091
1040
134.5000000000029
1040
-220.00000000000091
1040
133.50000000000301
1070
     1
1040
-220.00000000000091
1040
133.50000000000301
1040
449.51909402275061
1040
133.50000000000071
1070
     1
1040
449.51909402275061
1040
133.50000000000071
1040
497.77172670848631
1040
133.50000000000051
1071
        0
1070
     0
1070
     1
1071
        1
1040
379.03870023704019
1040
133.5000000000027
1040
0.0
1002
}
  0
LINE
  5
319
  8
0
 10
538.58578643762644
 20
129.91421356237319
 30
0.0
 11
539.29289321881288
 21
130.62132034355969
 31
0.0
1001
REVIT
1002
{
1070
     3
1000
476644
1002
}
  0
LINE
  5
31A
  8
0
 10
539.29289321881288
 20
130.62132034355969
 30
0.0
 11
535.41421356237254
 21
134.5000000000002
 31
0.0
1001
REVIT
1002
{
1070
     3
1000
476644
1002
}
  0
LINE
  5
31B
  8
0
 10
535.41421356237242
 20
134.5000000000002
 30
0.0
 11
498.77172670848557
 21
134.50000000000031
 31
0.0
1001
REVIT
1002
{
1070
     3
1000
476644
1002
}
  0
LINE
  5
31C
  8
0
 10
497.77172670848557
 20
134.50000000000031
 30
0.0
 11
-220.0000000000006
 21
134.5000000000027
 31
0.0
1001
REVIT
1002
{
1070
     3
1000
476644
1002
}
  0
LINE
  5
31D
  8
0
 10
-220.0000000000006
 20
134.5000000000027
 30
0.0
 11
-220.0000000000006
 21
133.5000000000027
 31
0.0
1001
REVIT
1002
{
1070
     3
1000
476644
1002
}
  0
LINE
  5
31E
  8
0
 10
-220.0000000000006
 20
133.5000000000027
 30
0.0
 11
497.7717267084854
 21
133.50000000000031
 31
0.0
1001
REVIT
1002
{
1070
     3
1000
476644
1002
}
  0
LINE
  5
31F
  8
0
 10
498.77172670848552
 20
133.50000000000031
 30
0.0
 11
534.99999999999943
 21
133.5000000000002
 31
0.0
1001
REVIT
1002
{
1070
     3
1000
476644
1002
}
  0
LINE
  5
320
  8
0
 10
534.99999999999943
 20
133.5000000000002
 30
0.0
 11
538.58578643762644
 21
129.91421356237319
 31
0.0
1001
REVIT
1002
{
1070
     3
1000
476644
1002
}
  0
LINE
  5
321
  8
0
  6
DASH
 10
498.99999999999989
 20
102.5000000000004
 30
0.0
 11
-220.1716295302468
 21
102.5000000000005
 31
0.0
1001
REVIT
1002
{
1070
     3
1000
217411
1002
}
  0
LINE
  5
322
  8
0
  6
DASH
 10
499.0
 20
130.5000000000004
 30
0.0
 11
498.99999999999989
 21
102.5000000000004
 31
0.0
1001
REVIT
1002
{
1070
     3
1000
217411
1002
}
  0
LINE
  5
323
  8
0
 10
504.33333333333451
 20
-7.0000000000004361
 30
0.0
 11
504.33333333333451
 21
-1.00000000000027
 31
0.0
1001
REVIT
1002
{
1070
     3
1000
211597
1002
}
  0
LINE
  5
324
  8
0
 10
504.33333333333451
 20
-1.00000000000027
 30
0.0
 11
5.3082411351715564
 21
-1.00000000000027
 31
0.0
1001
REVIT
1002
{
1070
     3
1000
211597
1002
}
  0
LINE
  5
325
  8
0
 10
5.3082411351715564
 20
-1.00000000000027
 30
0.0
 11
5.3082411351715564
 21
-7.0000000000004361
 31
0.0
1001
REVIT
1002
{
1070
     3
1000
211597
1002
}
  0
LINE
  5
326
  8
0
 10
5.3082411351715564
 20
-7.0000000000004361
 30
0.0
 11
504.33333333333451
 21
-7.0000000000004361
 31
0.0
1001
REVIT
1002
{
1070
     3
1000
211597
1002
}
  0
LINE
  5
327
  8
0
 10
496.0000000000004
 20
105.5000000000029
 30
0.0
 11
496.0000000000004
 21
130.5000000000031
 31
0.0
1001
REVIT
1002
{
1070
     3
1000
211597
1002
}
  0
LINE
  5
328
  8
0
 10
496.0000000000004
 20
130.5000000000031
 30
0.0
 11
-220.17162953024669
 21
130.5000000000031
 31
0.0
1001
REVIT
1002
{
1070
     3
1000
211597
1002
}
  0
LINE
  5
329
  8
0
 10
-220.17162953024669
 20
105.5000000000029
 30
0.0
 11
496.0000000000004
 21
105.5000000000029
 31
0.0
1001
REVIT
1002
{
1070
     3
1000
211597
1002
}
  0
INSERT
  5
32A
  8
0
  6
CONTINUOUS
  2
*U48
 10
0.0
 20
0.0
 30
0.0
1001
ACAD
1002
{
1000
R14_HATCH_DATA
1000
32A
1011
1.0
1021
0.0
1031
0.0
1021
0.0
1031
0.0
1011
0.0
1021
0.0
1031
0.0
1021
1.0
1031
0.0
1011
0.0
1021
0.0
1031
0.0
1021
0.0
1031
1.0
1040
0.0
1010
0.0
1020
0.0
1030
1.0
1000
SOLID
1070
     1
1070
     0
1071
        3
1071
        0
1071
        6
1070
     1
1040
540.29672670848515
1040
73.737202308322964
1040
541.24060832560315
1040
74.067486266254292
1070
     1
1040
541.24060832560315
1040
74.067486266254292
1040
537.29672670848493
1040
85.338264846611153
1070
     1
1040
537.29672670848493
1040
85.338264846611153
1040
537.29672670848493
1040
105.0882236182439
1070
     1
1040
537.29672670848493
1040
105.0882236182439
1040
536.29672670848504
1040
105.0882236182439
1070
     1
1040
536.29672670848504
1040
105.0882236182439
1040
536.29672670848504
1040
85.168355344395124
1070
     1
1040
536.29672670848504
1040
85.168355344395124
1040
540.29672670848504
1040
73.737202308322964
1071
        0
1071
        0
1071
       11
1070
     1
1040
537.29672670848493
1040
106.0882236182439
1040
537.29672670848493
1040
124.5000000000005
1070
     1
1040
537.29672670848493
1040
124.5000000000005
1040
559.0717267084849
1040
124.5000000000005
1070
     1
1040
559.0717267084849
1040
124.5000000000005
1040
559.0717267084849
1040
155.50000000000051
1070
     1
1040
559.0717267084849
1040
155.50000000000051
1040
498.77172670848609
1040
155.50000000000051
1070
     1
1040
498.77172670848609
1040
155.50000000000051
1040
498.77172670848609
1040
154.50000000000051
1070
     1
1040
498.77172670848609
1040
154.50000000000051
1040
558.07172670848513
1040
154.50000000000051
1070
     1
1040
558.07172670848513
1040
154.50000000000051
1040
558.07172670848513
1040
125.5000000000005
1070
     1
1040
558.07172670848513
1040
125.5000000000005
1040
536.29672670848504
1040
125.5000000000005
1070
     1
1040
536.29672670848504
1040
125.5000000000005
1040
536.29672670848504
1040
106.0882236182439
1070
     1
1040
536.29672670848504
1040
106.0882236182439
1040
536.82861060139169
1040
106.0882236182439
1070
     1
1040
536.82861060139169
1040
106.0882236182439
1040
537.29672670848504
1040
106.0882236182439
1071
        0
1071
        0
1071
        4
1070
     1
1040
497.7717267084862
1040
154.50000000000051
1040
497.7717267084862
1040
155.50000000000051
1070
     1
1040
497.7717267084862
1040
155.50000000000051
1040
445.29672670848493
1040
155.50000000000051
1070
     1
1040
445.29672670848493
1040
155.50000000000051
1040
445.29672670848493
1040
154.50000000000051
1070
     1
1040
445.29672670848493
1040
154.50000000000051
1040
497.7717267084862
1040
154.50000000000051
1071
        0
1070
     0
1070
     1
1071
        1
1040
558.07172670848445
1040
154.50000000000011
1040
0.0
1002
}
  0
LINE
  5
32B
  8
0
 10
445.29672670848453
 20
155.50000000000031
 30
0.0
 11
445.29672670848453
 21
154.50000000000031
 31
0.0
1001
REVIT
1002
{
1070
     3
1000
476644
1002
}
  0
LINE
  5
32C
  8
0
 10
445.29672670848453
 20
154.50000000000031
 30
0.0
 11
497.77172670848557
 21
154.50000000000031
 31
0.0
1001
REVIT
1002
{
1070
     3
1000
476644
1002
}
  0
LINE
  5
32D
  8
0
 10
498.77172670848557
 20
154.50000000000031
 30
0.0
 11
558.07172670848445
 21
154.50000000000031
 31
0.0
1001
REVIT
1002
{
1070
     3
1000
476644
1002
}
  0
LINE
  5
32E
  8
0
 10
558.07172670848445
 20
154.50000000000031
 30
0.0
 11
558.07172670848445
 21
125.5000000000003
 31
0.0
1001
REVIT
1002
{
1070
     3
1000
476644
1002
}
  0
LINE
  5
32F
  8
0
 10
558.07172670848445
 20
125.5000000000003
 30
0.0
 11
536.29672670848447
 21
125.5000000000003
 31
0.0
1001
REVIT
1002
{
1070
     3
1000
476644
1002
}
  0
LINE
  5
330
  8
0
 10
536.29672670848447
 20
125.5000000000003
 30
0.0
 11
536.29672670848447
 21
106.0882236182438
 31
0.0
1001
REVIT
1002
{
1070
     3
1000
476644
1002
}
  0
LINE
  5
331
  8
0
 10
536.29672670848447
 20
105.0882236182438
 30
0.0
 11
536.29672670848447
 21
85.168355344395081
 31
0.0
1001
REVIT
1002
{
1070
     3
1000
476644
1002
}
  0
LINE
  5
332
  8
0
 10
536.29672670848447
 20
85.168355344395081
 30
0.0
 11
540.29672670848458
 21
73.737202308322907
 31
0.0
1001
REVIT
1002
{
1070
     3
1000
476644
1002
}
  0
LINE
  5
333
  8
0
 10
540.29672670848458
 20
73.737202308322907
 30
0.0
 11
541.24060832560247
 21
74.067486266254193
 31
0.0
1001
REVIT
1002
{
1070
     3
1000
476644
1002
}
  0
LINE
  5
334
  8
0
 10
541.24060832560247
 20
74.067486266254193
 30
0.0
 11
537.29672670848436
 21
85.338264846611025
 31
0.0
1001
REVIT
1002
{
1070
     3
1000
476644
1002
}
  0
LINE
  5
335
  8
0
 10
537.29672670848436
 20
85.338264846611025
 30
0.0
 11
537.29672670848436
 21
105.0882236182438
 31
0.0
1001
REVIT
1002
{
1070
     3
1000
476644
1002
}
  0
LINE
  5
336
  8
0
 10
537.29672670848436
 20
106.0882236182438
 30
0.0
 11
537.29672670848436
 21
124.5000000000003
 31
0.0
1001
REVIT
1002
{
1070
     3
1000
476644
1002
}
  0
LINE
  5
337
  8
0
 10
537.29672670848436
 20
124.5000000000003
 30
0.0
 11
559.07172670848445
 21
124.5000000000003
 31
0.0
1001
REVIT
1002
{
1070
     3
1000
476644
1002
}
  0
LINE
  5
338
  8
0
 10
559.07172670848445
 20
124.5000000000003
 30
0.0
 11
559.07172670848445
 21
155.50000000000031
 31
0.0
1001
REVIT
1002
{
1070
     3
1000
476644
1002
}
  0
LINE
  5
339
  8
0
 10
559.07172670848445
 20
155.50000000000031
 30
0.0
 11
498.77172670848557
 21
155.50000000000031
 31
0.0
1001
REVIT
1002
{
1070
     3
1000
476644
1002
}
  0
LINE
  5
33A
  8
0
 10
497.77172670848557
 20
155.50000000000031
 30
0.0
 11
445.29672670848453
 21
155.50000000000031
 31
0.0
1001
REVIT
1002
{
1070
     3
1000
476644
1002
}
  0
VIEWPORT
  5
286
 67
     1
  8
0
 10
128.5
 20
97.5
 30
0.0
 40
625.60341753343243
 41
222.18000000000001
 68
     1
 69
     1
1001
ACAD
1000
MVIEW
1002
{
1070
    16
1010
0.0
1020
0.0
1030
0.0
1010
0.0
1020
0.0
1030
1.0
1040
0.0
1040
222.18000000000001
1040
128.5
1040
97.5
1040
50.0
1040
0.0
1040
0.0
1070
     0
1070
   100
1070
     1
1070
     1
1070
     0
1070
     0
1070
     0
1070
     0
1040
0.0
1040
0.0
1040
0.0
1040
10.0
1040
10.0
1040
10.0
1040
10.0
1070
     0
1002
{
1002
}
1002
}
  0
VIEWPORT
  5
28A
 67
     1
  8
0
 10
128.5
 20
97.5
 30
0.0
 40
205.59999999999999
 41
156.0
 68
     2
 69
     2
1001
ACAD
1000
MVIEW
1002
{
1070
    16
1010
0.0
1020
0.0
1030
0.0
1010
0.0
1020
0.0
1030
1.0
1040
0.0
1040
943.97932954912255
1040
247.48111354749591
1040
16.520726603497049
1040
50.0
1040
0.0
1040
0.0
1070
     0
1070
  1000
1070
     1
1070
     1
1070
     0
1070
     0
1070
     0
1070
     0
1040
0.0
1040
0.0
1040
0.0
1040
1.0
1040
1.0
1040
0.0
1040
0.0
1070
     0
1002
{
1002
}
1002
}
  0
ENDSEC
  0
EOF
