  0
SECTION
  2
HEADER
  9
$ACADVER
  1
AC1009
  9
$INSBASE
 10
0.0
 20
0.0
 30
0.0
  9
$EXTMIN
 10
-280.49937484784959
 20
-280.99170538482861
 30
0.0
  9
$EXTMAX
 10
832.89932945596956
 20
335.75807100674848
 30
0.0
  9
$LIMMIN
 10
0.0
 20
0.0
  9
$LIMMAX
 10
12.0
 20
9.0
  9
$ORTHOMODE
 70
     0
  9
$REGENMODE
 70
     1
  9
$FILLMODE
 70
     1
  9
$QTEXTMODE
 70
     0
  9
$MIRRTEXT
 70
     0
  9
$DRAGMODE
 70
     2
  9
$LTSCALE
 40
1.0
  9
$OSMODE
 70
     0
  9
$ATTMODE
 70
     1
  9
$TEXTSIZE
 40
0.2
  9
$TRACEWID
 40
0.05
  9
$TEXTSTYLE
  7
STANDARD
  9
$CLAYER
  8
0
  9
$CELTYPE
  6
BYLAYER
  9
$CECOLOR
 62
   256
  9
$DIMSCALE
 40
1.0
  9
$DIMASZ
 40
0.18
  9
$DIMEXO
 40
0.0625
  9
$DIMDLI
 40
0.38
  9
$DIMRND
 40
0.0
  9
$DIMDLE
 40
0.0
  9
$DIMEXE
 40
0.18
  9
$DIMTP
 40
0.0
  9
$DIMTM
 40
0.0
  9
$DIMTXT
 40
0.18
  9
$DIMCEN
 40
0.09
  9
$DIMTSZ
 40
0.0
  9
$DIMTOL
 70
     0
  9
$DIMLIM
 70
     0
  9
$DIMTIH
 70
     1
  9
$DIMTOH
 70
     1
  9
$DIMSE1
 70
     0
  9
$DIMSE2
 70
     0
  9
$DIMTAD
 70
     0
  9
$DIMZIN
 70
     0
  9
$DIMBLK
  1

  9
$DIMASO
 70
     1
  9
$DIMSHO
 70
     1
  9
$DIMPOST
  1

  9
$DIMAPOST
  1

  9
$DIMALT
 70
     0
  9
$DIMALTD
 70
     2
  9
$DIMALTF
 40
25.399999999999999
  9
$DIMLFAC
 40
1.0
  9
$DIMTOFL
 70
     0
  9
$DIMTVP
 40
0.0
  9
$DIMTIX
 70
     0
  9
$DIMSOXD
 70
     0
  9
$DIMSAH
 70
     0
  9
$DIMBLK1
  1

  9
$DIMBLK2
  1

  9
$DIMSTYLE
  2
STANDARD
  9
$DIMCLRD
 70
     0
  9
$DIMCLRE
 70
     0
  9
$DIMCLRT
 70
     0
  9
$DIMTFAC
 40
1.0
  9
$DIMGAP
 40
0.09
  9
$LUNITS
 70
     2
  9
$LUPREC
 70
     4
  9
$SKETCHINC
 40
0.1
  9
$FILLETRAD
 40
0.0
  9
$AUNITS
 70
     0
  9
$AUPREC
 70
     0
  9
$MENU
  1
.
  9
$ELEVATION
 40
0.0
  9
$PELEVATION
 40
0.0
  9
$THICKNESS
 40
0.0
  9
$LIMCHECK
 70
     0
  9
$BLIPMODE
 70
     0
  9
$CHAMFERA
 40
0.0
  9
$CHAMFERB
 40
0.0
  9
$SKPOLY
 70
     0
  9
$TDCREATE
 40
2458206.626643518
  9
$TDUPDATE
 40
2458206.6463601971
  9
$TDINDWG
 40
0.0001027199
  9
$TDUSRTIMER
 40
0.0001027199
  9
$USRTIMER
 70
     1
  9
$ANGBASE
 50
0.0
  9
$ANGDIR
 70
     0
  9
$PDMODE
 70
     0
  9
$PDSIZE
 40
0.0
  9
$PLINEWID
 40
0.0
  9
$COORDS
 70
     2
  9
$SPLFRAME
 70
     0
  9
$SPLINETYPE
 70
     6
  9
$SPLINESEGS
 70
     8
  9
$ATTDIA
 70
     1
  9
$ATTREQ
 70
     0
  9
$HANDLING
 70
     1
  9
$HANDSEED
  5
670
  9
$SURFTAB1
 70
     6
  9
$SURFTAB2
 70
     6
  9
$SURFTYPE
 70
     6
  9
$SURFU
 70
     6
  9
$SURFV
 70
     6
  9
$UCSNAME
  2

  9
$UCSORG
 10
0.0
 20
0.0
 30
0.0
  9
$UCSXDIR
 10
1.0
 20
0.0
 30
0.0
  9
$UCSYDIR
 10
0.0
 20
1.0
 30
0.0
  9
$PUCSNAME
  2

  9
$PUCSORG
 10
0.0
 20
0.0
 30
0.0
  9
$PUCSXDIR
 10
1.0
 20
0.0
 30
0.0
  9
$PUCSYDIR
 10
0.0
 20
1.0
 30
0.0
  9
$USERI1
 70
     0
  9
$USERI2
 70
     0
  9
$USERI3
 70
     0
  9
$USERI4
 70
     0
  9
$USERI5
 70
     0
  9
$USERR1
 40
0.0
  9
$USERR2
 40
0.0
  9
$USERR3
 40
0.0
  9
$USERR4
 40
0.0
  9
$USERR5
 40
0.0
  9
$WORLDVIEW
 70
     1
  9
$SHADEDGE
 70
     3
  9
$SHADEDIF
 70
    70
  9
$TILEMODE
 70
     1
  9
$MAXACTVP
 70
    64
  9
$PLIMCHECK
 70
     0
  9
$PEXTMIN
 10
25.699999999999989
 20
19.5
 30
0.0
  9
$PEXTMAX
 10
231.30000000000001
 20
175.5
 30
0.0
  9
$PLIMMIN
 10
-20.0
 20
-7.5
  9
$PLIMMAX
 10
277.0
 20
202.5
  9
$UNITMODE
 70
     0
  9
$VISRETAIN
 70
     1
  9
$PLINEGEN
 70
     0
  9
$PSLTSCALE
 70
     1
  0
ENDSEC
  0
SECTION
  2
TABLES
  0
TABLE
  2
VPORT
 70
     1
  0
VPORT
  2
*ACTIVE
 70
     0
 10
0.0
 20
0.0
 11
1.0
 21
1.0
 12
577.43193441924257
 22
25.49596134665796
 13
0.0
 23
0.0
 14
1.0
 24
1.0
 15
0.0
 25
0.0
 16
0.0
 26
0.0
 36
1.0
 17
0.0
 27
0.0
 37
0.0
 40
613.90757539112246
 41
2.7949852507374628
 42
50.0
 43
0.0
 44
0.0
 50
0.0
 51
0.0
 71
     0
 72
  1000
 73
     1
 74
     1
 75
     0
 76
     0
 77
     0
 78
     0
  0
ENDTAB
  0
TABLE
  2
LTYPE
 70
     2
  0
LTYPE
  2
CONTINUOUS
 70
     0
  3
Solid line
 72
    65
 73
     0
 40
0.0
  0
LTYPE
  2
DASH
 70
     0
  3

 72
    65
 73
     2
 40
6.3499999999999996
 49
3.1749999999999998
 49
-3.1749999999999998
  0
ENDTAB
  0
TABLE
  2
LAYER
 70
     7
  0
LAYER
  2
0
 70
     0
 62
     7
  6
CONTINUOUS
  0
ENDTAB
  0
TABLE
  2
STYLE
 70
     8
  0
STYLE
  2
STANDARD
 70
     0
 40
0.0
 41
1.0
 50
0.0
 71
     0
 42
0.2
  3
txt
  4

  0
STYLE
  2
ARIAL
 70
     0
 40
12.5
 41
1.0
 50
0.0
 71
     0
 42
0.2
  3
txt
  4

  0
ENDTAB
  0
TABLE
  2
VIEW
 70
     1
  0
ENDTAB
  0
TABLE
  2
UCS
 70
     0
  0
ENDTAB
  0
TABLE
  2
APPID
 70
     6
  0
APPID
  2
ACAD
 70
     0
  0
APPID
  2
ACADANNOTATIVE
 70
     0
  0
APPID
  2
REVIT
 70
     0
  0
APPID
  2
ACAD_PSEXT
 70
     0
  0
APPID
  2
ACAD_NAV_VCDISPLAY
 70
     0
  0
APPID
  2
ACAD_MLEADERVER
 70
     0
  0
ENDTAB
  0
TABLE
  2
DIMSTYLE
 70
     2
  0
DIMSTYLE
  2
STANDARD
 70
     0
  3

  4

  5

  6

  7

 40
1.0
 41
0.18
 42
0.0625
 43
0.38
 44
0.18
 45
0.0
 46
0.0
 47
0.0
 48
0.0
140
0.18
141
0.09
142
0.0
143
25.399999999999999
144
1.0
145
0.0
146
1.0
147
0.09
 71
     0
 72
     0
 73
     1
 74
     1
 75
     0
 76
     0
 77
     0
 78
     0
170
     0
171
     2
172
     0
173
     0
174
     0
175
     0
176
     0
177
     0
178
     0
  0
ENDTAB
  0
ENDSEC
  0
SECTION
  2
BLOCKS
  0
BLOCK
  8
0
  2
$MODEL_SPACE
 70
     0
 10
0.0
 20
0.0
 30
0.0
  3
$MODEL_SPACE
  1

  0
ENDBLK
  5
72
  8
0
  0
BLOCK
 67
     1
  8
0
  2
$PAPER_SPACE
 70
     0
 10
0.0
 20
0.0
 30
0.0
  3
$PAPER_SPACE
  1

  0
ENDBLK
  5
76
 67
     1
  8
0
  0
BLOCK
  8
0
  2
*U22
 70
     1
 10
0.0
 20
0.0
 30
0.0
  3
*U22
  1

  0
SOLID
  5
396
  8
0
  6
CONTINUOUS
 10
16.483701512987839
 20
122.9080480157685
 30
0.0
 11
15.52699293207511
 21
122.7177468470467
 31
0.0
 12
17.44041009390056
 22
122.7177468470467
 32
0.0
 13
17.44041009390056
 23
122.7177468470467
 33
0.0
210
0.0
220
0.0
230
1.0
  0
SOLID
  5
397
  8
0
  6
CONTINUOUS
 10
15.52699293207511
 20
122.7177468470467
 30
0.0
 11
14.71593456002147
 21
122.1758149687349
 31
0.0
 12
18.251468465954211
 22
122.1758149687349
 32
0.0
 13
18.251468465954211
 23
122.1758149687349
 33
0.0
210
0.0
220
0.0
230
1.0
  0
SOLID
  5
398
  8
0
  6
CONTINUOUS
 10
-15.52699293207511
 20
122.7177468470467
 30
0.0
 11
-17.44041009390056
 21
122.7177468470467
 31
0.0
 12
-18.251468465954211
 22
122.1758149687349
 32
0.0
 13
-18.251468465954211
 23
122.1758149687349
 33
0.0
210
0.0
220
0.0
230
-1.0
  0
SOLID
  5
399
  8
0
  6
CONTINUOUS
 10
14.71593456002147
 20
122.1758149687349
 30
0.0
 11
14.17400268170962
 21
121.3647565966812
 31
0.0
 12
18.793400344266072
 22
121.3647565966812
 32
0.0
 13
18.793400344266072
 23
121.3647565966812
 33
0.0
  0
SOLID
  5
39A
  8
0
  6
CONTINUOUS
 10
-14.71593456002147
 20
122.1758149687349
 30
0.0
 11
-18.251468465954211
 21
122.1758149687349
 31
0.0
 12
-18.793400344266072
 22
121.3647565966812
 32
0.0
 13
-18.793400344266072
 23
121.3647565966812
 33
0.0
210
0.0
220
0.0
230
-1.0
  0
SOLID
  5
39B
  8
0
  6
CONTINUOUS
 10
14.17400268170962
 20
121.3647565966812
 30
0.0
 11
13.983701512987841
 21
120.4080480157685
 31
0.0
 12
18.983701512987839
 22
120.4080480157685
 32
0.0
 13
18.983701512987839
 23
120.4080480157685
 33
0.0
210
0.0
220
0.0
230
1.0
  0
SOLID
  5
39C
  8
0
  6
CONTINUOUS
 10
-14.17400268170962
 20
121.3647565966812
 30
0.0
 11
-18.793400344266061
 21
121.3647565966812
 31
0.0
 12
-18.983701512987839
 22
120.4080480157685
 32
0.0
 13
-18.983701512987839
 23
120.4080480157685
 33
0.0
210
0.0
220
0.0
230
-1.0
  0
SOLID
  5
39D
  8
0
  6
CONTINUOUS
 10
13.983701512987841
 20
120.4080480157685
 30
0.0
 11
14.17400268170962
 21
119.4513394348558
 31
0.0
 12
18.79340034426605
 22
119.4513394348558
 32
0.0
 13
18.79340034426605
 23
119.4513394348558
 33
0.0
210
0.0
220
0.0
230
1.0
  0
SOLID
  5
39E
  8
0
  6
CONTINUOUS
 10
-13.983701512987841
 20
120.4080480157685
 30
0.0
 11
-18.983701512987839
 21
120.4080480157685
 31
0.0
 12
-18.79340034426605
 22
119.4513394348558
 32
0.0
 13
-18.79340034426605
 23
119.4513394348558
 33
0.0
210
0.0
220
0.0
230
-1.0
  0
SOLID
  5
39F
  8
0
  6
CONTINUOUS
 10
14.17400268170962
 20
119.4513394348558
 30
0.0
 11
14.71593456002147
 21
118.6402810628022
 31
0.0
 12
18.251468465954211
 22
118.6402810628022
 32
0.0
 13
18.251468465954211
 23
118.6402810628022
 33
0.0
210
0.0
220
0.0
230
1.0
  0
SOLID
  5
3A0
  8
0
  6
CONTINUOUS
 10
-14.17400268170962
 20
119.4513394348558
 30
0.0
 11
-18.79340034426604
 21
119.4513394348558
 31
0.0
 12
-18.251468465954211
 22
118.6402810628022
 32
0.0
 13
-18.251468465954211
 23
118.6402810628022
 33
0.0
210
0.0
220
0.0
230
-1.0
  0
SOLID
  5
3A1
  8
0
  6
CONTINUOUS
 10
-15.52699293207511
 20
118.0983491844903
 30
0.0
 11
-17.44041009390056
 21
118.0983491844903
 31
0.0
 12
-16.483701512987839
 22
117.9080480157685
 32
0.0
 13
-16.483701512987839
 23
117.9080480157685
 33
0.0
210
0.0
220
0.0
230
-1.0
  0
SOLID
  5
3A2
  8
0
  6
CONTINUOUS
 10
14.71593456002147
 20
118.6402810628022
 30
0.0
 11
15.52699293207511
 21
118.0983491844903
 31
0.0
 12
17.44041009390056
 22
118.0983491844903
 32
0.0
 13
17.44041009390056
 23
118.0983491844903
 33
0.0
210
0.0
220
0.0
230
1.0
  0
SOLID
  5
3A3
  8
0
  6
CONTINUOUS
 10
-14.71593456002147
 20
118.6402810628022
 30
0.0
 11
-18.251468465954211
 21
118.6402810628022
 31
0.0
 12
-17.44041009390056
 22
118.0983491844903
 32
0.0
 13
-17.44041009390056
 23
118.0983491844903
 33
0.0
210
0.0
220
0.0
230
-1.0
  0
LINE
  5
3A4
  8
0
  6
CONTINUOUS
 10
16.483701512987839
 20
122.9080480157685
 30
0.0
 11
15.52699293207511
 21
122.7177468470467
 31
0.0
  0
LINE
  5
3A5
  8
0
  6
CONTINUOUS
 10
17.44041009390056
 20
122.7177468470467
 30
0.0
 11
16.483701512987839
 21
122.9080480157685
 31
0.0
  0
LINE
  5
3A6
  8
0
  6
CONTINUOUS
 10
15.52699293207511
 20
122.7177468470467
 30
0.0
 11
14.71593456002147
 21
122.1758149687349
 31
0.0
  0
LINE
  5
3A7
  8
0
  6
CONTINUOUS
 10
17.44041009390056
 20
122.7177468470467
 30
0.0
 11
18.251468465954211
 21
122.1758149687349
 31
0.0
  0
LINE
  5
3A8
  8
0
  6
CONTINUOUS
 10
14.71593456002147
 20
122.1758149687349
 30
0.0
 11
14.17400268170962
 21
121.3647565966812
 31
0.0
  0
LINE
  5
3A9
  8
0
  6
CONTINUOUS
 10
18.251468465954211
 20
122.1758149687349
 30
0.0
 11
18.793400344266072
 21
121.3647565966812
 31
0.0
  0
LINE
  5
3AA
  8
0
  6
CONTINUOUS
 10
14.17400268170962
 20
121.3647565966812
 30
0.0
 11
13.983701512987841
 21
120.4080480157685
 31
0.0
  0
LINE
  5
3AB
  8
0
  6
CONTINUOUS
 10
18.793400344266061
 20
121.3647565966812
 30
0.0
 11
18.983701512987839
 21
120.4080480157685
 31
0.0
  0
LINE
  5
3AC
  8
0
  6
CONTINUOUS
 10
13.983701512987841
 20
120.4080480157685
 30
0.0
 11
14.17400268170962
 21
119.4513394348558
 31
0.0
  0
LINE
  5
3AD
  8
0
  6
CONTINUOUS
 10
18.983701512987839
 20
120.4080480157685
 30
0.0
 11
18.79340034426605
 21
119.4513394348558
 31
0.0
  0
LINE
  5
3AE
  8
0
  6
CONTINUOUS
 10
14.17400268170962
 20
119.4513394348558
 30
0.0
 11
14.71593456002147
 21
118.6402810628022
 31
0.0
  0
LINE
  5
3AF
  8
0
  6
CONTINUOUS
 10
18.79340034426604
 20
119.4513394348558
 30
0.0
 11
18.251468465954211
 21
118.6402810628022
 31
0.0
  0
LINE
  5
3B0
  8
0
  6
CONTINUOUS
 10
17.44041009390056
 20
118.0983491844903
 30
0.0
 11
16.483701512987839
 21
117.9080480157685
 31
0.0
  0
LINE
  5
3B1
  8
0
  6
CONTINUOUS
 10
16.483701512987839
 20
117.9080480157685
 30
0.0
 11
15.52699293207511
 21
118.0983491844903
 31
0.0
  0
LINE
  5
3B2
  8
0
  6
CONTINUOUS
 10
14.71593456002147
 20
118.6402810628022
 30
0.0
 11
15.52699293207511
 21
118.0983491844903
 31
0.0
  0
LINE
  5
3B3
  8
0
  6
CONTINUOUS
 10
18.251468465954211
 20
118.6402810628022
 30
0.0
 11
17.44041009390056
 21
118.0983491844903
 31
0.0
  0
ENDBLK
  5
3B5
  8
0
  0
BLOCK
  8
0
  2
*U23
 70
     1
 10
0.0
 20
0.0
 30
0.0
  3
*U23
  1

  0
TEXT
  5
3B7
  8
0
 10
-210.28850554908161
 20
260.71504086645672
 30
0.0
 40
12.5
  1
Underlay
  7
ARIAL
  0
ENDBLK
  5
3B9
  8
0
  0
BLOCK
  8
0
  2
*U24
 70
     1
 10
0.0
 20
0.0
 30
0.0
  3
*U24
  1

  0
SOLID
  5
3BB
  8
0
  6
CONTINUOUS
 10
-31.106703976503031
 20
116.27888224415101
 30
0.0
 11
-32.063412557415759
 21
116.0885810754292
 31
0.0
 12
-30.149995395590299
 22
116.0885810754292
 32
0.0
 13
-30.149995395590299
 23
116.0885810754292
 33
0.0
210
0.0
220
0.0
230
1.0
  0
SOLID
  5
3BC
  8
0
  6
CONTINUOUS
 10
-32.063412557415759
 20
116.0885810754292
 30
0.0
 11
-32.874470929469403
 21
115.5466491971174
 31
0.0
 12
-29.338937023536658
 22
115.5466491971174
 32
0.0
 13
-29.338937023536658
 23
115.5466491971174
 33
0.0
210
0.0
220
0.0
230
1.0
  0
SOLID
  5
3BD
  8
0
  6
CONTINUOUS
 10
32.063412557415759
 20
116.0885810754292
 30
0.0
 11
30.149995395590299
 21
116.0885810754292
 31
0.0
 12
29.338937023536658
 22
115.5466491971174
 32
0.0
 13
29.338937023536658
 23
115.5466491971174
 33
0.0
210
0.0
220
0.0
230
-1.0
  0
SOLID
  5
3BE
  8
0
  6
CONTINUOUS
 10
-32.874470929469403
 20
115.5466491971174
 30
0.0
 11
-33.416402807781239
 21
114.7355908250637
 31
0.0
 12
-28.797005145224791
 22
114.7355908250637
 32
0.0
 13
-28.797005145224791
 23
114.7355908250637
 33
0.0
210
0.0
220
0.0
230
1.0
  0
SOLID
  5
3BF
  8
0
  6
CONTINUOUS
 10
32.874470929469403
 20
115.5466491971174
 30
0.0
 11
29.338937023536658
 21
115.5466491971174
 31
0.0
 12
28.797005145224791
 22
114.7355908250637
 32
0.0
 13
28.797005145224791
 23
114.7355908250637
 33
0.0
210
0.0
220
0.0
230
-1.0
  0
SOLID
  5
3C0
  8
0
  6
CONTINUOUS
 10
-33.416402807781239
 20
114.7355908250637
 30
0.0
 11
-33.606703976503027
 21
113.77888224415101
 31
0.0
 12
-28.60670397650302
 22
113.77888224415101
 32
0.0
 13
-28.60670397650302
 23
113.77888224415101
 33
0.0
210
0.0
220
0.0
230
1.0
  0
SOLID
  5
3C1
  8
0
  6
CONTINUOUS
 10
33.416402807781239
 20
114.7355908250637
 30
0.0
 11
28.797005145224801
 21
114.7355908250637
 31
0.0
 12
28.60670397650302
 22
113.77888224415101
 32
0.0
 13
28.60670397650302
 23
113.77888224415101
 33
0.0
210
0.0
220
0.0
230
-1.0
  0
SOLID
  5
3C2
  8
0
  6
CONTINUOUS
 10
-33.606703976503027
 20
113.77888224415101
 30
0.0
 11
-33.416402807781239
 21
112.8221736632383
 31
0.0
 12
-28.797005145224809
 22
112.8221736632383
 32
0.0
 13
-28.797005145224809
 23
112.8221736632383
 33
0.0
210
0.0
220
0.0
230
1.0
  0
SOLID
  5
3C3
  8
0
  6
CONTINUOUS
 10
33.606703976503027
 20
113.77888224415101
 30
0.0
 11
28.60670397650302
 21
113.77888224415101
 31
0.0
 12
28.797005145224809
 22
112.8221736632383
 32
0.0
 13
28.797005145224809
 23
112.8221736632383
 33
0.0
210
0.0
220
0.0
230
-1.0
  0
SOLID
  5
3C4
  8
0
  6
CONTINUOUS
 10
-33.416402807781239
 20
112.8221736632383
 30
0.0
 11
-32.874470929469403
 21
112.01111529118459
 31
0.0
 12
-29.338937023536658
 22
112.01111529118459
 32
0.0
 13
-29.338937023536658
 23
112.01111529118459
 33
0.0
210
0.0
220
0.0
230
1.0
  0
SOLID
  5
3C5
  8
0
  6
CONTINUOUS
 10
33.416402807781239
 20
112.8221736632383
 30
0.0
 11
28.797005145224819
 21
112.8221736632383
 31
0.0
 12
29.338937023536658
 22
112.01111529118459
 32
0.0
 13
29.338937023536658
 23
112.01111529118459
 33
0.0
210
0.0
220
0.0
230
-1.0
  0
SOLID
  5
3C6
  8
0
  6
CONTINUOUS
 10
32.063412557415752
 20
111.46918341287279
 30
0.0
 11
30.149995395590299
 21
111.46918341287279
 31
0.0
 12
31.106703976503031
 22
111.27888224415101
 32
0.0
 13
31.106703976503031
 23
111.27888224415101
 33
0.0
210
0.0
220
0.0
230
-1.0
  0
SOLID
  5
3C7
  8
0
  6
CONTINUOUS
 10
-32.874470929469403
 20
112.01111529118459
 30
0.0
 11
-32.063412557415752
 21
111.46918341287279
 31
0.0
 12
-30.149995395590299
 22
111.46918341287279
 32
0.0
 13
-30.149995395590299
 23
111.46918341287279
 33
0.0
210
0.0
220
0.0
230
1.0
  0
SOLID
  5
3C8
  8
0
  6
CONTINUOUS
 10
32.874470929469403
 20
112.01111529118459
 30
0.0
 11
29.338937023536658
 21
112.01111529118459
 31
0.0
 12
30.149995395590299
 22
111.46918341287279
 32
0.0
 13
30.149995395590299
 23
111.46918341287279
 33
0.0
210
0.0
220
0.0
230
-1.0
  0
LINE
  5
3C9
  8
0
  6
CONTINUOUS
 10
-31.106703976503031
 20
116.27888224415101
 30
0.0
 11
-32.063412557415759
 21
116.0885810754292
 31
0.0
  0
LINE
  5
3CA
  8
0
  6
CONTINUOUS
 10
-30.149995395590299
 20
116.0885810754292
 30
0.0
 11
-31.106703976503031
 21
116.27888224415101
 31
0.0
  0
LINE
  5
3CB
  8
0
  6
CONTINUOUS
 10
-32.063412557415759
 20
116.0885810754292
 30
0.0
 11
-32.874470929469403
 21
115.5466491971174
 31
0.0
  0
LINE
  5
3CC
  8
0
  6
CONTINUOUS
 10
-30.149995395590299
 20
116.0885810754292
 30
0.0
 11
-29.338937023536658
 21
115.5466491971174
 31
0.0
  0
LINE
  5
3CD
  8
0
  6
CONTINUOUS
 10
-32.874470929469403
 20
115.5466491971174
 30
0.0
 11
-33.416402807781239
 21
114.7355908250637
 31
0.0
  0
LINE
  5
3CE
  8
0
  6
CONTINUOUS
 10
-29.338937023536658
 20
115.5466491971174
 30
0.0
 11
-28.797005145224791
 21
114.7355908250637
 31
0.0
  0
LINE
  5
3CF
  8
0
  6
CONTINUOUS
 10
-33.416402807781239
 20
114.7355908250637
 30
0.0
 11
-33.606703976503027
 21
113.77888224415101
 31
0.0
  0
LINE
  5
3D0
  8
0
  6
CONTINUOUS
 10
-28.797005145224801
 20
114.7355908250637
 30
0.0
 11
-28.60670397650302
 21
113.77888224415101
 31
0.0
  0
LINE
  5
3D1
  8
0
  6
CONTINUOUS
 10
-33.606703976503027
 20
113.77888224415101
 30
0.0
 11
-33.416402807781239
 21
112.8221736632383
 31
0.0
  0
LINE
  5
3D2
  8
0
  6
CONTINUOUS
 10
-28.60670397650302
 20
113.77888224415101
 30
0.0
 11
-28.797005145224809
 21
112.8221736632383
 31
0.0
  0
LINE
  5
3D3
  8
0
  6
CONTINUOUS
 10
-33.416402807781239
 20
112.8221736632383
 30
0.0
 11
-32.874470929469403
 21
112.01111529118459
 31
0.0
  0
LINE
  5
3D4
  8
0
  6
CONTINUOUS
 10
-28.797005145224819
 20
112.8221736632383
 30
0.0
 11
-29.338937023536658
 21
112.01111529118459
 31
0.0
  0
LINE
  5
3D5
  8
0
  6
CONTINUOUS
 10
-30.149995395590299
 20
111.46918341287279
 30
0.0
 11
-31.106703976503031
 21
111.27888224415101
 31
0.0
  0
LINE
  5
3D6
  8
0
  6
CONTINUOUS
 10
-31.106703976503031
 20
111.27888224415101
 30
0.0
 11
-32.063412557415752
 21
111.46918341287279
 31
0.0
  0
LINE
  5
3D7
  8
0
  6
CONTINUOUS
 10
-32.874470929469403
 20
112.01111529118459
 30
0.0
 11
-32.063412557415752
 21
111.46918341287279
 31
0.0
  0
LINE
  5
3D8
  8
0
  6
CONTINUOUS
 10
-29.338937023536658
 20
112.01111529118459
 30
0.0
 11
-30.149995395590299
 21
111.46918341287279
 31
0.0
  0
ENDBLK
  5
3DA
  8
0
  0
BLOCK
  8
0
  2
*U25
 70
     1
 10
0.0
 20
0.0
 30
0.0
  3
*U25
  1

  0
TEXT
  5
3DC
  8
0
 10
-210.26292574007761
 20
212.2992316949794
 30
0.0
 40
12.5
  1
Plywood underlay 15mm
  7
ARIAL
  0
TEXT
  5
3DD
  8
0
 10
-209.2226801739111
 20
192.67885861888379
 30
0.0
 40
12.5
  1
thickness minimum
  7
ARIAL
  0
ENDBLK
  5
3DF
  8
0
  0
BLOCK
  8
0
  2
*U26
 70
     1
 10
0.0
 20
0.0
 30
0.0
  3
*U26
  1

  0
SOLID
  5
3E1
  8
0
  6
CONTINUOUS
 10
414.80110512497521
 20
-4.8438215980009094
 30
0.0
 11
413.84439654406248
 21
-5.0341227667226871
 31
0.0
 12
415.75781370588783
 22
-5.0341227667226871
 32
0.0
 13
415.75781370588783
 23
-5.0341227667226871
 33
0.0
210
0.0
220
0.0
230
1.0
  0
SOLID
  5
3E2
  8
0
  6
CONTINUOUS
 10
413.84439654406248
 20
-5.0341227667226871
 30
0.0
 11
413.03333817200883
 21
-5.5760546450345219
 31
0.0
 12
416.56887207794148
 22
-5.5760546450345219
 32
0.0
 13
416.56887207794148
 23
-5.5760546450345219
 33
0.0
210
0.0
220
0.0
230
1.0
  0
SOLID
  5
3E3
  8
0
  6
CONTINUOUS
 10
-413.84439654406248
 20
-5.0341227667226871
 30
0.0
 11
-415.75781370588783
 21
-5.0341227667226871
 31
0.0
 12
-416.56887207794148
 22
-5.5760546450345219
 32
0.0
 13
-416.56887207794148
 23
-5.5760546450345219
 33
0.0
210
0.0
220
0.0
230
-1.0
  0
SOLID
  5
3E4
  8
0
  6
CONTINUOUS
 10
413.03333817200883
 20
-5.5760546450345219
 30
0.0
 11
412.49140629369703
 21
-6.387113017088148
 31
0.0
 12
417.11080395625328
 22
-6.387113017088148
 32
0.0
 13
417.11080395625328
 23
-6.387113017088148
 33
0.0
210
0.0
220
0.0
230
1.0
  0
SOLID
  5
3E5
  8
0
  6
CONTINUOUS
 10
-413.03333817200883
 20
-5.5760546450345219
 30
0.0
 11
-416.56887207794148
 21
-5.5760546450345219
 31
0.0
 12
-417.11080395625328
 22
-6.387113017088148
 32
0.0
 13
-417.11080395625328
 23
-6.387113017088148
 33
0.0
210
0.0
220
0.0
230
-1.0
  0
SOLID
  5
3E6
  8
0
  6
CONTINUOUS
 10
412.49140629369703
 20
-6.387113017088148
 30
0.0
 11
412.30110512497521
 21
-7.3438215980008508
 31
0.0
 12
417.30110512497509
 22
-7.3438215980008508
 32
0.0
 13
417.30110512497509
 23
-7.3438215980008508
 33
0.0
210
0.0
220
0.0
230
1.0
  0
SOLID
  5
3E7
  8
0
  6
CONTINUOUS
 10
-412.49140629369703
 20
-6.387113017088148
 30
0.0
 11
-417.11080395625328
 21
-6.387113017088148
 31
0.0
 12
-417.30110512497509
 22
-7.3438215980008508
 32
0.0
 13
-417.30110512497509
 23
-7.3438215980008508
 33
0.0
210
0.0
220
0.0
230
-1.0
  0
SOLID
  5
3E8
  8
0
  6
CONTINUOUS
 10
412.30110512497521
 20
-7.3438215980008508
 30
0.0
 11
412.49140629369703
 21
-8.3005301789135544
 31
0.0
 12
417.11080395625328
 22
-8.3005301789135544
 32
0.0
 13
417.11080395625328
 23
-8.3005301789135544
 33
0.0
210
0.0
220
0.0
230
1.0
  0
SOLID
  5
3E9
  8
0
  6
CONTINUOUS
 10
-412.30110512497521
 20
-7.3438215980008508
 30
0.0
 11
-417.30110512497509
 21
-7.3438215980008508
 31
0.0
 12
-417.11080395625328
 22
-8.3005301789135544
 32
0.0
 13
-417.11080395625328
 23
-8.3005301789135544
 33
0.0
210
0.0
220
0.0
230
-1.0
  0
SOLID
  5
3EA
  8
0
  6
CONTINUOUS
 10
412.49140629369703
 20
-8.3005301789135544
 30
0.0
 11
413.03333817200883
 21
-9.1115885509671806
 31
0.0
 12
416.56887207794148
 22
-9.1115885509671806
 32
0.0
 13
416.56887207794148
 23
-9.1115885509671806
 33
0.0
210
0.0
220
0.0
230
1.0
  0
SOLID
  5
3EB
  8
0
  6
CONTINUOUS
 10
-412.49140629369703
 20
-8.3005301789135544
 30
0.0
 11
-417.11080395625328
 21
-8.3005301789135544
 31
0.0
 12
-416.56887207794148
 22
-9.1115885509671806
 32
0.0
 13
-416.56887207794148
 23
-9.1115885509671806
 33
0.0
210
0.0
220
0.0
230
-1.0
  0
SOLID
  5
3EC
  8
0
  6
CONTINUOUS
 10
-413.84439654406248
 20
-9.6535204292790162
 30
0.0
 11
-415.75781370588783
 21
-9.6535204292790162
 31
0.0
 12
-414.80110512497521
 22
-9.8438215980007922
 32
0.0
 13
-414.80110512497521
 23
-9.8438215980007922
 33
0.0
210
0.0
220
0.0
230
-1.0
  0
SOLID
  5
3ED
  8
0
  6
CONTINUOUS
 10
413.03333817200883
 20
-9.1115885509671806
 30
0.0
 11
413.84439654406248
 21
-9.6535204292790162
 31
0.0
 12
415.75781370588783
 22
-9.6535204292790162
 32
0.0
 13
415.75781370588783
 23
-9.6535204292790162
 33
0.0
  0
SOLID
  5
3EE
  8
0
  6
CONTINUOUS
 10
-413.03333817200883
 20
-9.1115885509671806
 30
0.0
 11
-416.56887207794148
 21
-9.1115885509671806
 31
0.0
 12
-415.75781370588783
 22
-9.6535204292790162
 32
0.0
 13
-415.75781370588783
 23
-9.6535204292790162
 33
0.0
210
0.0
220
0.0
230
-1.0
  0
LINE
  5
3EF
  8
0
  6
CONTINUOUS
 10
414.80110512497521
 20
-4.8438215980009094
 30
0.0
 11
413.84439654406248
 21
-5.0341227667226871
 31
0.0
  0
LINE
  5
3F0
  8
0
  6
CONTINUOUS
 10
415.75781370588783
 20
-5.0341227667226871
 30
0.0
 11
414.80110512497521
 21
-4.8438215980009094
 31
0.0
  0
LINE
  5
3F1
  8
0
  6
CONTINUOUS
 10
413.84439654406248
 20
-5.0341227667226871
 30
0.0
 11
413.03333817200883
 21
-5.5760546450345219
 31
0.0
  0
LINE
  5
3F2
  8
0
  6
CONTINUOUS
 10
415.75781370588783
 20
-5.0341227667226871
 30
0.0
 11
416.56887207794148
 21
-5.5760546450345219
 31
0.0
  0
LINE
  5
3F3
  8
0
  6
CONTINUOUS
 10
413.03333817200883
 20
-5.5760546450345219
 30
0.0
 11
412.49140629369703
 21
-6.387113017088148
 31
0.0
  0
LINE
  5
3F4
  8
0
  6
CONTINUOUS
 10
416.56887207794148
 20
-5.5760546450345219
 30
0.0
 11
417.11080395625328
 21
-6.387113017088148
 31
0.0
  0
LINE
  5
3F5
  8
0
  6
CONTINUOUS
 10
412.49140629369703
 20
-6.387113017088148
 30
0.0
 11
412.30110512497521
 21
-7.3438215980008508
 31
0.0
  0
LINE
  5
3F6
  8
0
  6
CONTINUOUS
 10
417.11080395625328
 20
-6.387113017088148
 30
0.0
 11
417.30110512497509
 21
-7.3438215980008508
 31
0.0
  0
LINE
  5
3F7
  8
0
  6
CONTINUOUS
 10
412.30110512497521
 20
-7.3438215980008508
 30
0.0
 11
412.49140629369703
 21
-8.3005301789135544
 31
0.0
  0
LINE
  5
3F8
  8
0
  6
CONTINUOUS
 10
417.30110512497509
 20
-7.3438215980008508
 30
0.0
 11
417.11080395625328
 21
-8.3005301789135544
 31
0.0
  0
LINE
  5
3F9
  8
0
  6
CONTINUOUS
 10
412.49140629369703
 20
-8.3005301789135544
 30
0.0
 11
413.03333817200883
 21
-9.1115885509671806
 31
0.0
  0
LINE
  5
3FA
  8
0
  6
CONTINUOUS
 10
417.11080395625328
 20
-8.3005301789135544
 30
0.0
 11
416.56887207794148
 21
-9.1115885509671806
 31
0.0
  0
LINE
  5
3FB
  8
0
  6
CONTINUOUS
 10
415.75781370588783
 20
-9.6535204292790162
 30
0.0
 11
414.80110512497521
 21
-9.8438215980007922
 31
0.0
  0
LINE
  5
3FC
  8
0
  6
CONTINUOUS
 10
414.80110512497521
 20
-9.8438215980007922
 30
0.0
 11
413.84439654406248
 21
-9.6535204292790162
 31
0.0
  0
LINE
  5
3FD
  8
0
  6
CONTINUOUS
 10
413.03333817200883
 20
-9.1115885509671806
 30
0.0
 11
413.84439654406248
 21
-9.6535204292790162
 31
0.0
  0
LINE
  5
3FE
  8
0
  6
CONTINUOUS
 10
416.56887207794148
 20
-9.1115885509671806
 30
0.0
 11
415.75781370588783
 21
-9.6535204292790162
 31
0.0
  0
ENDBLK
  5
400
  8
0
  0
BLOCK
  8
0
  2
*U27
 70
     1
 10
0.0
 20
0.0
 30
0.0
  3
*U27
  1

  0
TEXT
  5
402
  8
0
 10
582.15542981158967
 20
-160.09241849726101
 30
0.0
 40
12.5
  1
Eaves lining
  7
ARIAL
  0
ENDBLK
  5
404
  8
0
  0
BLOCK
  8
0
  2
*U28
 70
     1
 10
0.0
 20
0.0
 30
0.0
  3
*U28
  1

  0
TEXT
  5
406
  8
0
 62
     7
 10
289.7216218292229
 20
-277.29115968223653
 30
0.0
 40
12.5
  1
* Barge board must not project higher than the top of plywood sheet
  7
ARIAL
  0
ENDBLK
  5
408
  8
0
  0
BLOCK
  8
0
  2
*U29
 70
     1
 10
0.0
 20
0.0
 30
0.0
  3
*U29
  1

  0
SOLID
  5
40A
  8
0
  6
CONTINUOUS
 10
514.52881619290054
 20
-14.706838883836269
 30
0.0
 11
513.57210761198769
 21
-14.89714005255806
 31
0.0
 12
515.48552477381315
 22
-14.89714005255806
 32
0.0
 13
515.48552477381315
 23
-14.89714005255806
 33
0.0
210
0.0
220
0.0
230
1.0
  0
SOLID
  5
40B
  8
0
  6
CONTINUOUS
 10
513.57210761198769
 20
-14.89714005255806
 30
0.0
 11
512.76104923993398
 21
-15.43907193086994
 31
0.0
 12
516.29658314586686
 22
-15.43907193086994
 32
0.0
 13
516.29658314586686
 23
-15.43907193086994
 33
0.0
210
0.0
220
0.0
230
1.0
  0
SOLID
  5
40C
  8
0
  6
CONTINUOUS
 10
-513.57210761198769
 20
-14.89714005255806
 30
0.0
 11
-515.48552477381315
 21
-14.89714005255806
 31
0.0
 12
-516.29658314586686
 22
-15.43907193086994
 32
0.0
 13
-516.29658314586686
 23
-15.43907193086994
 33
0.0
210
0.0
220
0.0
230
-1.0
  0
SOLID
  5
40D
  8
0
  6
CONTINUOUS
 10
512.76104923993398
 20
-15.43907193086994
 30
0.0
 11
512.21911736162224
 21
-16.250130302923619
 31
0.0
 12
516.83851502417883
 22
-16.250130302923619
 32
0.0
 13
516.83851502417883
 23
-16.250130302923619
 33
0.0
210
0.0
220
0.0
230
1.0
  0
SOLID
  5
40E
  8
0
  6
CONTINUOUS
 10
-512.76104923993398
 20
-15.43907193086994
 30
0.0
 11
-516.29658314586686
 21
-15.43907193086994
 31
0.0
 12
-516.83851502417883
 22
-16.250130302923619
 32
0.0
 13
-516.83851502417883
 23
-16.250130302923619
 33
0.0
210
0.0
220
0.0
230
-1.0
  0
SOLID
  5
40F
  8
0
  6
CONTINUOUS
 10
512.21911736162224
 20
-16.250130302923619
 30
0.0
 11
512.02881619290031
 21
-17.20683888383639
 31
0.0
 12
517.02881619290065
 22
-17.20683888383639
 32
0.0
 13
517.02881619290065
 23
-17.20683888383639
 33
0.0
210
0.0
220
0.0
230
1.0
  0
SOLID
  5
410
  8
0
  6
CONTINUOUS
 10
-512.21911736162224
 20
-16.250130302923619
 30
0.0
 11
-516.83851502417883
 21
-16.250130302923619
 31
0.0
 12
-517.02881619290065
 22
-17.20683888383639
 32
0.0
 13
-517.02881619290065
 23
-17.20683888383639
 33
0.0
210
0.0
220
0.0
230
-1.0
  0
SOLID
  5
411
  8
0
  6
CONTINUOUS
 10
512.02881619290031
 20
-17.20683888383639
 30
0.0
 11
512.21911736162224
 21
-18.163547464749151
 31
0.0
 12
516.83851502417883
 22
-18.163547464749151
 32
0.0
 13
516.83851502417883
 23
-18.163547464749151
 33
0.0
210
0.0
220
0.0
230
1.0
  0
SOLID
  5
412
  8
0
  6
CONTINUOUS
 10
-512.02881619290031
 20
-17.20683888383639
 30
0.0
 11
-517.02881619290065
 21
-17.20683888383639
 31
0.0
 12
-516.83851502417883
 22
-18.163547464749151
 32
0.0
 13
-516.83851502417883
 23
-18.163547464749151
 33
0.0
210
0.0
220
0.0
230
-1.0
  0
SOLID
  5
413
  8
0
  6
CONTINUOUS
 10
512.21911736162224
 20
-18.163547464749151
 30
0.0
 11
512.76104923993398
 21
-18.974605836802841
 31
0.0
 12
516.29658314586686
 22
-18.974605836802841
 32
0.0
 13
516.29658314586686
 23
-18.974605836802841
 33
0.0
210
0.0
220
0.0
230
1.0
  0
SOLID
  5
414
  8
0
  6
CONTINUOUS
 10
-512.21911736162224
 20
-18.163547464749151
 30
0.0
 11
-516.83851502417883
 21
-18.163547464749151
 31
0.0
 12
-516.29658314586686
 22
-18.974605836802841
 32
0.0
 13
-516.29658314586686
 23
-18.974605836802841
 33
0.0
210
0.0
220
0.0
230
-1.0
  0
SOLID
  5
415
  8
0
  6
CONTINUOUS
 10
-513.57210761198769
 20
-19.516537715114708
 30
0.0
 11
-515.48552477381315
 21
-19.516537715114708
 31
0.0
 12
-514.52881619290054
 22
-19.7068388838365
 32
0.0
 13
-514.52881619290054
 23
-19.7068388838365
 33
0.0
210
0.0
220
0.0
230
-1.0
  0
SOLID
  5
416
  8
0
  6
CONTINUOUS
 10
512.76104923993398
 20
-18.974605836802841
 30
0.0
 11
513.57210761198769
 21
-19.516537715114708
 31
0.0
 12
515.48552477381315
 22
-19.516537715114708
 32
0.0
 13
515.48552477381315
 23
-19.516537715114708
 33
0.0
210
0.0
220
0.0
230
1.0
  0
SOLID
  5
417
  8
0
  6
CONTINUOUS
 10
-512.76104923993398
 20
-18.974605836802841
 30
0.0
 11
-516.29658314586686
 21
-18.974605836802841
 31
0.0
 12
-515.48552477381315
 22
-19.516537715114708
 32
0.0
 13
-515.48552477381315
 23
-19.516537715114708
 33
0.0
210
0.0
220
0.0
230
-1.0
  0
LINE
  5
418
  8
0
  6
CONTINUOUS
 10
514.52881619290054
 20
-14.706838883836269
 30
0.0
 11
513.57210761198769
 21
-14.89714005255806
 31
0.0
  0
LINE
  5
419
  8
0
  6
CONTINUOUS
 10
515.48552477381315
 20
-14.89714005255806
 30
0.0
 11
514.52881619290054
 21
-14.706838883836269
 31
0.0
  0
LINE
  5
41A
  8
0
  6
CONTINUOUS
 10
513.57210761198769
 20
-14.89714005255806
 30
0.0
 11
512.76104923993398
 21
-15.43907193086994
 31
0.0
  0
LINE
  5
41B
  8
0
  6
CONTINUOUS
 10
515.48552477381315
 20
-14.89714005255806
 30
0.0
 11
516.29658314586686
 21
-15.43907193086994
 31
0.0
  0
LINE
  5
41C
  8
0
  6
CONTINUOUS
 10
512.76104923993398
 20
-15.43907193086994
 30
0.0
 11
512.21911736162224
 21
-16.250130302923619
 31
0.0
  0
LINE
  5
41D
  8
0
  6
CONTINUOUS
 10
516.29658314586686
 20
-15.43907193086994
 30
0.0
 11
516.83851502417883
 21
-16.250130302923619
 31
0.0
  0
LINE
  5
41E
  8
0
  6
CONTINUOUS
 10
512.21911736162224
 20
-16.250130302923619
 30
0.0
 11
512.02881619290031
 21
-17.20683888383639
 31
0.0
  0
LINE
  5
41F
  8
0
  6
CONTINUOUS
 10
516.83851502417883
 20
-16.250130302923619
 30
0.0
 11
517.02881619290065
 21
-17.20683888383639
 31
0.0
  0
LINE
  5
420
  8
0
  6
CONTINUOUS
 10
512.02881619290031
 20
-17.20683888383639
 30
0.0
 11
512.21911736162224
 21
-18.163547464749151
 31
0.0
  0
LINE
  5
421
  8
0
  6
CONTINUOUS
 10
517.02881619290065
 20
-17.20683888383639
 30
0.0
 11
516.83851502417883
 21
-18.163547464749151
 31
0.0
  0
LINE
  5
422
  8
0
  6
CONTINUOUS
 10
512.21911736162224
 20
-18.163547464749151
 30
0.0
 11
512.76104923993398
 21
-18.974605836802841
 31
0.0
  0
LINE
  5
423
  8
0
  6
CONTINUOUS
 10
516.83851502417883
 20
-18.163547464749151
 30
0.0
 11
516.29658314586686
 21
-18.974605836802841
 31
0.0
  0
LINE
  5
424
  8
0
  6
CONTINUOUS
 10
515.48552477381315
 20
-19.516537715114708
 30
0.0
 11
514.52881619290054
 21
-19.7068388838365
 31
0.0
  0
LINE
  5
425
  8
0
  6
CONTINUOUS
 10
514.52881619290054
 20
-19.7068388838365
 30
0.0
 11
513.57210761198769
 21
-19.516537715114708
 31
0.0
  0
LINE
  5
426
  8
0
  6
CONTINUOUS
 10
512.76104923993398
 20
-18.974605836802841
 30
0.0
 11
513.57210761198769
 21
-19.516537715114708
 31
0.0
  0
LINE
  5
427
  8
0
  6
CONTINUOUS
 10
516.29658314586686
 20
-18.974605836802841
 30
0.0
 11
515.48552477381315
 21
-19.516537715114708
 31
0.0
  0
ENDBLK
  5
429
  8
0
  0
BLOCK
  8
0
  2
*U30
 70
     1
 10
0.0
 20
0.0
 30
0.0
  3
*U30
  1

  0
TEXT
  5
42B
  8
0
 10
582.25774904760601
 20
-79.078991764631681
 30
0.0
 40
12.5
  1
Barge board *
  7
ARIAL
  0
ENDBLK
  5
42D
  8
0
  0
BLOCK
  8
0
  2
*U31
 70
     1
 10
0.0
 20
0.0
 30
0.0
  3
*U31
  1

  0
SOLID
  5
42F
  8
0
  6
CONTINUOUS
 10
63.608844761259633
 20
145.02139031750761
 30
0.0
 11
62.652136180346922
 21
144.83108914878579
 31
0.0
 12
64.565553342172365
 22
144.83108914878579
 32
0.0
 13
64.565553342172365
 23
144.83108914878579
 33
0.0
210
0.0
220
0.0
230
1.0
  0
SOLID
  5
430
  8
0
  6
CONTINUOUS
 10
62.652136180346922
 20
144.83108914878579
 30
0.0
 11
61.841077808293278
 21
144.28915727047399
 31
0.0
 12
65.376611714226001
 22
144.28915727047399
 32
0.0
 13
65.376611714226001
 23
144.28915727047399
 33
0.0
210
0.0
220
0.0
230
1.0
  0
SOLID
  5
431
  8
0
  6
CONTINUOUS
 10
-62.652136180346922
 20
144.83108914878579
 30
0.0
 11
-64.565553342172365
 21
144.83108914878579
 31
0.0
 12
-65.376611714226001
 22
144.28915727047399
 32
0.0
 13
-65.376611714226001
 23
144.28915727047399
 33
0.0
210
0.0
220
0.0
230
-1.0
  0
SOLID
  5
432
  8
0
  6
CONTINUOUS
 10
61.841077808293278
 20
144.28915727047399
 30
0.0
 11
61.299145929981428
 21
143.47809889842031
 31
0.0
 12
65.918543592537844
 22
143.47809889842031
 32
0.0
 13
65.918543592537844
 23
143.47809889842031
 33
0.0
  0
SOLID
  5
433
  8
0
  6
CONTINUOUS
 10
-61.841077808293278
 20
144.28915727047399
 30
0.0
 11
-65.376611714226001
 21
144.28915727047399
 31
0.0
 12
-65.918543592537844
 22
143.47809889842031
 32
0.0
 13
-65.918543592537844
 23
143.47809889842031
 33
0.0
210
0.0
220
0.0
230
-1.0
  0
SOLID
  5
434
  8
0
  6
CONTINUOUS
 10
61.299145929981428
 20
143.47809889842031
 30
0.0
 11
61.10884476125964
 21
142.52139031750761
 31
0.0
 12
66.108844761259633
 22
142.52139031750761
 32
0.0
 13
66.108844761259633
 23
142.52139031750761
 33
0.0
210
0.0
220
0.0
230
1.0
  0
SOLID
  5
435
  8
0
  6
CONTINUOUS
 10
-61.299145929981428
 20
143.47809889842031
 30
0.0
 11
-65.918543592537844
 21
143.47809889842031
 31
0.0
 12
-66.108844761259633
 22
142.52139031750761
 32
0.0
 13
-66.108844761259633
 23
142.52139031750761
 33
0.0
210
0.0
220
0.0
230
-1.0
  0
SOLID
  5
436
  8
0
  6
CONTINUOUS
 10
61.10884476125964
 20
142.52139031750761
 30
0.0
 11
61.299145929981428
 21
141.56468173659491
 31
0.0
 12
65.918543592537844
 22
141.56468173659491
 32
0.0
 13
65.918543592537844
 23
141.56468173659491
 33
0.0
  0
SOLID
  5
437
  8
0
  6
CONTINUOUS
 10
-61.10884476125964
 20
142.52139031750761
 30
0.0
 11
-66.108844761259633
 21
142.52139031750761
 31
0.0
 12
-65.918543592537844
 22
141.56468173659491
 32
0.0
 13
-65.918543592537844
 23
141.56468173659491
 33
0.0
210
0.0
220
0.0
230
-1.0
  0
SOLID
  5
438
  8
0
  6
CONTINUOUS
 10
61.299145929981428
 20
141.56468173659491
 30
0.0
 11
61.841077808293278
 21
140.75362336454131
 31
0.0
 12
65.376611714226001
 22
140.75362336454131
 32
0.0
 13
65.376611714226001
 23
140.75362336454131
 33
0.0
210
0.0
220
0.0
230
1.0
  0
SOLID
  5
439
  8
0
  6
CONTINUOUS
 10
-61.299145929981428
 20
141.56468173659491
 30
0.0
 11
-65.918543592537844
 21
141.56468173659491
 31
0.0
 12
-65.376611714226001
 22
140.75362336454131
 32
0.0
 13
-65.376611714226001
 23
140.75362336454131
 33
0.0
210
0.0
220
0.0
230
-1.0
  0
SOLID
  5
43A
  8
0
  6
CONTINUOUS
 10
-62.652136180346922
 20
140.2116914862294
 30
0.0
 11
-64.565553342172365
 21
140.2116914862294
 31
0.0
 12
-63.608844761259633
 22
140.02139031750761
 32
0.0
 13
-63.608844761259633
 23
140.02139031750761
 33
0.0
210
0.0
220
0.0
230
-1.0
  0
SOLID
  5
43B
  8
0
  6
CONTINUOUS
 10
61.841077808293278
 20
140.75362336454131
 30
0.0
 11
62.652136180346922
 21
140.2116914862294
 31
0.0
 12
64.565553342172365
 22
140.2116914862294
 32
0.0
 13
64.565553342172365
 23
140.2116914862294
 33
0.0
210
0.0
220
0.0
230
1.0
  0
SOLID
  5
43C
  8
0
  6
CONTINUOUS
 10
-61.841077808293278
 20
140.75362336454131
 30
0.0
 11
-65.376611714226001
 21
140.75362336454131
 31
0.0
 12
-64.565553342172365
 22
140.2116914862294
 32
0.0
 13
-64.565553342172365
 23
140.2116914862294
 33
0.0
210
0.0
220
0.0
230
-1.0
  0
LINE
  5
43D
  8
0
  6
CONTINUOUS
 10
63.608844761259633
 20
145.02139031750761
 30
0.0
 11
62.652136180346922
 21
144.83108914878579
 31
0.0
  0
LINE
  5
43E
  8
0
  6
CONTINUOUS
 10
64.565553342172365
 20
144.83108914878579
 30
0.0
 11
63.608844761259633
 21
145.02139031750761
 31
0.0
  0
LINE
  5
43F
  8
0
  6
CONTINUOUS
 10
62.652136180346922
 20
144.83108914878579
 30
0.0
 11
61.841077808293278
 21
144.28915727047399
 31
0.0
  0
LINE
  5
440
  8
0
  6
CONTINUOUS
 10
64.565553342172365
 20
144.83108914878579
 30
0.0
 11
65.376611714226001
 21
144.28915727047399
 31
0.0
  0
LINE
  5
441
  8
0
  6
CONTINUOUS
 10
61.841077808293278
 20
144.28915727047399
 30
0.0
 11
61.299145929981428
 21
143.47809889842031
 31
0.0
  0
LINE
  5
442
  8
0
  6
CONTINUOUS
 10
65.376611714226001
 20
144.28915727047399
 30
0.0
 11
65.918543592537844
 21
143.47809889842031
 31
0.0
  0
LINE
  5
443
  8
0
  6
CONTINUOUS
 10
61.299145929981428
 20
143.47809889842031
 30
0.0
 11
61.10884476125964
 21
142.52139031750761
 31
0.0
  0
LINE
  5
444
  8
0
  6
CONTINUOUS
 10
65.918543592537844
 20
143.47809889842031
 30
0.0
 11
66.108844761259633
 21
142.52139031750761
 31
0.0
  0
LINE
  5
445
  8
0
  6
CONTINUOUS
 10
61.10884476125964
 20
142.52139031750761
 30
0.0
 11
61.299145929981428
 21
141.56468173659491
 31
0.0
  0
LINE
  5
446
  8
0
  6
CONTINUOUS
 10
66.108844761259633
 20
142.52139031750761
 30
0.0
 11
65.918543592537844
 21
141.56468173659491
 31
0.0
  0
LINE
  5
447
  8
0
  6
CONTINUOUS
 10
61.299145929981428
 20
141.56468173659491
 30
0.0
 11
61.841077808293278
 21
140.75362336454131
 31
0.0
  0
LINE
  5
448
  8
0
  6
CONTINUOUS
 10
65.918543592537844
 20
141.56468173659491
 30
0.0
 11
65.376611714226001
 21
140.75362336454131
 31
0.0
  0
LINE
  5
449
  8
0
  6
CONTINUOUS
 10
64.565553342172365
 20
140.2116914862294
 30
0.0
 11
63.608844761259633
 21
140.02139031750761
 31
0.0
  0
LINE
  5
44A
  8
0
  6
CONTINUOUS
 10
63.608844761259633
 20
140.02139031750761
 30
0.0
 11
62.652136180346922
 21
140.2116914862294
 31
0.0
  0
LINE
  5
44B
  8
0
  6
CONTINUOUS
 10
61.841077808293278
 20
140.75362336454131
 30
0.0
 11
62.652136180346922
 21
140.2116914862294
 31
0.0
  0
LINE
  5
44C
  8
0
  6
CONTINUOUS
 10
65.376611714226001
 20
140.75362336454131
 30
0.0
 11
64.565553342172365
 21
140.2116914862294
 31
0.0
  0
ENDBLK
  5
44E
  8
0
  0
BLOCK
  8
0
  2
*U32
 70
     1
 10
0.0
 20
0.0
 30
0.0
  3
*U32
  1

  0
TEXT
  5
450
  8
0
 10
-209.3249994099275
 20
319.9497490422192
 30
0.0
 40
12.5
  1
Tilcor CF Shake Panel
  7
ARIAL
  0
ENDBLK
  5
452
  8
0
  0
BLOCK
  8
0
  2
*U33
 70
     1
 10
0.0
 20
0.0
 30
0.0
  3
*U33
  1

  0
SOLID
  5
454
  8
0
  6
CONTINUOUS
 10
-97.224949441907796
 20
52.500000000000391
 30
0.0
 11
-98.181658022820514
 21
52.309698831278588
 31
0.0
 12
-96.268240860995078
 22
52.309698831278588
 32
0.0
 13
-96.268240860995078
 23
52.309698831278588
 33
0.0
210
0.0
220
0.0
230
1.0
  0
SOLID
  5
455
  8
0
  6
CONTINUOUS
 10
-98.181658022820514
 20
52.309698831278588
 30
0.0
 11
-98.992716394874165
 21
51.767766952966753
 31
0.0
 12
-95.457182488941427
 22
51.767766952966753
 32
0.0
 13
-95.457182488941427
 23
51.767766952966753
 33
0.0
210
0.0
220
0.0
230
1.0
  0
SOLID
  5
456
  8
0
  6
CONTINUOUS
 10
98.181658022820514
 20
52.309698831278588
 30
0.0
 11
96.268240860995078
 21
52.309698831278588
 31
0.0
 12
95.457182488941427
 22
51.767766952966753
 32
0.0
 13
95.457182488941427
 23
51.767766952966753
 33
0.0
210
0.0
220
0.0
230
-1.0
  0
SOLID
  5
457
  8
0
  6
CONTINUOUS
 10
-98.992716394874165
 20
51.767766952966753
 30
0.0
 11
-99.534648273186008
 21
50.956708580913109
 31
0.0
 12
-94.915250610629585
 22
50.956708580913109
 32
0.0
 13
-94.915250610629585
 23
50.956708580913109
 33
0.0
  0
SOLID
  5
458
  8
0
  6
CONTINUOUS
 10
98.992716394874165
 20
51.767766952966753
 30
0.0
 11
95.457182488941427
 21
51.767766952966753
 31
0.0
 12
94.915250610629585
 22
50.956708580913109
 32
0.0
 13
94.915250610629585
 23
50.956708580913109
 33
0.0
210
0.0
220
0.0
230
-1.0
  0
SOLID
  5
459
  8
0
  6
CONTINUOUS
 10
-99.534648273186008
 20
50.956708580913109
 30
0.0
 11
-99.724949441907796
 21
50.000000000000391
 31
0.0
 12
-94.724949441907796
 22
50.000000000000391
 32
0.0
 13
-94.724949441907796
 23
50.000000000000391
 33
0.0
210
0.0
220
0.0
230
1.0
  0
SOLID
  5
45A
  8
0
  6
CONTINUOUS
 10
99.534648273186008
 20
50.956708580913109
 30
0.0
 11
94.915250610629585
 21
50.956708580913109
 31
0.0
 12
94.724949441907796
 22
50.000000000000391
 32
0.0
 13
94.724949441907796
 23
50.000000000000391
 33
0.0
210
0.0
220
0.0
230
-1.0
  0
SOLID
  5
45B
  8
0
  6
CONTINUOUS
 10
-99.724949441907796
 20
50.000000000000391
 30
0.0
 11
-99.534648273186008
 21
49.043291419087659
 31
0.0
 12
-94.915250610629585
 22
49.043291419087659
 32
0.0
 13
-94.915250610629585
 23
49.043291419087659
 33
0.0
  0
SOLID
  5
45C
  8
0
  6
CONTINUOUS
 10
99.724949441907796
 20
50.000000000000391
 30
0.0
 11
94.724949441907796
 21
50.000000000000391
 31
0.0
 12
94.915250610629585
 22
49.043291419087659
 32
0.0
 13
94.915250610629585
 23
49.043291419087659
 33
0.0
210
0.0
220
0.0
230
-1.0
  0
SOLID
  5
45D
  8
0
  6
CONTINUOUS
 10
-99.534648273186008
 20
49.043291419087659
 30
0.0
 11
-98.992716394874165
 21
48.232233047034008
 31
0.0
 12
-95.457182488941427
 22
48.232233047034008
 32
0.0
 13
-95.457182488941427
 23
48.232233047034008
 33
0.0
210
0.0
220
0.0
230
1.0
  0
SOLID
  5
45E
  8
0
  6
CONTINUOUS
 10
99.534648273186008
 20
49.043291419087659
 30
0.0
 11
94.915250610629585
 21
49.043291419087659
 31
0.0
 12
95.457182488941427
 22
48.232233047034008
 32
0.0
 13
95.457182488941427
 23
48.232233047034008
 33
0.0
210
0.0
220
0.0
230
-1.0
  0
SOLID
  5
45F
  8
0
  6
CONTINUOUS
 10
98.181658022820514
 20
47.690301168722172
 30
0.0
 11
96.268240860995078
 21
47.690301168722172
 31
0.0
 12
97.224949441907796
 22
47.500000000000377
 32
0.0
 13
97.224949441907796
 23
47.500000000000377
 33
0.0
210
0.0
220
0.0
230
-1.0
  0
SOLID
  5
460
  8
0
  6
CONTINUOUS
 10
-98.992716394874165
 20
48.232233047034008
 30
0.0
 11
-98.181658022820514
 21
47.690301168722172
 31
0.0
 12
-96.268240860995078
 22
47.690301168722172
 32
0.0
 13
-96.268240860995078
 23
47.690301168722172
 33
0.0
210
0.0
220
0.0
230
1.0
  0
SOLID
  5
461
  8
0
  6
CONTINUOUS
 10
98.992716394874165
 20
48.232233047034008
 30
0.0
 11
95.457182488941427
 21
48.232233047034008
 31
0.0
 12
96.268240860995078
 22
47.690301168722172
 32
0.0
 13
96.268240860995078
 23
47.690301168722172
 33
0.0
210
0.0
220
0.0
230
-1.0
  0
LINE
  5
462
  8
0
  6
CONTINUOUS
 10
-97.224949441907796
 20
52.500000000000391
 30
0.0
 11
-98.181658022820514
 21
52.309698831278588
 31
0.0
  0
LINE
  5
463
  8
0
  6
CONTINUOUS
 10
-96.268240860995078
 20
52.309698831278588
 30
0.0
 11
-97.224949441907796
 21
52.500000000000391
 31
0.0
  0
LINE
  5
464
  8
0
  6
CONTINUOUS
 10
-98.181658022820514
 20
52.309698831278588
 30
0.0
 11
-98.992716394874165
 21
51.767766952966753
 31
0.0
  0
LINE
  5
465
  8
0
  6
CONTINUOUS
 10
-96.268240860995078
 20
52.309698831278588
 30
0.0
 11
-95.457182488941427
 21
51.767766952966753
 31
0.0
  0
LINE
  5
466
  8
0
  6
CONTINUOUS
 10
-98.992716394874165
 20
51.767766952966753
 30
0.0
 11
-99.534648273186008
 21
50.956708580913109
 31
0.0
  0
LINE
  5
467
  8
0
  6
CONTINUOUS
 10
-95.457182488941427
 20
51.767766952966753
 30
0.0
 11
-94.915250610629585
 21
50.956708580913109
 31
0.0
  0
LINE
  5
468
  8
0
  6
CONTINUOUS
 10
-99.534648273186008
 20
50.956708580913109
 30
0.0
 11
-99.724949441907796
 21
50.000000000000391
 31
0.0
  0
LINE
  5
469
  8
0
  6
CONTINUOUS
 10
-94.915250610629585
 20
50.956708580913109
 30
0.0
 11
-94.724949441907796
 21
50.000000000000391
 31
0.0
  0
LINE
  5
46A
  8
0
  6
CONTINUOUS
 10
-99.724949441907796
 20
50.000000000000391
 30
0.0
 11
-99.534648273186008
 21
49.043291419087659
 31
0.0
  0
LINE
  5
46B
  8
0
  6
CONTINUOUS
 10
-94.724949441907796
 20
50.000000000000391
 30
0.0
 11
-94.915250610629585
 21
49.043291419087659
 31
0.0
  0
LINE
  5
46C
  8
0
  6
CONTINUOUS
 10
-99.534648273186008
 20
49.043291419087659
 30
0.0
 11
-98.992716394874165
 21
48.232233047034008
 31
0.0
  0
LINE
  5
46D
  8
0
  6
CONTINUOUS
 10
-94.915250610629585
 20
49.043291419087659
 30
0.0
 11
-95.457182488941427
 21
48.232233047034008
 31
0.0
  0
LINE
  5
46E
  8
0
  6
CONTINUOUS
 10
-96.268240860995078
 20
47.690301168722172
 30
0.0
 11
-97.224949441907796
 21
47.500000000000377
 31
0.0
  0
LINE
  5
46F
  8
0
  6
CONTINUOUS
 10
-97.224949441907796
 20
47.500000000000377
 30
0.0
 11
-98.181658022820514
 21
47.690301168722172
 31
0.0
  0
LINE
  5
470
  8
0
  6
CONTINUOUS
 10
-98.992716394874165
 20
48.232233047034008
 30
0.0
 11
-98.181658022820514
 21
47.690301168722172
 31
0.0
  0
LINE
  5
471
  8
0
  6
CONTINUOUS
 10
-95.457182488941427
 20
48.232233047034008
 30
0.0
 11
-96.268240860995078
 21
47.690301168722172
 31
0.0
  0
ENDBLK
  5
473
  8
0
  0
BLOCK
  8
0
  2
*U34
 70
     1
 10
0.0
 20
0.0
 30
0.0
  3
*U34
  1

  0
TEXT
  5
475
  8
0
 10
-209.7598561629971
 20
-33.418448444871871
 30
0.0
 40
12.5
  1
Outrigger
  7
ARIAL
  0
ENDBLK
  5
477
  8
0
  0
BLOCK
  8
0
  2
*U35
 70
     1
 10
0.0
 20
0.0
 30
0.0
  3
*U35
  1

  0
SOLID
  5
479
  8
0
  6
CONTINUOUS
 10
475.4287047401358
 20
20.513544642077601
 30
0.0
 11
474.47199615922301
 21
20.323243473355809
 31
0.0
 12
476.38541332104847
 22
20.323243473355809
 32
0.0
 13
476.38541332104847
 23
20.323243473355809
 33
0.0
  0
SOLID
  5
47A
  8
0
  6
CONTINUOUS
 10
474.47199615922301
 20
20.323243473355809
 30
0.0
 11
473.66093778716942
 21
19.78131159504396
 31
0.0
 12
477.19647169310213
 22
19.78131159504396
 32
0.0
 13
477.19647169310213
 23
19.78131159504396
 33
0.0
210
0.0
220
0.0
230
1.0
  0
SOLID
  5
47B
  8
0
  6
CONTINUOUS
 10
-474.47199615922301
 20
20.323243473355809
 30
0.0
 11
-476.38541332104847
 21
20.323243473355809
 31
0.0
 12
-477.19647169310213
 22
19.78131159504396
 32
0.0
 13
-477.19647169310213
 23
19.78131159504396
 33
0.0
210
0.0
220
0.0
230
-1.0
  0
SOLID
  5
47C
  8
0
  6
CONTINUOUS
 10
473.66093778716942
 20
19.78131159504396
 30
0.0
 11
473.1190059088575
 21
18.970253222990319
 31
0.0
 12
477.73840357141398
 22
18.970253222990319
 32
0.0
 13
477.73840357141398
 23
18.970253222990319
 33
0.0
210
0.0
220
0.0
230
1.0
  0
SOLID
  5
47D
  8
0
  6
CONTINUOUS
 10
-473.66093778716942
 20
19.78131159504396
 30
0.0
 11
-477.19647169310213
 21
19.78131159504396
 31
0.0
 12
-477.73840357141398
 22
18.970253222990319
 32
0.0
 13
-477.73840357141398
 23
18.970253222990319
 33
0.0
210
0.0
220
0.0
230
-1.0
  0
SOLID
  5
47E
  8
0
  6
CONTINUOUS
 10
473.1190059088575
 20
18.970253222990319
 30
0.0
 11
472.92870474013569
 21
18.013544642077601
 31
0.0
 12
477.9287047401358
 22
18.013544642077601
 32
0.0
 13
477.9287047401358
 23
18.013544642077601
 33
0.0
210
0.0
220
0.0
230
1.0
  0
SOLID
  5
47F
  8
0
  6
CONTINUOUS
 10
-473.1190059088575
 20
18.970253222990319
 30
0.0
 11
-477.73840357141398
 21
18.970253222990319
 31
0.0
 12
-477.9287047401358
 22
18.013544642077601
 32
0.0
 13
-477.9287047401358
 23
18.013544642077601
 33
0.0
210
0.0
220
0.0
230
-1.0
  0
SOLID
  5
480
  8
0
  6
CONTINUOUS
 10
472.92870474013569
 20
18.013544642077601
 30
0.0
 11
473.1190059088575
 21
17.056836061164869
 31
0.0
 12
477.73840357141398
 22
17.056836061164869
 32
0.0
 13
477.73840357141398
 23
17.056836061164869
 33
0.0
210
0.0
220
0.0
230
1.0
  0
SOLID
  5
481
  8
0
  6
CONTINUOUS
 10
-472.92870474013569
 20
18.013544642077601
 30
0.0
 11
-477.9287047401358
 21
18.013544642077601
 31
0.0
 12
-477.73840357141398
 22
17.056836061164869
 32
0.0
 13
-477.73840357141398
 23
17.056836061164869
 33
0.0
210
0.0
220
0.0
230
-1.0
  0
SOLID
  5
482
  8
0
  6
CONTINUOUS
 10
473.1190059088575
 20
17.056836061164869
 30
0.0
 11
473.66093778716942
 21
16.245777689111229
 31
0.0
 12
477.19647169310213
 22
16.245777689111229
 32
0.0
 13
477.19647169310213
 23
16.245777689111229
 33
0.0
210
0.0
220
0.0
230
1.0
  0
SOLID
  5
483
  8
0
  6
CONTINUOUS
 10
-473.1190059088575
 20
17.056836061164869
 30
0.0
 11
-477.73840357141398
 21
17.056836061164869
 31
0.0
 12
-477.19647169310213
 22
16.245777689111229
 32
0.0
 13
-477.19647169310213
 23
16.245777689111229
 33
0.0
210
0.0
220
0.0
230
-1.0
  0
SOLID
  5
484
  8
0
  6
CONTINUOUS
 10
-474.47199615922301
 20
15.703845810799381
 30
0.0
 11
-476.38541332104847
 21
15.703845810799381
 31
0.0
 12
-475.4287047401358
 22
15.5135446420776
 32
0.0
 13
-475.4287047401358
 23
15.5135446420776
 33
0.0
210
0.0
220
0.0
230
-1.0
  0
SOLID
  5
485
  8
0
  6
CONTINUOUS
 10
473.66093778716942
 20
16.245777689111229
 30
0.0
 11
474.47199615922301
 21
15.703845810799381
 31
0.0
 12
476.38541332104847
 22
15.703845810799381
 32
0.0
 13
476.38541332104847
 23
15.703845810799381
 33
0.0
210
0.0
220
0.0
230
1.0
  0
SOLID
  5
486
  8
0
  6
CONTINUOUS
 10
-473.66093778716942
 20
16.245777689111229
 30
0.0
 11
-477.19647169310213
 21
16.245777689111229
 31
0.0
 12
-476.38541332104847
 22
15.703845810799381
 32
0.0
 13
-476.38541332104847
 23
15.703845810799381
 33
0.0
210
0.0
220
0.0
230
-1.0
  0
LINE
  5
487
  8
0
  6
CONTINUOUS
 10
475.4287047401358
 20
20.513544642077601
 30
0.0
 11
474.47199615922301
 21
20.323243473355809
 31
0.0
  0
LINE
  5
488
  8
0
  6
CONTINUOUS
 10
476.38541332104847
 20
20.323243473355809
 30
0.0
 11
475.4287047401358
 21
20.513544642077601
 31
0.0
  0
LINE
  5
489
  8
0
  6
CONTINUOUS
 10
474.47199615922301
 20
20.323243473355809
 30
0.0
 11
473.66093778716942
 21
19.78131159504396
 31
0.0
  0
LINE
  5
48A
  8
0
  6
CONTINUOUS
 10
476.38541332104847
 20
20.323243473355809
 30
0.0
 11
477.19647169310213
 21
19.78131159504396
 31
0.0
  0
LINE
  5
48B
  8
0
  6
CONTINUOUS
 10
473.66093778716942
 20
19.78131159504396
 30
0.0
 11
473.1190059088575
 21
18.970253222990319
 31
0.0
  0
LINE
  5
48C
  8
0
  6
CONTINUOUS
 10
477.19647169310213
 20
19.78131159504396
 30
0.0
 11
477.73840357141398
 21
18.970253222990319
 31
0.0
  0
LINE
  5
48D
  8
0
  6
CONTINUOUS
 10
473.1190059088575
 20
18.970253222990319
 30
0.0
 11
472.92870474013569
 21
18.013544642077601
 31
0.0
  0
LINE
  5
48E
  8
0
  6
CONTINUOUS
 10
477.73840357141398
 20
18.970253222990319
 30
0.0
 11
477.9287047401358
 21
18.013544642077601
 31
0.0
  0
LINE
  5
48F
  8
0
  6
CONTINUOUS
 10
472.92870474013569
 20
18.013544642077601
 30
0.0
 11
473.1190059088575
 21
17.056836061164869
 31
0.0
  0
LINE
  5
490
  8
0
  6
CONTINUOUS
 10
477.9287047401358
 20
18.013544642077601
 30
0.0
 11
477.73840357141398
 21
17.056836061164869
 31
0.0
  0
LINE
  5
491
  8
0
  6
CONTINUOUS
 10
473.1190059088575
 20
17.056836061164869
 30
0.0
 11
473.66093778716942
 21
16.245777689111229
 31
0.0
  0
LINE
  5
492
  8
0
  6
CONTINUOUS
 10
477.73840357141398
 20
17.056836061164869
 30
0.0
 11
477.19647169310213
 21
16.245777689111229
 31
0.0
  0
LINE
  5
493
  8
0
  6
CONTINUOUS
 10
476.38541332104847
 20
15.703845810799381
 30
0.0
 11
475.4287047401358
 21
15.5135446420776
 31
0.0
  0
LINE
  5
494
  8
0
  6
CONTINUOUS
 10
475.4287047401358
 20
15.5135446420776
 30
0.0
 11
474.47199615922301
 21
15.703845810799381
 31
0.0
  0
LINE
  5
495
  8
0
  6
CONTINUOUS
 10
473.66093778716942
 20
16.245777689111229
 30
0.0
 11
474.47199615922301
 21
15.703845810799381
 31
0.0
  0
LINE
  5
496
  8
0
  6
CONTINUOUS
 10
477.19647169310213
 20
16.245777689111229
 30
0.0
 11
476.38541332104847
 21
15.703845810799381
 31
0.0
  0
ENDBLK
  5
498
  8
0
  0
BLOCK
  8
0
  2
*U36
 70
     1
 10
0.0
 20
0.0
 30
0.0
  3
*U36
  1

  0
TEXT
  5
49A
  8
0
 10
582.10427019358144
 20
-118.025838790265
 30
0.0
 40
12.5
  1
Flying Rafter
  7
ARIAL
  0
ENDBLK
  5
49C
  8
0
  0
BLOCK
  8
0
  2
*U37
 70
     1
 10
0.0
 20
0.0
 30
0.0
  3
*U37
  1

  0
SOLID
  5
49E
  8
0
  6
CONTINUOUS
 10
523.51745389984455
 20
77.326310777553445
 30
0.0
 11
522.56074531893182
 21
77.136009608831671
 31
0.0
 12
524.47416248075729
 22
77.136009608831671
 32
0.0
 13
524.47416248075729
 23
77.136009608831671
 33
0.0
  0
SOLID
  5
49F
  8
0
  6
CONTINUOUS
 10
522.56074531893182
 20
77.136009608831671
 30
0.0
 11
521.74968694687811
 21
76.594077730519828
 31
0.0
 12
525.28522085281088
 22
76.594077730519828
 32
0.0
 13
525.28522085281088
 23
76.594077730519828
 33
0.0
210
0.0
220
0.0
230
1.0
  0
SOLID
  5
4A0
  8
0
  6
CONTINUOUS
 10
-522.56074531893182
 20
77.136009608831671
 30
0.0
 11
-524.47416248075729
 21
77.136009608831671
 31
0.0
 12
-525.28522085281088
 22
76.594077730519828
 32
0.0
 13
-525.28522085281088
 23
76.594077730519828
 33
0.0
210
0.0
220
0.0
230
-1.0
  0
SOLID
  5
4A1
  8
0
  6
CONTINUOUS
 10
521.74968694687811
 20
76.594077730519828
 30
0.0
 11
521.20775506856637
 21
75.783019358466191
 31
0.0
 12
525.82715273112274
 22
75.783019358466191
 32
0.0
 13
525.82715273112274
 23
75.783019358466191
 33
0.0
210
0.0
220
0.0
230
1.0
  0
SOLID
  5
4A2
  8
0
  6
CONTINUOUS
 10
-521.74968694687811
 20
76.594077730519828
 30
0.0
 11
-525.28522085281088
 21
76.594077730519828
 31
0.0
 12
-525.82715273112274
 22
75.783019358466191
 32
0.0
 13
-525.82715273112274
 23
75.783019358466191
 33
0.0
210
0.0
220
0.0
230
-1.0
  0
SOLID
  5
4A3
  8
0
  6
CONTINUOUS
 10
521.20775506856637
 20
75.783019358466191
 30
0.0
 11
521.01745389984455
 21
74.826310777553473
 31
0.0
 12
526.01745389984455
 22
74.826310777553473
 32
0.0
 13
526.01745389984455
 23
74.826310777553473
 33
0.0
210
0.0
220
0.0
230
1.0
  0
SOLID
  5
4A4
  8
0
  6
CONTINUOUS
 10
-521.20775506856637
 20
75.783019358466191
 30
0.0
 11
-525.82715273112274
 21
75.783019358466191
 31
0.0
 12
-526.01745389984455
 22
74.826310777553473
 32
0.0
 13
-526.01745389984455
 23
74.826310777553473
 33
0.0
210
0.0
220
0.0
230
-1.0
  0
SOLID
  5
4A5
  8
0
  6
CONTINUOUS
 10
521.01745389984455
 20
74.826310777553473
 30
0.0
 11
521.20775506856637
 21
73.869602196640756
 31
0.0
 12
525.82715273112274
 22
73.869602196640756
 32
0.0
 13
525.82715273112274
 23
73.869602196640756
 33
0.0
210
0.0
220
0.0
230
1.0
  0
SOLID
  5
4A6
  8
0
  6
CONTINUOUS
 10
-521.01745389984455
 20
74.826310777553473
 30
0.0
 11
-526.01745389984455
 21
74.826310777553473
 31
0.0
 12
-525.82715273112274
 22
73.869602196640756
 32
0.0
 13
-525.82715273112274
 23
73.869602196640756
 33
0.0
210
0.0
220
0.0
230
-1.0
  0
SOLID
  5
4A7
  8
0
  6
CONTINUOUS
 10
521.20775506856637
 20
73.869602196640756
 30
0.0
 11
521.74968694687811
 21
73.058543824587105
 31
0.0
 12
525.28522085281088
 22
73.058543824587105
 32
0.0
 13
525.28522085281088
 23
73.058543824587105
 33
0.0
210
0.0
220
0.0
230
1.0
  0
SOLID
  5
4A8
  8
0
  6
CONTINUOUS
 10
-521.20775506856637
 20
73.869602196640756
 30
0.0
 11
-525.82715273112274
 21
73.869602196640756
 31
0.0
 12
-525.28522085281088
 22
73.058543824587105
 32
0.0
 13
-525.28522085281088
 23
73.058543824587105
 33
0.0
210
0.0
220
0.0
230
-1.0
  0
SOLID
  5
4A9
  8
0
  6
CONTINUOUS
 10
-522.56074531893182
 20
72.516611946275276
 30
0.0
 11
-524.47416248075729
 21
72.516611946275276
 31
0.0
 12
-523.51745389984455
 22
72.326310777553502
 32
0.0
 13
-523.51745389984455
 23
72.326310777553502
 33
0.0
210
0.0
220
0.0
230
-1.0
  0
SOLID
  5
4AA
  8
0
  6
CONTINUOUS
 10
521.74968694687811
 20
73.058543824587105
 30
0.0
 11
522.56074531893182
 21
72.516611946275276
 31
0.0
 12
524.47416248075729
 22
72.516611946275276
 32
0.0
 13
524.47416248075729
 23
72.516611946275276
 33
0.0
210
0.0
220
0.0
230
1.0
  0
SOLID
  5
4AB
  8
0
  6
CONTINUOUS
 10
-521.74968694687811
 20
73.058543824587105
 30
0.0
 11
-525.28522085281088
 21
73.058543824587105
 31
0.0
 12
-524.47416248075729
 22
72.516611946275276
 32
0.0
 13
-524.47416248075729
 23
72.516611946275276
 33
0.0
210
0.0
220
0.0
230
-1.0
  0
LINE
  5
4AC
  8
0
  6
CONTINUOUS
 10
523.51745389984455
 20
77.326310777553445
 30
0.0
 11
522.56074531893182
 21
77.136009608831671
 31
0.0
  0
LINE
  5
4AD
  8
0
  6
CONTINUOUS
 10
524.47416248075729
 20
77.136009608831671
 30
0.0
 11
523.51745389984455
 21
77.326310777553445
 31
0.0
  0
LINE
  5
4AE
  8
0
  6
CONTINUOUS
 10
522.56074531893182
 20
77.136009608831671
 30
0.0
 11
521.74968694687811
 21
76.594077730519828
 31
0.0
  0
LINE
  5
4AF
  8
0
  6
CONTINUOUS
 10
524.47416248075729
 20
77.136009608831671
 30
0.0
 11
525.28522085281088
 21
76.594077730519828
 31
0.0
  0
LINE
  5
4B0
  8
0
  6
CONTINUOUS
 10
521.74968694687811
 20
76.594077730519828
 30
0.0
 11
521.20775506856637
 21
75.783019358466191
 31
0.0
  0
LINE
  5
4B1
  8
0
  6
CONTINUOUS
 10
525.28522085281088
 20
76.594077730519828
 30
0.0
 11
525.82715273112274
 21
75.783019358466191
 31
0.0
  0
LINE
  5
4B2
  8
0
  6
CONTINUOUS
 10
521.20775506856637
 20
75.783019358466191
 30
0.0
 11
521.01745389984455
 21
74.826310777553473
 31
0.0
  0
LINE
  5
4B3
  8
0
  6
CONTINUOUS
 10
525.82715273112274
 20
75.783019358466191
 30
0.0
 11
526.01745389984455
 21
74.826310777553473
 31
0.0
  0
LINE
  5
4B4
  8
0
  6
CONTINUOUS
 10
521.01745389984455
 20
74.826310777553473
 30
0.0
 11
521.20775506856637
 21
73.869602196640756
 31
0.0
  0
LINE
  5
4B5
  8
0
  6
CONTINUOUS
 10
526.01745389984455
 20
74.826310777553473
 30
0.0
 11
525.82715273112274
 21
73.869602196640756
 31
0.0
  0
LINE
  5
4B6
  8
0
  6
CONTINUOUS
 10
521.20775506856637
 20
73.869602196640756
 30
0.0
 11
521.74968694687811
 21
73.058543824587105
 31
0.0
  0
LINE
  5
4B7
  8
0
  6
CONTINUOUS
 10
525.82715273112274
 20
73.869602196640756
 30
0.0
 11
525.28522085281088
 21
73.058543824587105
 31
0.0
  0
LINE
  5
4B8
  8
0
  6
CONTINUOUS
 10
524.47416248075729
 20
72.516611946275276
 30
0.0
 11
523.51745389984455
 21
72.326310777553502
 31
0.0
  0
LINE
  5
4B9
  8
0
  6
CONTINUOUS
 10
523.51745389984455
 20
72.326310777553502
 30
0.0
 11
522.56074531893182
 21
72.516611946275276
 31
0.0
  0
LINE
  5
4BA
  8
0
  6
CONTINUOUS
 10
521.74968694687811
 20
73.058543824587105
 30
0.0
 11
522.56074531893182
 21
72.516611946275276
 31
0.0
  0
LINE
  5
4BB
  8
0
  6
CONTINUOUS
 10
525.28522085281088
 20
73.058543824587105
 30
0.0
 11
524.47416248075729
 21
72.516611946275276
 31
0.0
  0
ENDBLK
  5
4BD
  8
0
  0
BLOCK
  8
0
  2
*U38
 70
     1
 10
0.0
 20
0.0
 30
0.0
  3
*U38
  1

  0
TEXT
  5
4BF
  8
0
 10
582.25774904760601
 20
48.576480301381103
 30
0.0
 40
12.5
  1
Bottom of barge/verge cap
  7
ARIAL
  0
TEXT
  5
4C0
  8
0
 10
582.38564809262652
 20
28.956107225285539
 30
0.0
 40
12.5
  1
nailed to timber fascia
  7
ARIAL
  0
ENDBLK
  5
4C2
  8
0
  0
BLOCK
  8
0
  2
*U39
 70
     1
 10
0.0
 20
0.0
 30
0.0
  3
*U39
  1

  0
SOLID
  5
4C4
  8
0
  6
CONTINUOUS
 10
517.44353966597384
 20
125.88977527258901
 30
0.0
 11
516.48683108506111
 21
125.6994741038672
 31
0.0
 12
518.40024824688658
 22
125.6994741038672
 32
0.0
 13
518.40024824688658
 23
125.6994741038672
 33
0.0
210
0.0
220
0.0
230
1.0
  0
SOLID
  5
4C5
  8
0
  6
CONTINUOUS
 10
516.48683108506111
 20
125.6994741038672
 30
0.0
 11
515.6757727130074
 21
125.1575422255554
 31
0.0
 12
519.21130661894028
 22
125.1575422255554
 32
0.0
 13
519.21130661894028
 23
125.1575422255554
 33
0.0
210
0.0
220
0.0
230
1.0
  0
SOLID
  5
4C6
  8
0
  6
CONTINUOUS
 10
-516.48683108506111
 20
125.6994741038672
 30
0.0
 11
-518.40024824688658
 21
125.6994741038672
 31
0.0
 12
-519.21130661894028
 22
125.1575422255554
 32
0.0
 13
-519.21130661894028
 23
125.1575422255554
 33
0.0
210
0.0
220
0.0
230
-1.0
  0
SOLID
  5
4C7
  8
0
  6
CONTINUOUS
 10
515.6757727130074
 20
125.1575422255554
 30
0.0
 11
515.13384083469555
 21
124.3464838535017
 31
0.0
 12
519.75323849725214
 22
124.3464838535017
 32
0.0
 13
519.75323849725214
 23
124.3464838535017
 33
0.0
210
0.0
220
0.0
230
1.0
  0
SOLID
  5
4C8
  8
0
  6
CONTINUOUS
 10
-515.6757727130074
 20
125.1575422255554
 30
0.0
 11
-519.21130661894028
 21
125.1575422255554
 31
0.0
 12
-519.75323849725214
 22
124.3464838535017
 32
0.0
 13
-519.75323849725214
 23
124.3464838535017
 33
0.0
210
0.0
220
0.0
230
-1.0
  0
SOLID
  5
4C9
  8
0
  6
CONTINUOUS
 10
515.13384083469555
 20
124.3464838535017
 30
0.0
 11
514.94353966597373
 21
123.38977527258901
 31
0.0
 12
519.94353966597384
 22
123.38977527258901
 32
0.0
 13
519.94353966597384
 23
123.38977527258901
 33
0.0
210
0.0
220
0.0
230
1.0
  0
SOLID
  5
4CA
  8
0
  6
CONTINUOUS
 10
-515.13384083469555
 20
124.3464838535017
 30
0.0
 11
-519.75323849725214
 21
124.3464838535017
 31
0.0
 12
-519.94353966597384
 22
123.38977527258901
 32
0.0
 13
-519.94353966597384
 23
123.38977527258901
 33
0.0
210
0.0
220
0.0
230
-1.0
  0
SOLID
  5
4CB
  8
0
  6
CONTINUOUS
 10
514.94353966597373
 20
123.38977527258901
 30
0.0
 11
515.13384083469555
 21
122.4330666916762
 31
0.0
 12
519.75323849725214
 22
122.4330666916762
 32
0.0
 13
519.75323849725214
 23
122.4330666916762
 33
0.0
210
0.0
220
0.0
230
1.0
  0
SOLID
  5
4CC
  8
0
  6
CONTINUOUS
 10
-514.94353966597373
 20
123.38977527258901
 30
0.0
 11
-519.94353966597384
 21
123.38977527258901
 31
0.0
 12
-519.75323849725214
 22
122.4330666916762
 32
0.0
 13
-519.75323849725214
 23
122.4330666916762
 33
0.0
210
0.0
220
0.0
230
-1.0
  0
SOLID
  5
4CD
  8
0
  6
CONTINUOUS
 10
515.13384083469555
 20
122.4330666916762
 30
0.0
 11
515.6757727130074
 21
121.62200831962249
 31
0.0
 12
519.21130661894028
 22
121.62200831962249
 32
0.0
 13
519.21130661894028
 23
121.62200831962249
 33
0.0
210
0.0
220
0.0
230
1.0
  0
SOLID
  5
4CE
  8
0
  6
CONTINUOUS
 10
-515.13384083469555
 20
122.4330666916762
 30
0.0
 11
-519.75323849725214
 21
122.4330666916762
 31
0.0
 12
-519.21130661894028
 22
121.62200831962249
 32
0.0
 13
-519.21130661894028
 23
121.62200831962249
 33
0.0
210
0.0
220
0.0
230
-1.0
  0
SOLID
  5
4CF
  8
0
  6
CONTINUOUS
 10
-516.48683108506111
 20
121.08007644131069
 30
0.0
 11
-518.40024824688658
 21
121.08007644131069
 31
0.0
 12
-517.44353966597384
 22
120.88977527258891
 32
0.0
 13
-517.44353966597384
 23
120.88977527258891
 33
0.0
210
0.0
220
0.0
230
-1.0
  0
SOLID
  5
4D0
  8
0
  6
CONTINUOUS
 10
515.6757727130074
 20
121.62200831962249
 30
0.0
 11
516.48683108506111
 21
121.08007644131069
 31
0.0
 12
518.40024824688658
 22
121.08007644131069
 32
0.0
 13
518.40024824688658
 23
121.08007644131069
 33
0.0
  0
SOLID
  5
4D1
  8
0
  6
CONTINUOUS
 10
-515.6757727130074
 20
121.62200831962249
 30
0.0
 11
-519.21130661894028
 21
121.62200831962249
 31
0.0
 12
-518.40024824688658
 22
121.08007644131069
 32
0.0
 13
-518.40024824688658
 23
121.08007644131069
 33
0.0
210
0.0
220
0.0
230
-1.0
  0
LINE
  5
4D2
  8
0
  6
CONTINUOUS
 10
517.44353966597384
 20
125.88977527258901
 30
0.0
 11
516.48683108506111
 21
125.6994741038672
 31
0.0
  0
LINE
  5
4D3
  8
0
  6
CONTINUOUS
 10
518.40024824688658
 20
125.6994741038672
 30
0.0
 11
517.44353966597384
 21
125.88977527258901
 31
0.0
  0
LINE
  5
4D4
  8
0
  6
CONTINUOUS
 10
516.48683108506111
 20
125.6994741038672
 30
0.0
 11
515.6757727130074
 21
125.1575422255554
 31
0.0
  0
LINE
  5
4D5
  8
0
  6
CONTINUOUS
 10
518.40024824688658
 20
125.6994741038672
 30
0.0
 11
519.21130661894028
 21
125.1575422255554
 31
0.0
  0
LINE
  5
4D6
  8
0
  6
CONTINUOUS
 10
515.6757727130074
 20
125.1575422255554
 30
0.0
 11
515.13384083469555
 21
124.3464838535017
 31
0.0
  0
LINE
  5
4D7
  8
0
  6
CONTINUOUS
 10
519.21130661894028
 20
125.1575422255554
 30
0.0
 11
519.75323849725214
 21
124.3464838535017
 31
0.0
  0
LINE
  5
4D8
  8
0
  6
CONTINUOUS
 10
515.13384083469555
 20
124.3464838535017
 30
0.0
 11
514.94353966597373
 21
123.38977527258901
 31
0.0
  0
LINE
  5
4D9
  8
0
  6
CONTINUOUS
 10
519.75323849725214
 20
124.3464838535017
 30
0.0
 11
519.94353966597384
 21
123.38977527258901
 31
0.0
  0
LINE
  5
4DA
  8
0
  6
CONTINUOUS
 10
514.94353966597373
 20
123.38977527258901
 30
0.0
 11
515.13384083469555
 21
122.4330666916762
 31
0.0
  0
LINE
  5
4DB
  8
0
  6
CONTINUOUS
 10
519.94353966597384
 20
123.38977527258901
 30
0.0
 11
519.75323849725214
 21
122.4330666916762
 31
0.0
  0
LINE
  5
4DC
  8
0
  6
CONTINUOUS
 10
515.13384083469555
 20
122.4330666916762
 30
0.0
 11
515.6757727130074
 21
121.62200831962249
 31
0.0
  0
LINE
  5
4DD
  8
0
  6
CONTINUOUS
 10
519.75323849725214
 20
122.4330666916762
 30
0.0
 11
519.21130661894028
 21
121.62200831962249
 31
0.0
  0
LINE
  5
4DE
  8
0
  6
CONTINUOUS
 10
518.40024824688658
 20
121.08007644131069
 30
0.0
 11
517.44353966597384
 21
120.88977527258891
 31
0.0
  0
LINE
  5
4DF
  8
0
  6
CONTINUOUS
 10
517.44353966597384
 20
120.88977527258891
 30
0.0
 11
516.48683108506111
 21
121.08007644131069
 31
0.0
  0
LINE
  5
4E0
  8
0
  6
CONTINUOUS
 10
515.6757727130074
 20
121.62200831962249
 30
0.0
 11
516.48683108506111
 21
121.08007644131069
 31
0.0
  0
LINE
  5
4E1
  8
0
  6
CONTINUOUS
 10
519.21130661894028
 20
121.62200831962249
 30
0.0
 11
518.40024824688658
 21
121.08007644131069
 31
0.0
  0
ENDBLK
  5
4E3
  8
0
  0
BLOCK
  8
0
  2
*U40
 70
     1
 10
0.0
 20
0.0
 30
0.0
  3
*U40
  1

  0
TEXT
  5
4E5
  8
0
 10
581.56197824269475
 20
98.657563948838629
 30
0.0
 40
12.5
  1
905 CF Barge Channel
  7
ARIAL
  0
ENDBLK
  5
4E7
  8
0
  0
BLOCK
  8
0
  2
*U41
 70
     1
 10
0.0
 20
0.0
 30
0.0
  3
*U41
  1

  0
SOLID
  5
4E9
  8
0
  6
CONTINUOUS
 10
16.483701512987839
 20
122.9080480157685
 30
0.0
 11
15.52699293207511
 21
122.7177468470467
 31
0.0
 12
17.44041009390056
 22
122.7177468470467
 32
0.0
 13
17.44041009390056
 23
122.7177468470467
 33
0.0
210
0.0
220
0.0
230
1.0
  0
SOLID
  5
4EA
  8
0
  6
CONTINUOUS
 10
15.52699293207511
 20
122.7177468470467
 30
0.0
 11
14.71593456002147
 21
122.1758149687349
 31
0.0
 12
18.251468465954211
 22
122.1758149687349
 32
0.0
 13
18.251468465954211
 23
122.1758149687349
 33
0.0
210
0.0
220
0.0
230
1.0
  0
SOLID
  5
4EB
  8
0
  6
CONTINUOUS
 10
-15.52699293207511
 20
122.7177468470467
 30
0.0
 11
-17.44041009390056
 21
122.7177468470467
 31
0.0
 12
-18.251468465954211
 22
122.1758149687349
 32
0.0
 13
-18.251468465954211
 23
122.1758149687349
 33
0.0
210
0.0
220
0.0
230
-1.0
  0
SOLID
  5
4EC
  8
0
  6
CONTINUOUS
 10
14.71593456002147
 20
122.1758149687349
 30
0.0
 11
14.17400268170962
 21
121.3647565966812
 31
0.0
 12
18.793400344266072
 22
121.3647565966812
 32
0.0
 13
18.793400344266072
 23
121.3647565966812
 33
0.0
  0
SOLID
  5
4ED
  8
0
  6
CONTINUOUS
 10
-14.71593456002147
 20
122.1758149687349
 30
0.0
 11
-18.251468465954211
 21
122.1758149687349
 31
0.0
 12
-18.793400344266072
 22
121.3647565966812
 32
0.0
 13
-18.793400344266072
 23
121.3647565966812
 33
0.0
210
0.0
220
0.0
230
-1.0
  0
SOLID
  5
4EE
  8
0
  6
CONTINUOUS
 10
14.17400268170962
 20
121.3647565966812
 30
0.0
 11
13.983701512987841
 21
120.4080480157685
 31
0.0
 12
18.983701512987839
 22
120.4080480157685
 32
0.0
 13
18.983701512987839
 23
120.4080480157685
 33
0.0
210
0.0
220
0.0
230
1.0
  0
SOLID
  5
4EF
  8
0
  6
CONTINUOUS
 10
-14.17400268170962
 20
121.3647565966812
 30
0.0
 11
-18.793400344266061
 21
121.3647565966812
 31
0.0
 12
-18.983701512987839
 22
120.4080480157685
 32
0.0
 13
-18.983701512987839
 23
120.4080480157685
 33
0.0
210
0.0
220
0.0
230
-1.0
  0
SOLID
  5
4F0
  8
0
  6
CONTINUOUS
 10
13.983701512987841
 20
120.4080480157685
 30
0.0
 11
14.17400268170962
 21
119.4513394348558
 31
0.0
 12
18.79340034426605
 22
119.4513394348558
 32
0.0
 13
18.79340034426605
 23
119.4513394348558
 33
0.0
210
0.0
220
0.0
230
1.0
  0
SOLID
  5
4F1
  8
0
  6
CONTINUOUS
 10
-13.983701512987841
 20
120.4080480157685
 30
0.0
 11
-18.983701512987839
 21
120.4080480157685
 31
0.0
 12
-18.79340034426605
 22
119.4513394348558
 32
0.0
 13
-18.79340034426605
 23
119.4513394348558
 33
0.0
210
0.0
220
0.0
230
-1.0
  0
SOLID
  5
4F2
  8
0
  6
CONTINUOUS
 10
14.17400268170962
 20
119.4513394348558
 30
0.0
 11
14.71593456002147
 21
118.6402810628022
 31
0.0
 12
18.251468465954211
 22
118.6402810628022
 32
0.0
 13
18.251468465954211
 23
118.6402810628022
 33
0.0
210
0.0
220
0.0
230
1.0
  0
SOLID
  5
4F3
  8
0
  6
CONTINUOUS
 10
-14.17400268170962
 20
119.4513394348558
 30
0.0
 11
-18.79340034426604
 21
119.4513394348558
 31
0.0
 12
-18.251468465954211
 22
118.6402810628022
 32
0.0
 13
-18.251468465954211
 23
118.6402810628022
 33
0.0
210
0.0
220
0.0
230
-1.0
  0
SOLID
  5
4F4
  8
0
  6
CONTINUOUS
 10
-15.52699293207511
 20
118.0983491844903
 30
0.0
 11
-17.44041009390056
 21
118.0983491844903
 31
0.0
 12
-16.483701512987839
 22
117.9080480157685
 32
0.0
 13
-16.483701512987839
 23
117.9080480157685
 33
0.0
210
0.0
220
0.0
230
-1.0
  0
SOLID
  5
4F5
  8
0
  6
CONTINUOUS
 10
14.71593456002147
 20
118.6402810628022
 30
0.0
 11
15.52699293207511
 21
118.0983491844903
 31
0.0
 12
17.44041009390056
 22
118.0983491844903
 32
0.0
 13
17.44041009390056
 23
118.0983491844903
 33
0.0
210
0.0
220
0.0
230
1.0
  0
SOLID
  5
4F6
  8
0
  6
CONTINUOUS
 10
-14.71593456002147
 20
118.6402810628022
 30
0.0
 11
-18.251468465954211
 21
118.6402810628022
 31
0.0
 12
-17.44041009390056
 22
118.0983491844903
 32
0.0
 13
-17.44041009390056
 23
118.0983491844903
 33
0.0
210
0.0
220
0.0
230
-1.0
  0
LINE
  5
4F7
  8
0
  6
CONTINUOUS
 10
16.483701512987839
 20
122.9080480157685
 30
0.0
 11
15.52699293207511
 21
122.7177468470467
 31
0.0
  0
LINE
  5
4F8
  8
0
  6
CONTINUOUS
 10
17.44041009390056
 20
122.7177468470467
 30
0.0
 11
16.483701512987839
 21
122.9080480157685
 31
0.0
  0
LINE
  5
4F9
  8
0
  6
CONTINUOUS
 10
15.52699293207511
 20
122.7177468470467
 30
0.0
 11
14.71593456002147
 21
122.1758149687349
 31
0.0
  0
LINE
  5
4FA
  8
0
  6
CONTINUOUS
 10
17.44041009390056
 20
122.7177468470467
 30
0.0
 11
18.251468465954211
 21
122.1758149687349
 31
0.0
  0
LINE
  5
4FB
  8
0
  6
CONTINUOUS
 10
14.71593456002147
 20
122.1758149687349
 30
0.0
 11
14.17400268170962
 21
121.3647565966812
 31
0.0
  0
LINE
  5
4FC
  8
0
  6
CONTINUOUS
 10
18.251468465954211
 20
122.1758149687349
 30
0.0
 11
18.793400344266072
 21
121.3647565966812
 31
0.0
  0
LINE
  5
4FD
  8
0
  6
CONTINUOUS
 10
14.17400268170962
 20
121.3647565966812
 30
0.0
 11
13.983701512987841
 21
120.4080480157685
 31
0.0
  0
LINE
  5
4FE
  8
0
  6
CONTINUOUS
 10
18.793400344266061
 20
121.3647565966812
 30
0.0
 11
18.983701512987839
 21
120.4080480157685
 31
0.0
  0
LINE
  5
4FF
  8
0
  6
CONTINUOUS
 10
13.983701512987841
 20
120.4080480157685
 30
0.0
 11
14.17400268170962
 21
119.4513394348558
 31
0.0
  0
LINE
  5
500
  8
0
  6
CONTINUOUS
 10
18.983701512987839
 20
120.4080480157685
 30
0.0
 11
18.79340034426605
 21
119.4513394348558
 31
0.0
  0
LINE
  5
501
  8
0
  6
CONTINUOUS
 10
14.17400268170962
 20
119.4513394348558
 30
0.0
 11
14.71593456002147
 21
118.6402810628022
 31
0.0
  0
LINE
  5
502
  8
0
  6
CONTINUOUS
 10
18.79340034426604
 20
119.4513394348558
 30
0.0
 11
18.251468465954211
 21
118.6402810628022
 31
0.0
  0
LINE
  5
503
  8
0
  6
CONTINUOUS
 10
17.44041009390056
 20
118.0983491844903
 30
0.0
 11
16.483701512987839
 21
117.9080480157685
 31
0.0
  0
LINE
  5
504
  8
0
  6
CONTINUOUS
 10
16.483701512987839
 20
117.9080480157685
 30
0.0
 11
15.52699293207511
 21
118.0983491844903
 31
0.0
  0
LINE
  5
505
  8
0
  6
CONTINUOUS
 10
14.71593456002147
 20
118.6402810628022
 30
0.0
 11
15.52699293207511
 21
118.0983491844903
 31
0.0
  0
LINE
  5
506
  8
0
  6
CONTINUOUS
 10
18.251468465954211
 20
118.6402810628022
 30
0.0
 11
17.44041009390056
 21
118.0983491844903
 31
0.0
  0
ENDBLK
  5
508
  8
0
  0
BLOCK
  8
0
  2
*U42
 70
     1
 10
0.0
 20
0.0
 30
0.0
  3
*U42
  1

  0
TEXT
  5
50A
  8
0
 10
-210.28850554908161
 20
260.71504086645672
 30
0.0
 40
12.5
  1
Underlay
  7
ARIAL
  0
ENDBLK
  5
50C
  8
0
  0
BLOCK
  8
0
  2
*U43
 70
     1
 10
0.0
 20
0.0
 30
0.0
  3
*U43
  1

  0
SOLID
  5
50E
  8
0
  6
CONTINUOUS
 10
-31.106703976503031
 20
116.27888224415101
 30
0.0
 11
-32.063412557415759
 21
116.0885810754292
 31
0.0
 12
-30.149995395590299
 22
116.0885810754292
 32
0.0
 13
-30.149995395590299
 23
116.0885810754292
 33
0.0
210
0.0
220
0.0
230
1.0
  0
SOLID
  5
50F
  8
0
  6
CONTINUOUS
 10
-32.063412557415759
 20
116.0885810754292
 30
0.0
 11
-32.874470929469403
 21
115.5466491971174
 31
0.0
 12
-29.338937023536658
 22
115.5466491971174
 32
0.0
 13
-29.338937023536658
 23
115.5466491971174
 33
0.0
210
0.0
220
0.0
230
1.0
  0
SOLID
  5
510
  8
0
  6
CONTINUOUS
 10
32.063412557415759
 20
116.0885810754292
 30
0.0
 11
30.149995395590299
 21
116.0885810754292
 31
0.0
 12
29.338937023536658
 22
115.5466491971174
 32
0.0
 13
29.338937023536658
 23
115.5466491971174
 33
0.0
210
0.0
220
0.0
230
-1.0
  0
SOLID
  5
511
  8
0
  6
CONTINUOUS
 10
-32.874470929469403
 20
115.5466491971174
 30
0.0
 11
-33.416402807781239
 21
114.7355908250637
 31
0.0
 12
-28.797005145224791
 22
114.7355908250637
 32
0.0
 13
-28.797005145224791
 23
114.7355908250637
 33
0.0
210
0.0
220
0.0
230
1.0
  0
SOLID
  5
512
  8
0
  6
CONTINUOUS
 10
32.874470929469403
 20
115.5466491971174
 30
0.0
 11
29.338937023536658
 21
115.5466491971174
 31
0.0
 12
28.797005145224791
 22
114.7355908250637
 32
0.0
 13
28.797005145224791
 23
114.7355908250637
 33
0.0
210
0.0
220
0.0
230
-1.0
  0
SOLID
  5
513
  8
0
  6
CONTINUOUS
 10
-33.416402807781239
 20
114.7355908250637
 30
0.0
 11
-33.606703976503027
 21
113.77888224415101
 31
0.0
 12
-28.60670397650302
 22
113.77888224415101
 32
0.0
 13
-28.60670397650302
 23
113.77888224415101
 33
0.0
210
0.0
220
0.0
230
1.0
  0
SOLID
  5
514
  8
0
  6
CONTINUOUS
 10
33.416402807781239
 20
114.7355908250637
 30
0.0
 11
28.797005145224801
 21
114.7355908250637
 31
0.0
 12
28.60670397650302
 22
113.77888224415101
 32
0.0
 13
28.60670397650302
 23
113.77888224415101
 33
0.0
210
0.0
220
0.0
230
-1.0
  0
SOLID
  5
515
  8
0
  6
CONTINUOUS
 10
-33.606703976503027
 20
113.77888224415101
 30
0.0
 11
-33.416402807781239
 21
112.8221736632383
 31
0.0
 12
-28.797005145224809
 22
112.8221736632383
 32
0.0
 13
-28.797005145224809
 23
112.8221736632383
 33
0.0
210
0.0
220
0.0
230
1.0
  0
SOLID
  5
516
  8
0
  6
CONTINUOUS
 10
33.606703976503027
 20
113.77888224415101
 30
0.0
 11
28.60670397650302
 21
113.77888224415101
 31
0.0
 12
28.797005145224809
 22
112.8221736632383
 32
0.0
 13
28.797005145224809
 23
112.8221736632383
 33
0.0
210
0.0
220
0.0
230
-1.0
  0
SOLID
  5
517
  8
0
  6
CONTINUOUS
 10
-33.416402807781239
 20
112.8221736632383
 30
0.0
 11
-32.874470929469403
 21
112.01111529118459
 31
0.0
 12
-29.338937023536658
 22
112.01111529118459
 32
0.0
 13
-29.338937023536658
 23
112.01111529118459
 33
0.0
210
0.0
220
0.0
230
1.0
  0
SOLID
  5
518
  8
0
  6
CONTINUOUS
 10
33.416402807781239
 20
112.8221736632383
 30
0.0
 11
28.797005145224819
 21
112.8221736632383
 31
0.0
 12
29.338937023536658
 22
112.01111529118459
 32
0.0
 13
29.338937023536658
 23
112.01111529118459
 33
0.0
210
0.0
220
0.0
230
-1.0
  0
SOLID
  5
519
  8
0
  6
CONTINUOUS
 10
32.063412557415752
 20
111.46918341287279
 30
0.0
 11
30.149995395590299
 21
111.46918341287279
 31
0.0
 12
31.106703976503031
 22
111.27888224415101
 32
0.0
 13
31.106703976503031
 23
111.27888224415101
 33
0.0
210
0.0
220
0.0
230
-1.0
  0
SOLID
  5
51A
  8
0
  6
CONTINUOUS
 10
-32.874470929469403
 20
112.01111529118459
 30
0.0
 11
-32.063412557415752
 21
111.46918341287279
 31
0.0
 12
-30.149995395590299
 22
111.46918341287279
 32
0.0
 13
-30.149995395590299
 23
111.46918341287279
 33
0.0
210
0.0
220
0.0
230
1.0
  0
SOLID
  5
51B
  8
0
  6
CONTINUOUS
 10
32.874470929469403
 20
112.01111529118459
 30
0.0
 11
29.338937023536658
 21
112.01111529118459
 31
0.0
 12
30.149995395590299
 22
111.46918341287279
 32
0.0
 13
30.149995395590299
 23
111.46918341287279
 33
0.0
210
0.0
220
0.0
230
-1.0
  0
LINE
  5
51C
  8
0
  6
CONTINUOUS
 10
-31.106703976503031
 20
116.27888224415101
 30
0.0
 11
-32.063412557415759
 21
116.0885810754292
 31
0.0
  0
LINE
  5
51D
  8
0
  6
CONTINUOUS
 10
-30.149995395590299
 20
116.0885810754292
 30
0.0
 11
-31.106703976503031
 21
116.27888224415101
 31
0.0
  0
LINE
  5
51E
  8
0
  6
CONTINUOUS
 10
-32.063412557415759
 20
116.0885810754292
 30
0.0
 11
-32.874470929469403
 21
115.5466491971174
 31
0.0
  0
LINE
  5
51F
  8
0
  6
CONTINUOUS
 10
-30.149995395590299
 20
116.0885810754292
 30
0.0
 11
-29.338937023536658
 21
115.5466491971174
 31
0.0
  0
LINE
  5
520
  8
0
  6
CONTINUOUS
 10
-32.874470929469403
 20
115.5466491971174
 30
0.0
 11
-33.416402807781239
 21
114.7355908250637
 31
0.0
  0
LINE
  5
521
  8
0
  6
CONTINUOUS
 10
-29.338937023536658
 20
115.5466491971174
 30
0.0
 11
-28.797005145224791
 21
114.7355908250637
 31
0.0
  0
LINE
  5
522
  8
0
  6
CONTINUOUS
 10
-33.416402807781239
 20
114.7355908250637
 30
0.0
 11
-33.606703976503027
 21
113.77888224415101
 31
0.0
  0
LINE
  5
523
  8
0
  6
CONTINUOUS
 10
-28.797005145224801
 20
114.7355908250637
 30
0.0
 11
-28.60670397650302
 21
113.77888224415101
 31
0.0
  0
LINE
  5
524
  8
0
  6
CONTINUOUS
 10
-33.606703976503027
 20
113.77888224415101
 30
0.0
 11
-33.416402807781239
 21
112.8221736632383
 31
0.0
  0
LINE
  5
525
  8
0
  6
CONTINUOUS
 10
-28.60670397650302
 20
113.77888224415101
 30
0.0
 11
-28.797005145224809
 21
112.8221736632383
 31
0.0
  0
LINE
  5
526
  8
0
  6
CONTINUOUS
 10
-33.416402807781239
 20
112.8221736632383
 30
0.0
 11
-32.874470929469403
 21
112.01111529118459
 31
0.0
  0
LINE
  5
527
  8
0
  6
CONTINUOUS
 10
-28.797005145224819
 20
112.8221736632383
 30
0.0
 11
-29.338937023536658
 21
112.01111529118459
 31
0.0
  0
LINE
  5
528
  8
0
  6
CONTINUOUS
 10
-30.149995395590299
 20
111.46918341287279
 30
0.0
 11
-31.106703976503031
 21
111.27888224415101
 31
0.0
  0
LINE
  5
529
  8
0
  6
CONTINUOUS
 10
-31.106703976503031
 20
111.27888224415101
 30
0.0
 11
-32.063412557415752
 21
111.46918341287279
 31
0.0
  0
LINE
  5
52A
  8
0
  6
CONTINUOUS
 10
-32.874470929469403
 20
112.01111529118459
 30
0.0
 11
-32.063412557415752
 21
111.46918341287279
 31
0.0
  0
LINE
  5
52B
  8
0
  6
CONTINUOUS
 10
-29.338937023536658
 20
112.01111529118459
 30
0.0
 11
-30.149995395590299
 21
111.46918341287279
 31
0.0
  0
ENDBLK
  5
52D
  8
0
  0
BLOCK
  8
0
  2
*U44
 70
     1
 10
0.0
 20
0.0
 30
0.0
  3
*U44
  1

  0
TEXT
  5
52F
  8
0
 10
-210.26292574007761
 20
212.2992316949794
 30
0.0
 40
12.5
  1
Plywood underlay 15mm
  7
ARIAL
  0
TEXT
  5
530
  8
0
 10
-209.2226801739111
 20
192.67885861888379
 30
0.0
 40
12.5
  1
thickness minimum
  7
ARIAL
  0
ENDBLK
  5
532
  8
0
  0
BLOCK
  8
0
  2
*U45
 70
     1
 10
0.0
 20
0.0
 30
0.0
  3
*U45
  1

  0
SOLID
  5
534
  8
0
  6
CONTINUOUS
 10
414.80110512497521
 20
-4.8438215980009094
 30
0.0
 11
413.84439654406248
 21
-5.0341227667226871
 31
0.0
 12
415.75781370588783
 22
-5.0341227667226871
 32
0.0
 13
415.75781370588783
 23
-5.0341227667226871
 33
0.0
210
0.0
220
0.0
230
1.0
  0
SOLID
  5
535
  8
0
  6
CONTINUOUS
 10
413.84439654406248
 20
-5.0341227667226871
 30
0.0
 11
413.03333817200883
 21
-5.5760546450345219
 31
0.0
 12
416.56887207794148
 22
-5.5760546450345219
 32
0.0
 13
416.56887207794148
 23
-5.5760546450345219
 33
0.0
210
0.0
220
0.0
230
1.0
  0
SOLID
  5
536
  8
0
  6
CONTINUOUS
 10
-413.84439654406248
 20
-5.0341227667226871
 30
0.0
 11
-415.75781370588783
 21
-5.0341227667226871
 31
0.0
 12
-416.56887207794148
 22
-5.5760546450345219
 32
0.0
 13
-416.56887207794148
 23
-5.5760546450345219
 33
0.0
210
0.0
220
0.0
230
-1.0
  0
SOLID
  5
537
  8
0
  6
CONTINUOUS
 10
413.03333817200883
 20
-5.5760546450345219
 30
0.0
 11
412.49140629369703
 21
-6.387113017088148
 31
0.0
 12
417.11080395625328
 22
-6.387113017088148
 32
0.0
 13
417.11080395625328
 23
-6.387113017088148
 33
0.0
210
0.0
220
0.0
230
1.0
  0
SOLID
  5
538
  8
0
  6
CONTINUOUS
 10
-413.03333817200883
 20
-5.5760546450345219
 30
0.0
 11
-416.56887207794148
 21
-5.5760546450345219
 31
0.0
 12
-417.11080395625328
 22
-6.387113017088148
 32
0.0
 13
-417.11080395625328
 23
-6.387113017088148
 33
0.0
210
0.0
220
0.0
230
-1.0
  0
SOLID
  5
539
  8
0
  6
CONTINUOUS
 10
412.49140629369703
 20
-6.387113017088148
 30
0.0
 11
412.30110512497521
 21
-7.3438215980008508
 31
0.0
 12
417.30110512497509
 22
-7.3438215980008508
 32
0.0
 13
417.30110512497509
 23
-7.3438215980008508
 33
0.0
210
0.0
220
0.0
230
1.0
  0
SOLID
  5
53A
  8
0
  6
CONTINUOUS
 10
-412.49140629369703
 20
-6.387113017088148
 30
0.0
 11
-417.11080395625328
 21
-6.387113017088148
 31
0.0
 12
-417.30110512497509
 22
-7.3438215980008508
 32
0.0
 13
-417.30110512497509
 23
-7.3438215980008508
 33
0.0
210
0.0
220
0.0
230
-1.0
  0
SOLID
  5
53B
  8
0
  6
CONTINUOUS
 10
412.30110512497521
 20
-7.3438215980008508
 30
0.0
 11
412.49140629369703
 21
-8.3005301789135544
 31
0.0
 12
417.11080395625328
 22
-8.3005301789135544
 32
0.0
 13
417.11080395625328
 23
-8.3005301789135544
 33
0.0
210
0.0
220
0.0
230
1.0
  0
SOLID
  5
53C
  8
0
  6
CONTINUOUS
 10
-412.30110512497521
 20
-7.3438215980008508
 30
0.0
 11
-417.30110512497509
 21
-7.3438215980008508
 31
0.0
 12
-417.11080395625328
 22
-8.3005301789135544
 32
0.0
 13
-417.11080395625328
 23
-8.3005301789135544
 33
0.0
210
0.0
220
0.0
230
-1.0
  0
SOLID
  5
53D
  8
0
  6
CONTINUOUS
 10
412.49140629369703
 20
-8.3005301789135544
 30
0.0
 11
413.03333817200883
 21
-9.1115885509671806
 31
0.0
 12
416.56887207794148
 22
-9.1115885509671806
 32
0.0
 13
416.56887207794148
 23
-9.1115885509671806
 33
0.0
210
0.0
220
0.0
230
1.0
  0
SOLID
  5
53E
  8
0
  6
CONTINUOUS
 10
-412.49140629369703
 20
-8.3005301789135544
 30
0.0
 11
-417.11080395625328
 21
-8.3005301789135544
 31
0.0
 12
-416.56887207794148
 22
-9.1115885509671806
 32
0.0
 13
-416.56887207794148
 23
-9.1115885509671806
 33
0.0
210
0.0
220
0.0
230
-1.0
  0
SOLID
  5
53F
  8
0
  6
CONTINUOUS
 10
-413.84439654406248
 20
-9.6535204292790162
 30
0.0
 11
-415.75781370588783
 21
-9.6535204292790162
 31
0.0
 12
-414.80110512497521
 22
-9.8438215980007922
 32
0.0
 13
-414.80110512497521
 23
-9.8438215980007922
 33
0.0
210
0.0
220
0.0
230
-1.0
  0
SOLID
  5
540
  8
0
  6
CONTINUOUS
 10
413.03333817200883
 20
-9.1115885509671806
 30
0.0
 11
413.84439654406248
 21
-9.6535204292790162
 31
0.0
 12
415.75781370588783
 22
-9.6535204292790162
 32
0.0
 13
415.75781370588783
 23
-9.6535204292790162
 33
0.0
  0
SOLID
  5
541
  8
0
  6
CONTINUOUS
 10
-413.03333817200883
 20
-9.1115885509671806
 30
0.0
 11
-416.56887207794148
 21
-9.1115885509671806
 31
0.0
 12
-415.75781370588783
 22
-9.6535204292790162
 32
0.0
 13
-415.75781370588783
 23
-9.6535204292790162
 33
0.0
210
0.0
220
0.0
230
-1.0
  0
LINE
  5
542
  8
0
  6
CONTINUOUS
 10
414.80110512497521
 20
-4.8438215980009094
 30
0.0
 11
413.84439654406248
 21
-5.0341227667226871
 31
0.0
  0
LINE
  5
543
  8
0
  6
CONTINUOUS
 10
415.75781370588783
 20
-5.0341227667226871
 30
0.0
 11
414.80110512497521
 21
-4.8438215980009094
 31
0.0
  0
LINE
  5
544
  8
0
  6
CONTINUOUS
 10
413.84439654406248
 20
-5.0341227667226871
 30
0.0
 11
413.03333817200883
 21
-5.5760546450345219
 31
0.0
  0
LINE
  5
545
  8
0
  6
CONTINUOUS
 10
415.75781370588783
 20
-5.0341227667226871
 30
0.0
 11
416.56887207794148
 21
-5.5760546450345219
 31
0.0
  0
LINE
  5
546
  8
0
  6
CONTINUOUS
 10
413.03333817200883
 20
-5.5760546450345219
 30
0.0
 11
412.49140629369703
 21
-6.387113017088148
 31
0.0
  0
LINE
  5
547
  8
0
  6
CONTINUOUS
 10
416.56887207794148
 20
-5.5760546450345219
 30
0.0
 11
417.11080395625328
 21
-6.387113017088148
 31
0.0
  0
LINE
  5
548
  8
0
  6
CONTINUOUS
 10
412.49140629369703
 20
-6.387113017088148
 30
0.0
 11
412.30110512497521
 21
-7.3438215980008508
 31
0.0
  0
LINE
  5
549
  8
0
  6
CONTINUOUS
 10
417.11080395625328
 20
-6.387113017088148
 30
0.0
 11
417.30110512497509
 21
-7.3438215980008508
 31
0.0
  0
LINE
  5
54A
  8
0
  6
CONTINUOUS
 10
412.30110512497521
 20
-7.3438215980008508
 30
0.0
 11
412.49140629369703
 21
-8.3005301789135544
 31
0.0
  0
LINE
  5
54B
  8
0
  6
CONTINUOUS
 10
417.30110512497509
 20
-7.3438215980008508
 30
0.0
 11
417.11080395625328
 21
-8.3005301789135544
 31
0.0
  0
LINE
  5
54C
  8
0
  6
CONTINUOUS
 10
412.49140629369703
 20
-8.3005301789135544
 30
0.0
 11
413.03333817200883
 21
-9.1115885509671806
 31
0.0
  0
LINE
  5
54D
  8
0
  6
CONTINUOUS
 10
417.11080395625328
 20
-8.3005301789135544
 30
0.0
 11
416.56887207794148
 21
-9.1115885509671806
 31
0.0
  0
LINE
  5
54E
  8
0
  6
CONTINUOUS
 10
415.75781370588783
 20
-9.6535204292790162
 30
0.0
 11
414.80110512497521
 21
-9.8438215980007922
 31
0.0
  0
LINE
  5
54F
  8
0
  6
CONTINUOUS
 10
414.80110512497521
 20
-9.8438215980007922
 30
0.0
 11
413.84439654406248
 21
-9.6535204292790162
 31
0.0
  0
LINE
  5
550
  8
0
  6
CONTINUOUS
 10
413.03333817200883
 20
-9.1115885509671806
 30
0.0
 11
413.84439654406248
 21
-9.6535204292790162
 31
0.0
  0
LINE
  5
551
  8
0
  6
CONTINUOUS
 10
416.56887207794148
 20
-9.1115885509671806
 30
0.0
 11
415.75781370588783
 21
-9.6535204292790162
 31
0.0
  0
ENDBLK
  5
553
  8
0
  0
BLOCK
  8
0
  2
*U46
 70
     1
 10
0.0
 20
0.0
 30
0.0
  3
*U46
  1

  0
TEXT
  5
555
  8
0
 10
582.15542981158967
 20
-160.09241849726101
 30
0.0
 40
12.5
  1
Eaves lining
  7
ARIAL
  0
ENDBLK
  5
557
  8
0
  0
BLOCK
  8
0
  2
*U47
 70
     1
 10
0.0
 20
0.0
 30
0.0
  3
*U47
  1

  0
SOLID
  5
559
  8
0
  6
CONTINUOUS
 10
514.52881619290054
 20
-14.706838883836269
 30
0.0
 11
513.57210761198769
 21
-14.89714005255806
 31
0.0
 12
515.48552477381315
 22
-14.89714005255806
 32
0.0
 13
515.48552477381315
 23
-14.89714005255806
 33
0.0
210
0.0
220
0.0
230
1.0
  0
SOLID
  5
55A
  8
0
  6
CONTINUOUS
 10
513.57210761198769
 20
-14.89714005255806
 30
0.0
 11
512.76104923993398
 21
-15.43907193086994
 31
0.0
 12
516.29658314586686
 22
-15.43907193086994
 32
0.0
 13
516.29658314586686
 23
-15.43907193086994
 33
0.0
210
0.0
220
0.0
230
1.0
  0
SOLID
  5
55B
  8
0
  6
CONTINUOUS
 10
-513.57210761198769
 20
-14.89714005255806
 30
0.0
 11
-515.48552477381315
 21
-14.89714005255806
 31
0.0
 12
-516.29658314586686
 22
-15.43907193086994
 32
0.0
 13
-516.29658314586686
 23
-15.43907193086994
 33
0.0
210
0.0
220
0.0
230
-1.0
  0
SOLID
  5
55C
  8
0
  6
CONTINUOUS
 10
512.76104923993398
 20
-15.43907193086994
 30
0.0
 11
512.21911736162224
 21
-16.250130302923619
 31
0.0
 12
516.83851502417883
 22
-16.250130302923619
 32
0.0
 13
516.83851502417883
 23
-16.250130302923619
 33
0.0
210
0.0
220
0.0
230
1.0
  0
SOLID
  5
55D
  8
0
  6
CONTINUOUS
 10
-512.76104923993398
 20
-15.43907193086994
 30
0.0
 11
-516.29658314586686
 21
-15.43907193086994
 31
0.0
 12
-516.83851502417883
 22
-16.250130302923619
 32
0.0
 13
-516.83851502417883
 23
-16.250130302923619
 33
0.0
210
0.0
220
0.0
230
-1.0
  0
SOLID
  5
55E
  8
0
  6
CONTINUOUS
 10
512.21911736162224
 20
-16.250130302923619
 30
0.0
 11
512.02881619290031
 21
-17.20683888383639
 31
0.0
 12
517.02881619290065
 22
-17.20683888383639
 32
0.0
 13
517.02881619290065
 23
-17.20683888383639
 33
0.0
210
0.0
220
0.0
230
1.0
  0
SOLID
  5
55F
  8
0
  6
CONTINUOUS
 10
-512.21911736162224
 20
-16.250130302923619
 30
0.0
 11
-516.83851502417883
 21
-16.250130302923619
 31
0.0
 12
-517.02881619290065
 22
-17.20683888383639
 32
0.0
 13
-517.02881619290065
 23
-17.20683888383639
 33
0.0
210
0.0
220
0.0
230
-1.0
  0
SOLID
  5
560
  8
0
  6
CONTINUOUS
 10
512.02881619290031
 20
-17.20683888383639
 30
0.0
 11
512.21911736162224
 21
-18.163547464749151
 31
0.0
 12
516.83851502417883
 22
-18.163547464749151
 32
0.0
 13
516.83851502417883
 23
-18.163547464749151
 33
0.0
210
0.0
220
0.0
230
1.0
  0
SOLID
  5
561
  8
0
  6
CONTINUOUS
 10
-512.02881619290031
 20
-17.20683888383639
 30
0.0
 11
-517.02881619290065
 21
-17.20683888383639
 31
0.0
 12
-516.83851502417883
 22
-18.163547464749151
 32
0.0
 13
-516.83851502417883
 23
-18.163547464749151
 33
0.0
210
0.0
220
0.0
230
-1.0
  0
SOLID
  5
562
  8
0
  6
CONTINUOUS
 10
512.21911736162224
 20
-18.163547464749151
 30
0.0
 11
512.76104923993398
 21
-18.974605836802841
 31
0.0
 12
516.29658314586686
 22
-18.974605836802841
 32
0.0
 13
516.29658314586686
 23
-18.974605836802841
 33
0.0
210
0.0
220
0.0
230
1.0
  0
SOLID
  5
563
  8
0
  6
CONTINUOUS
 10
-512.21911736162224
 20
-18.163547464749151
 30
0.0
 11
-516.83851502417883
 21
-18.163547464749151
 31
0.0
 12
-516.29658314586686
 22
-18.974605836802841
 32
0.0
 13
-516.29658314586686
 23
-18.974605836802841
 33
0.0
210
0.0
220
0.0
230
-1.0
  0
SOLID
  5
564
  8
0
  6
CONTINUOUS
 10
-513.57210761198769
 20
-19.516537715114708
 30
0.0
 11
-515.48552477381315
 21
-19.516537715114708
 31
0.0
 12
-514.52881619290054
 22
-19.7068388838365
 32
0.0
 13
-514.52881619290054
 23
-19.7068388838365
 33
0.0
210
0.0
220
0.0
230
-1.0
  0
SOLID
  5
565
  8
0
  6
CONTINUOUS
 10
512.76104923993398
 20
-18.974605836802841
 30
0.0
 11
513.57210761198769
 21
-19.516537715114708
 31
0.0
 12
515.48552477381315
 22
-19.516537715114708
 32
0.0
 13
515.48552477381315
 23
-19.516537715114708
 33
0.0
210
0.0
220
0.0
230
1.0
  0
SOLID
  5
566
  8
0
  6
CONTINUOUS
 10
-512.76104923993398
 20
-18.974605836802841
 30
0.0
 11
-516.29658314586686
 21
-18.974605836802841
 31
0.0
 12
-515.48552477381315
 22
-19.516537715114708
 32
0.0
 13
-515.48552477381315
 23
-19.516537715114708
 33
0.0
210
0.0
220
0.0
230
-1.0
  0
LINE
  5
567
  8
0
  6
CONTINUOUS
 10
514.52881619290054
 20
-14.706838883836269
 30
0.0
 11
513.57210761198769
 21
-14.89714005255806
 31
0.0
  0
LINE
  5
568
  8
0
  6
CONTINUOUS
 10
515.48552477381315
 20
-14.89714005255806
 30
0.0
 11
514.52881619290054
 21
-14.706838883836269
 31
0.0
  0
LINE
  5
569
  8
0
  6
CONTINUOUS
 10
513.57210761198769
 20
-14.89714005255806
 30
0.0
 11
512.76104923993398
 21
-15.43907193086994
 31
0.0
  0
LINE
  5
56A
  8
0
  6
CONTINUOUS
 10
515.48552477381315
 20
-14.89714005255806
 30
0.0
 11
516.29658314586686
 21
-15.43907193086994
 31
0.0
  0
LINE
  5
56B
  8
0
  6
CONTINUOUS
 10
512.76104923993398
 20
-15.43907193086994
 30
0.0
 11
512.21911736162224
 21
-16.250130302923619
 31
0.0
  0
LINE
  5
56C
  8
0
  6
CONTINUOUS
 10
516.29658314586686
 20
-15.43907193086994
 30
0.0
 11
516.83851502417883
 21
-16.250130302923619
 31
0.0
  0
LINE
  5
56D
  8
0
  6
CONTINUOUS
 10
512.21911736162224
 20
-16.250130302923619
 30
0.0
 11
512.02881619290031
 21
-17.20683888383639
 31
0.0
  0
LINE
  5
56E
  8
0
  6
CONTINUOUS
 10
516.83851502417883
 20
-16.250130302923619
 30
0.0
 11
517.02881619290065
 21
-17.20683888383639
 31
0.0
  0
LINE
  5
56F
  8
0
  6
CONTINUOUS
 10
512.02881619290031
 20
-17.20683888383639
 30
0.0
 11
512.21911736162224
 21
-18.163547464749151
 31
0.0
  0
LINE
  5
570
  8
0
  6
CONTINUOUS
 10
517.02881619290065
 20
-17.20683888383639
 30
0.0
 11
516.83851502417883
 21
-18.163547464749151
 31
0.0
  0
LINE
  5
571
  8
0
  6
CONTINUOUS
 10
512.21911736162224
 20
-18.163547464749151
 30
0.0
 11
512.76104923993398
 21
-18.974605836802841
 31
0.0
  0
LINE
  5
572
  8
0
  6
CONTINUOUS
 10
516.83851502417883
 20
-18.163547464749151
 30
0.0
 11
516.29658314586686
 21
-18.974605836802841
 31
0.0
  0
LINE
  5
573
  8
0
  6
CONTINUOUS
 10
515.48552477381315
 20
-19.516537715114708
 30
0.0
 11
514.52881619290054
 21
-19.7068388838365
 31
0.0
  0
LINE
  5
574
  8
0
  6
CONTINUOUS
 10
514.52881619290054
 20
-19.7068388838365
 30
0.0
 11
513.57210761198769
 21
-19.516537715114708
 31
0.0
  0
LINE
  5
575
  8
0
  6
CONTINUOUS
 10
512.76104923993398
 20
-18.974605836802841
 30
0.0
 11
513.57210761198769
 21
-19.516537715114708
 31
0.0
  0
LINE
  5
576
  8
0
  6
CONTINUOUS
 10
516.29658314586686
 20
-18.974605836802841
 30
0.0
 11
515.48552477381315
 21
-19.516537715114708
 31
0.0
  0
ENDBLK
  5
578
  8
0
  0
BLOCK
  8
0
  2
*U48
 70
     1
 10
0.0
 20
0.0
 30
0.0
  3
*U48
  1

  0
TEXT
  5
57A
  8
0
 10
582.25774904760601
 20
-79.078991764631681
 30
0.0
 40
12.5
  1
Barge board *
  7
ARIAL
  0
ENDBLK
  5
57C
  8
0
  0
BLOCK
  8
0
  2
*U49
 70
     1
 10
0.0
 20
0.0
 30
0.0
  3
*U49
  1

  0
SOLID
  5
57E
  8
0
  6
CONTINUOUS
 10
509.9890150658988
 20
163.7543169176212
 30
0.0
 11
509.03230648498618
 21
163.56401574889941
 31
0.0
 12
510.94572364681147
 22
163.56401574889941
 32
0.0
 13
510.94572364681147
 23
163.56401574889941
 33
0.0
  0
SOLID
  5
57F
  8
0
  6
CONTINUOUS
 10
509.03230648498618
 20
163.56401574889941
 30
0.0
 11
508.22124811293241
 21
163.02208387058761
 31
0.0
 12
511.75678201886518
 22
163.02208387058761
 32
0.0
 13
511.75678201886518
 23
163.02208387058761
 33
0.0
210
0.0
220
0.0
230
1.0
  0
SOLID
  5
580
  8
0
  6
CONTINUOUS
 10
-509.03230648498618
 20
163.56401574889941
 30
0.0
 11
-510.94572364681147
 21
163.56401574889941
 31
0.0
 12
-511.75678201886518
 22
163.02208387058761
 32
0.0
 13
-511.75678201886518
 23
163.02208387058761
 33
0.0
210
0.0
220
0.0
230
-1.0
  0
SOLID
  5
581
  8
0
  6
CONTINUOUS
 10
508.22124811293241
 20
163.02208387058761
 30
0.0
 11
507.67931623462073
 21
162.2110254985339
 31
0.0
 12
512.29871389717698
 22
162.2110254985339
 32
0.0
 13
512.29871389717698
 23
162.2110254985339
 33
0.0
  0
SOLID
  5
582
  8
0
  6
CONTINUOUS
 10
-508.22124811293241
 20
163.02208387058761
 30
0.0
 11
-511.75678201886518
 21
163.02208387058761
 31
0.0
 12
-512.29871389717698
 22
162.2110254985339
 32
0.0
 13
-512.29871389717698
 23
162.2110254985339
 33
0.0
210
0.0
220
0.0
230
-1.0
  0
SOLID
  5
583
  8
0
  6
CONTINUOUS
 10
507.67931623462073
 20
162.2110254985339
 30
0.0
 11
507.48901506589891
 21
161.2543169176212
 31
0.0
 12
512.4890150658988
 22
161.2543169176212
 32
0.0
 13
512.4890150658988
 23
161.2543169176212
 33
0.0
210
0.0
220
0.0
230
1.0
  0
SOLID
  5
584
  8
0
  6
CONTINUOUS
 10
-507.67931623462073
 20
162.2110254985339
 30
0.0
 11
-512.29871389717698
 21
162.2110254985339
 31
0.0
 12
-512.4890150658988
 22
161.2543169176212
 32
0.0
 13
-512.4890150658988
 23
161.2543169176212
 33
0.0
210
0.0
220
0.0
230
-1.0
  0
SOLID
  5
585
  8
0
  6
CONTINUOUS
 10
507.48901506589891
 20
161.2543169176212
 30
0.0
 11
507.67931623462073
 21
160.29760833670849
 31
0.0
 12
512.29871389717698
 22
160.29760833670849
 32
0.0
 13
512.29871389717698
 23
160.29760833670849
 33
0.0
210
0.0
220
0.0
230
1.0
  0
SOLID
  5
586
  8
0
  6
CONTINUOUS
 10
-507.48901506589891
 20
161.2543169176212
 30
0.0
 11
-512.4890150658988
 21
161.2543169176212
 31
0.0
 12
-512.29871389717698
 22
160.29760833670849
 32
0.0
 13
-512.29871389717698
 23
160.29760833670849
 33
0.0
210
0.0
220
0.0
230
-1.0
  0
SOLID
  5
587
  8
0
  6
CONTINUOUS
 10
507.67931623462073
 20
160.29760833670849
 30
0.0
 11
508.22124811293241
 21
159.4865499646549
 31
0.0
 12
511.75678201886518
 22
159.4865499646549
 32
0.0
 13
511.75678201886518
 23
159.4865499646549
 33
0.0
210
0.0
220
0.0
230
1.0
  0
SOLID
  5
588
  8
0
  6
CONTINUOUS
 10
-507.67931623462073
 20
160.29760833670849
 30
0.0
 11
-512.29871389717698
 21
160.29760833670849
 31
0.0
 12
-511.75678201886518
 22
159.4865499646549
 32
0.0
 13
-511.75678201886518
 23
159.4865499646549
 33
0.0
210
0.0
220
0.0
230
-1.0
  0
SOLID
  5
589
  8
0
  6
CONTINUOUS
 10
-509.03230648498618
 20
158.9446180863431
 30
0.0
 11
-510.94572364681147
 21
158.9446180863431
 31
0.0
 12
-509.9890150658988
 22
158.75431691762131
 32
0.0
 13
-509.9890150658988
 23
158.75431691762131
 33
0.0
210
0.0
220
0.0
230
-1.0
  0
SOLID
  5
58A
  8
0
  6
CONTINUOUS
 10
508.22124811293241
 20
159.4865499646549
 30
0.0
 11
509.03230648498618
 21
158.9446180863431
 31
0.0
 12
510.94572364681147
 22
158.9446180863431
 32
0.0
 13
510.94572364681147
 23
158.9446180863431
 33
0.0
210
0.0
220
0.0
230
1.0
  0
SOLID
  5
58B
  8
0
  6
CONTINUOUS
 10
-508.22124811293241
 20
159.4865499646549
 30
0.0
 11
-511.75678201886518
 21
159.4865499646549
 31
0.0
 12
-510.94572364681147
 22
158.9446180863431
 32
0.0
 13
-510.94572364681147
 23
158.9446180863431
 33
0.0
210
0.0
220
0.0
230
-1.0
  0
LINE
  5
58C
  8
0
  6
CONTINUOUS
 10
509.9890150658988
 20
163.7543169176212
 30
0.0
 11
509.03230648498618
 21
163.56401574889941
 31
0.0
  0
LINE
  5
58D
  8
0
  6
CONTINUOUS
 10
510.94572364681147
 20
163.56401574889941
 30
0.0
 11
509.9890150658988
 21
163.7543169176212
 31
0.0
  0
LINE
  5
58E
  8
0
  6
CONTINUOUS
 10
509.03230648498618
 20
163.56401574889941
 30
0.0
 11
508.22124811293241
 21
163.02208387058761
 31
0.0
  0
LINE
  5
58F
  8
0
  6
CONTINUOUS
 10
510.94572364681147
 20
163.56401574889941
 30
0.0
 11
511.75678201886518
 21
163.02208387058761
 31
0.0
  0
LINE
  5
590
  8
0
  6
CONTINUOUS
 10
508.22124811293241
 20
163.02208387058761
 30
0.0
 11
507.67931623462073
 21
162.2110254985339
 31
0.0
  0
LINE
  5
591
  8
0
  6
CONTINUOUS
 10
511.75678201886518
 20
163.02208387058761
 30
0.0
 11
512.29871389717698
 21
162.2110254985339
 31
0.0
  0
LINE
  5
592
  8
0
  6
CONTINUOUS
 10
507.67931623462073
 20
162.2110254985339
 30
0.0
 11
507.48901506589891
 21
161.2543169176212
 31
0.0
  0
LINE
  5
593
  8
0
  6
CONTINUOUS
 10
512.29871389717698
 20
162.2110254985339
 30
0.0
 11
512.4890150658988
 21
161.2543169176212
 31
0.0
  0
LINE
  5
594
  8
0
  6
CONTINUOUS
 10
507.48901506589891
 20
161.2543169176212
 30
0.0
 11
507.67931623462073
 21
160.29760833670849
 31
0.0
  0
LINE
  5
595
  8
0
  6
CONTINUOUS
 10
512.4890150658988
 20
161.2543169176212
 30
0.0
 11
512.29871389717698
 21
160.29760833670849
 31
0.0
  0
LINE
  5
596
  8
0
  6
CONTINUOUS
 10
507.67931623462073
 20
160.29760833670849
 30
0.0
 11
508.22124811293241
 21
159.4865499646549
 31
0.0
  0
LINE
  5
597
  8
0
  6
CONTINUOUS
 10
512.29871389717698
 20
160.29760833670849
 30
0.0
 11
511.75678201886518
 21
159.4865499646549
 31
0.0
  0
LINE
  5
598
  8
0
  6
CONTINUOUS
 10
510.94572364681147
 20
158.9446180863431
 30
0.0
 11
509.9890150658988
 21
158.75431691762131
 31
0.0
  0
LINE
  5
599
  8
0
  6
CONTINUOUS
 10
509.9890150658988
 20
158.75431691762131
 30
0.0
 11
509.03230648498618
 21
158.9446180863431
 31
0.0
  0
LINE
  5
59A
  8
0
  6
CONTINUOUS
 10
508.22124811293241
 20
159.4865499646549
 30
0.0
 11
509.03230648498618
 21
158.9446180863431
 31
0.0
  0
LINE
  5
59B
  8
0
  6
CONTINUOUS
 10
511.75678201886518
 20
159.4865499646549
 30
0.0
 11
510.94572364681147
 21
158.9446180863431
 31
0.0
  0
ENDBLK
  5
59D
  8
0
  0
BLOCK
  8
0
  2
*U50
 70
     1
 10
0.0
 20
0.0
 30
0.0
  3
*U50
  1

  0
TEXT
  5
59F
  8
0
 10
582.81197824269475
 20
211.30094313272801
 30
0.0
 40
12.5
  1
903 CF Barge Cover
  7
ARIAL
  0
ENDBLK
  5
5A1
  8
0
  0
BLOCK
  8
0
  2
*U51
 70
     1
 10
0.0
 20
0.0
 30
0.0
  3
*U51
  1

  0
SOLID
  5
5A3
  8
0
  6
CONTINUOUS
 10
-97.224949441907796
 20
52.500000000000391
 30
0.0
 11
-98.181658022820514
 21
52.309698831278588
 31
0.0
 12
-96.268240860995078
 22
52.309698831278588
 32
0.0
 13
-96.268240860995078
 23
52.309698831278588
 33
0.0
210
0.0
220
0.0
230
1.0
  0
SOLID
  5
5A4
  8
0
  6
CONTINUOUS
 10
-98.181658022820514
 20
52.309698831278588
 30
0.0
 11
-98.992716394874165
 21
51.767766952966753
 31
0.0
 12
-95.457182488941427
 22
51.767766952966753
 32
0.0
 13
-95.457182488941427
 23
51.767766952966753
 33
0.0
210
0.0
220
0.0
230
1.0
  0
SOLID
  5
5A5
  8
0
  6
CONTINUOUS
 10
98.181658022820514
 20
52.309698831278588
 30
0.0
 11
96.268240860995078
 21
52.309698831278588
 31
0.0
 12
95.457182488941427
 22
51.767766952966753
 32
0.0
 13
95.457182488941427
 23
51.767766952966753
 33
0.0
210
0.0
220
0.0
230
-1.0
  0
SOLID
  5
5A6
  8
0
  6
CONTINUOUS
 10
-98.992716394874165
 20
51.767766952966753
 30
0.0
 11
-99.534648273186008
 21
50.956708580913109
 31
0.0
 12
-94.915250610629585
 22
50.956708580913109
 32
0.0
 13
-94.915250610629585
 23
50.956708580913109
 33
0.0
  0
SOLID
  5
5A7
  8
0
  6
CONTINUOUS
 10
98.992716394874165
 20
51.767766952966753
 30
0.0
 11
95.457182488941427
 21
51.767766952966753
 31
0.0
 12
94.915250610629585
 22
50.956708580913109
 32
0.0
 13
94.915250610629585
 23
50.956708580913109
 33
0.0
210
0.0
220
0.0
230
-1.0
  0
SOLID
  5
5A8
  8
0
  6
CONTINUOUS
 10
-99.534648273186008
 20
50.956708580913109
 30
0.0
 11
-99.724949441907796
 21
50.000000000000391
 31
0.0
 12
-94.724949441907796
 22
50.000000000000391
 32
0.0
 13
-94.724949441907796
 23
50.000000000000391
 33
0.0
210
0.0
220
0.0
230
1.0
  0
SOLID
  5
5A9
  8
0
  6
CONTINUOUS
 10
99.534648273186008
 20
50.956708580913109
 30
0.0
 11
94.915250610629585
 21
50.956708580913109
 31
0.0
 12
94.724949441907796
 22
50.000000000000391
 32
0.0
 13
94.724949441907796
 23
50.000000000000391
 33
0.0
210
0.0
220
0.0
230
-1.0
  0
SOLID
  5
5AA
  8
0
  6
CONTINUOUS
 10
-99.724949441907796
 20
50.000000000000391
 30
0.0
 11
-99.534648273186008
 21
49.043291419087659
 31
0.0
 12
-94.915250610629585
 22
49.043291419087659
 32
0.0
 13
-94.915250610629585
 23
49.043291419087659
 33
0.0
  0
SOLID
  5
5AB
  8
0
  6
CONTINUOUS
 10
99.724949441907796
 20
50.000000000000391
 30
0.0
 11
94.724949441907796
 21
50.000000000000391
 31
0.0
 12
94.915250610629585
 22
49.043291419087659
 32
0.0
 13
94.915250610629585
 23
49.043291419087659
 33
0.0
210
0.0
220
0.0
230
-1.0
  0
SOLID
  5
5AC
  8
0
  6
CONTINUOUS
 10
-99.534648273186008
 20
49.043291419087659
 30
0.0
 11
-98.992716394874165
 21
48.232233047034008
 31
0.0
 12
-95.457182488941427
 22
48.232233047034008
 32
0.0
 13
-95.457182488941427
 23
48.232233047034008
 33
0.0
210
0.0
220
0.0
230
1.0
  0
SOLID
  5
5AD
  8
0
  6
CONTINUOUS
 10
99.534648273186008
 20
49.043291419087659
 30
0.0
 11
94.915250610629585
 21
49.043291419087659
 31
0.0
 12
95.457182488941427
 22
48.232233047034008
 32
0.0
 13
95.457182488941427
 23
48.232233047034008
 33
0.0
210
0.0
220
0.0
230
-1.0
  0
SOLID
  5
5AE
  8
0
  6
CONTINUOUS
 10
98.181658022820514
 20
47.690301168722172
 30
0.0
 11
96.268240860995078
 21
47.690301168722172
 31
0.0
 12
97.224949441907796
 22
47.500000000000377
 32
0.0
 13
97.224949441907796
 23
47.500000000000377
 33
0.0
210
0.0
220
0.0
230
-1.0
  0
SOLID
  5
5AF
  8
0
  6
CONTINUOUS
 10
-98.992716394874165
 20
48.232233047034008
 30
0.0
 11
-98.181658022820514
 21
47.690301168722172
 31
0.0
 12
-96.268240860995078
 22
47.690301168722172
 32
0.0
 13
-96.268240860995078
 23
47.690301168722172
 33
0.0
210
0.0
220
0.0
230
1.0
  0
SOLID
  5
5B0
  8
0
  6
CONTINUOUS
 10
98.992716394874165
 20
48.232233047034008
 30
0.0
 11
95.457182488941427
 21
48.232233047034008
 31
0.0
 12
96.268240860995078
 22
47.690301168722172
 32
0.0
 13
96.268240860995078
 23
47.690301168722172
 33
0.0
210
0.0
220
0.0
230
-1.0
  0
LINE
  5
5B1
  8
0
  6
CONTINUOUS
 10
-97.224949441907796
 20
52.500000000000391
 30
0.0
 11
-98.181658022820514
 21
52.309698831278588
 31
0.0
  0
LINE
  5
5B2
  8
0
  6
CONTINUOUS
 10
-96.268240860995078
 20
52.309698831278588
 30
0.0
 11
-97.224949441907796
 21
52.500000000000391
 31
0.0
  0
LINE
  5
5B3
  8
0
  6
CONTINUOUS
 10
-98.181658022820514
 20
52.309698831278588
 30
0.0
 11
-98.992716394874165
 21
51.767766952966753
 31
0.0
  0
LINE
  5
5B4
  8
0
  6
CONTINUOUS
 10
-96.268240860995078
 20
52.309698831278588
 30
0.0
 11
-95.457182488941427
 21
51.767766952966753
 31
0.0
  0
LINE
  5
5B5
  8
0
  6
CONTINUOUS
 10
-98.992716394874165
 20
51.767766952966753
 30
0.0
 11
-99.534648273186008
 21
50.956708580913109
 31
0.0
  0
LINE
  5
5B6
  8
0
  6
CONTINUOUS
 10
-95.457182488941427
 20
51.767766952966753
 30
0.0
 11
-94.915250610629585
 21
50.956708580913109
 31
0.0
  0
LINE
  5
5B7
  8
0
  6
CONTINUOUS
 10
-99.534648273186008
 20
50.956708580913109
 30
0.0
 11
-99.724949441907796
 21
50.000000000000391
 31
0.0
  0
LINE
  5
5B8
  8
0
  6
CONTINUOUS
 10
-94.915250610629585
 20
50.956708580913109
 30
0.0
 11
-94.724949441907796
 21
50.000000000000391
 31
0.0
  0
LINE
  5
5B9
  8
0
  6
CONTINUOUS
 10
-99.724949441907796
 20
50.000000000000391
 30
0.0
 11
-99.534648273186008
 21
49.043291419087659
 31
0.0
  0
LINE
  5
5BA
  8
0
  6
CONTINUOUS
 10
-94.724949441907796
 20
50.000000000000391
 30
0.0
 11
-94.915250610629585
 21
49.043291419087659
 31
0.0
  0
LINE
  5
5BB
  8
0
  6
CONTINUOUS
 10
-99.534648273186008
 20
49.043291419087659
 30
0.0
 11
-98.992716394874165
 21
48.232233047034008
 31
0.0
  0
LINE
  5
5BC
  8
0
  6
CONTINUOUS
 10
-94.915250610629585
 20
49.043291419087659
 30
0.0
 11
-95.457182488941427
 21
48.232233047034008
 31
0.0
  0
LINE
  5
5BD
  8
0
  6
CONTINUOUS
 10
-96.268240860995078
 20
47.690301168722172
 30
0.0
 11
-97.224949441907796
 21
47.500000000000377
 31
0.0
  0
LINE
  5
5BE
  8
0
  6
CONTINUOUS
 10
-97.224949441907796
 20
47.500000000000377
 30
0.0
 11
-98.181658022820514
 21
47.690301168722172
 31
0.0
  0
LINE
  5
5BF
  8
0
  6
CONTINUOUS
 10
-98.992716394874165
 20
48.232233047034008
 30
0.0
 11
-98.181658022820514
 21
47.690301168722172
 31
0.0
  0
LINE
  5
5C0
  8
0
  6
CONTINUOUS
 10
-95.457182488941427
 20
48.232233047034008
 30
0.0
 11
-96.268240860995078
 21
47.690301168722172
 31
0.0
  0
ENDBLK
  5
5C2
  8
0
  0
BLOCK
  8
0
  2
*U52
 70
     1
 10
0.0
 20
0.0
 30
0.0
  3
*U52
  1

  0
TEXT
  5
5C4
  8
0
 10
-209.7598561629971
 20
-33.418448444871871
 30
0.0
 40
12.5
  1
Outrigger
  7
ARIAL
  0
ENDBLK
  5
5C6
  8
0
  0
BLOCK
  8
0
  2
*U53
 70
     1
 10
0.0
 20
0.0
 30
0.0
  3
*U53
  1

  0
SOLID
  5
5C8
  8
0
  6
CONTINUOUS
 10
475.4287047401358
 20
20.513544642077601
 30
0.0
 11
474.47199615922301
 21
20.323243473355809
 31
0.0
 12
476.38541332104847
 22
20.323243473355809
 32
0.0
 13
476.38541332104847
 23
20.323243473355809
 33
0.0
  0
SOLID
  5
5C9
  8
0
  6
CONTINUOUS
 10
474.47199615922301
 20
20.323243473355809
 30
0.0
 11
473.66093778716942
 21
19.78131159504396
 31
0.0
 12
477.19647169310213
 22
19.78131159504396
 32
0.0
 13
477.19647169310213
 23
19.78131159504396
 33
0.0
210
0.0
220
0.0
230
1.0
  0
SOLID
  5
5CA
  8
0
  6
CONTINUOUS
 10
-474.47199615922301
 20
20.323243473355809
 30
0.0
 11
-476.38541332104847
 21
20.323243473355809
 31
0.0
 12
-477.19647169310213
 22
19.78131159504396
 32
0.0
 13
-477.19647169310213
 23
19.78131159504396
 33
0.0
210
0.0
220
0.0
230
-1.0
  0
SOLID
  5
5CB
  8
0
  6
CONTINUOUS
 10
473.66093778716942
 20
19.78131159504396
 30
0.0
 11
473.1190059088575
 21
18.970253222990319
 31
0.0
 12
477.73840357141398
 22
18.970253222990319
 32
0.0
 13
477.73840357141398
 23
18.970253222990319
 33
0.0
210
0.0
220
0.0
230
1.0
  0
SOLID
  5
5CC
  8
0
  6
CONTINUOUS
 10
-473.66093778716942
 20
19.78131159504396
 30
0.0
 11
-477.19647169310213
 21
19.78131159504396
 31
0.0
 12
-477.73840357141398
 22
18.970253222990319
 32
0.0
 13
-477.73840357141398
 23
18.970253222990319
 33
0.0
210
0.0
220
0.0
230
-1.0
  0
SOLID
  5
5CD
  8
0
  6
CONTINUOUS
 10
473.1190059088575
 20
18.970253222990319
 30
0.0
 11
472.92870474013569
 21
18.013544642077601
 31
0.0
 12
477.9287047401358
 22
18.013544642077601
 32
0.0
 13
477.9287047401358
 23
18.013544642077601
 33
0.0
210
0.0
220
0.0
230
1.0
  0
SOLID
  5
5CE
  8
0
  6
CONTINUOUS
 10
-473.1190059088575
 20
18.970253222990319
 30
0.0
 11
-477.73840357141398
 21
18.970253222990319
 31
0.0
 12
-477.9287047401358
 22
18.013544642077601
 32
0.0
 13
-477.9287047401358
 23
18.013544642077601
 33
0.0
210
0.0
220
0.0
230
-1.0
  0
SOLID
  5
5CF
  8
0
  6
CONTINUOUS
 10
472.92870474013569
 20
18.013544642077601
 30
0.0
 11
473.1190059088575
 21
17.056836061164869
 31
0.0
 12
477.73840357141398
 22
17.056836061164869
 32
0.0
 13
477.73840357141398
 23
17.056836061164869
 33
0.0
210
0.0
220
0.0
230
1.0
  0
SOLID
  5
5D0
  8
0
  6
CONTINUOUS
 10
-472.92870474013569
 20
18.013544642077601
 30
0.0
 11
-477.9287047401358
 21
18.013544642077601
 31
0.0
 12
-477.73840357141398
 22
17.056836061164869
 32
0.0
 13
-477.73840357141398
 23
17.056836061164869
 33
0.0
210
0.0
220
0.0
230
-1.0
  0
SOLID
  5
5D1
  8
0
  6
CONTINUOUS
 10
473.1190059088575
 20
17.056836061164869
 30
0.0
 11
473.66093778716942
 21
16.245777689111229
 31
0.0
 12
477.19647169310213
 22
16.245777689111229
 32
0.0
 13
477.19647169310213
 23
16.245777689111229
 33
0.0
210
0.0
220
0.0
230
1.0
  0
SOLID
  5
5D2
  8
0
  6
CONTINUOUS
 10
-473.1190059088575
 20
17.056836061164869
 30
0.0
 11
-477.73840357141398
 21
17.056836061164869
 31
0.0
 12
-477.19647169310213
 22
16.245777689111229
 32
0.0
 13
-477.19647169310213
 23
16.245777689111229
 33
0.0
210
0.0
220
0.0
230
-1.0
  0
SOLID
  5
5D3
  8
0
  6
CONTINUOUS
 10
-474.47199615922301
 20
15.703845810799381
 30
0.0
 11
-476.38541332104847
 21
15.703845810799381
 31
0.0
 12
-475.4287047401358
 22
15.5135446420776
 32
0.0
 13
-475.4287047401358
 23
15.5135446420776
 33
0.0
210
0.0
220
0.0
230
-1.0
  0
SOLID
  5
5D4
  8
0
  6
CONTINUOUS
 10
473.66093778716942
 20
16.245777689111229
 30
0.0
 11
474.47199615922301
 21
15.703845810799381
 31
0.0
 12
476.38541332104847
 22
15.703845810799381
 32
0.0
 13
476.38541332104847
 23
15.703845810799381
 33
0.0
210
0.0
220
0.0
230
1.0
  0
SOLID
  5
5D5
  8
0
  6
CONTINUOUS
 10
-473.66093778716942
 20
16.245777689111229
 30
0.0
 11
-477.19647169310213
 21
16.245777689111229
 31
0.0
 12
-476.38541332104847
 22
15.703845810799381
 32
0.0
 13
-476.38541332104847
 23
15.703845810799381
 33
0.0
210
0.0
220
0.0
230
-1.0
  0
LINE
  5
5D6
  8
0
  6
CONTINUOUS
 10
475.4287047401358
 20
20.513544642077601
 30
0.0
 11
474.47199615922301
 21
20.323243473355809
 31
0.0
  0
LINE
  5
5D7
  8
0
  6
CONTINUOUS
 10
476.38541332104847
 20
20.323243473355809
 30
0.0
 11
475.4287047401358
 21
20.513544642077601
 31
0.0
  0
LINE
  5
5D8
  8
0
  6
CONTINUOUS
 10
474.47199615922301
 20
20.323243473355809
 30
0.0
 11
473.66093778716942
 21
19.78131159504396
 31
0.0
  0
LINE
  5
5D9
  8
0
  6
CONTINUOUS
 10
476.38541332104847
 20
20.323243473355809
 30
0.0
 11
477.19647169310213
 21
19.78131159504396
 31
0.0
  0
LINE
  5
5DA
  8
0
  6
CONTINUOUS
 10
473.66093778716942
 20
19.78131159504396
 30
0.0
 11
473.1190059088575
 21
18.970253222990319
 31
0.0
  0
LINE
  5
5DB
  8
0
  6
CONTINUOUS
 10
477.19647169310213
 20
19.78131159504396
 30
0.0
 11
477.73840357141398
 21
18.970253222990319
 31
0.0
  0
LINE
  5
5DC
  8
0
  6
CONTINUOUS
 10
473.1190059088575
 20
18.970253222990319
 30
0.0
 11
472.92870474013569
 21
18.013544642077601
 31
0.0
  0
LINE
  5
5DD
  8
0
  6
CONTINUOUS
 10
477.73840357141398
 20
18.970253222990319
 30
0.0
 11
477.9287047401358
 21
18.013544642077601
 31
0.0
  0
LINE
  5
5DE
  8
0
  6
CONTINUOUS
 10
472.92870474013569
 20
18.013544642077601
 30
0.0
 11
473.1190059088575
 21
17.056836061164869
 31
0.0
  0
LINE
  5
5DF
  8
0
  6
CONTINUOUS
 10
477.9287047401358
 20
18.013544642077601
 30
0.0
 11
477.73840357141398
 21
17.056836061164869
 31
0.0
  0
LINE
  5
5E0
  8
0
  6
CONTINUOUS
 10
473.1190059088575
 20
17.056836061164869
 30
0.0
 11
473.66093778716942
 21
16.245777689111229
 31
0.0
  0
LINE
  5
5E1
  8
0
  6
CONTINUOUS
 10
477.73840357141398
 20
17.056836061164869
 30
0.0
 11
477.19647169310213
 21
16.245777689111229
 31
0.0
  0
LINE
  5
5E2
  8
0
  6
CONTINUOUS
 10
476.38541332104847
 20
15.703845810799381
 30
0.0
 11
475.4287047401358
 21
15.5135446420776
 31
0.0
  0
LINE
  5
5E3
  8
0
  6
CONTINUOUS
 10
475.4287047401358
 20
15.5135446420776
 30
0.0
 11
474.47199615922301
 21
15.703845810799381
 31
0.0
  0
LINE
  5
5E4
  8
0
  6
CONTINUOUS
 10
473.66093778716942
 20
16.245777689111229
 30
0.0
 11
474.47199615922301
 21
15.703845810799381
 31
0.0
  0
LINE
  5
5E5
  8
0
  6
CONTINUOUS
 10
477.19647169310213
 20
16.245777689111229
 30
0.0
 11
476.38541332104847
 21
15.703845810799381
 31
0.0
  0
ENDBLK
  5
5E7
  8
0
  0
BLOCK
  8
0
  2
*U54
 70
     1
 10
0.0
 20
0.0
 30
0.0
  3
*U54
  1

  0
TEXT
  5
5E9
  8
0
 10
582.10427019358144
 20
-118.025838790265
 30
0.0
 40
12.5
  1
Flying Rafter
  7
ARIAL
  0
ENDBLK
  5
5EB
  8
0
  0
BLOCK
  8
0
  2
*U55
 70
     1
 10
0.0
 20
0.0
 30
0.0
  3
*U55
  1

  0
SOLID
  5
5ED
  8
0
  6
CONTINUOUS
 10
523.51745389984455
 20
77.326310777553445
 30
0.0
 11
522.56074531893182
 21
77.136009608831671
 31
0.0
 12
524.47416248075729
 22
77.136009608831671
 32
0.0
 13
524.47416248075729
 23
77.136009608831671
 33
0.0
  0
SOLID
  5
5EE
  8
0
  6
CONTINUOUS
 10
522.56074531893182
 20
77.136009608831671
 30
0.0
 11
521.74968694687811
 21
76.594077730519828
 31
0.0
 12
525.28522085281088
 22
76.594077730519828
 32
0.0
 13
525.28522085281088
 23
76.594077730519828
 33
0.0
210
0.0
220
0.0
230
1.0
  0
SOLID
  5
5EF
  8
0
  6
CONTINUOUS
 10
-522.56074531893182
 20
77.136009608831671
 30
0.0
 11
-524.47416248075729
 21
77.136009608831671
 31
0.0
 12
-525.28522085281088
 22
76.594077730519828
 32
0.0
 13
-525.28522085281088
 23
76.594077730519828
 33
0.0
210
0.0
220
0.0
230
-1.0
  0
SOLID
  5
5F0
  8
0
  6
CONTINUOUS
 10
521.74968694687811
 20
76.594077730519828
 30
0.0
 11
521.20775506856637
 21
75.783019358466191
 31
0.0
 12
525.82715273112274
 22
75.783019358466191
 32
0.0
 13
525.82715273112274
 23
75.783019358466191
 33
0.0
210
0.0
220
0.0
230
1.0
  0
SOLID
  5
5F1
  8
0
  6
CONTINUOUS
 10
-521.74968694687811
 20
76.594077730519828
 30
0.0
 11
-525.28522085281088
 21
76.594077730519828
 31
0.0
 12
-525.82715273112274
 22
75.783019358466191
 32
0.0
 13
-525.82715273112274
 23
75.783019358466191
 33
0.0
210
0.0
220
0.0
230
-1.0
  0
SOLID
  5
5F2
  8
0
  6
CONTINUOUS
 10
521.20775506856637
 20
75.783019358466191
 30
0.0
 11
521.01745389984455
 21
74.826310777553473
 31
0.0
 12
526.01745389984455
 22
74.826310777553473
 32
0.0
 13
526.01745389984455
 23
74.826310777553473
 33
0.0
210
0.0
220
0.0
230
1.0
  0
SOLID
  5
5F3
  8
0
  6
CONTINUOUS
 10
-521.20775506856637
 20
75.783019358466191
 30
0.0
 11
-525.82715273112274
 21
75.783019358466191
 31
0.0
 12
-526.01745389984455
 22
74.826310777553473
 32
0.0
 13
-526.01745389984455
 23
74.826310777553473
 33
0.0
210
0.0
220
0.0
230
-1.0
  0
SOLID
  5
5F4
  8
0
  6
CONTINUOUS
 10
521.01745389984455
 20
74.826310777553473
 30
0.0
 11
521.20775506856637
 21
73.869602196640756
 31
0.0
 12
525.82715273112274
 22
73.869602196640756
 32
0.0
 13
525.82715273112274
 23
73.869602196640756
 33
0.0
210
0.0
220
0.0
230
1.0
  0
SOLID
  5
5F5
  8
0
  6
CONTINUOUS
 10
-521.01745389984455
 20
74.826310777553473
 30
0.0
 11
-526.01745389984455
 21
74.826310777553473
 31
0.0
 12
-525.82715273112274
 22
73.869602196640756
 32
0.0
 13
-525.82715273112274
 23
73.869602196640756
 33
0.0
210
0.0
220
0.0
230
-1.0
  0
SOLID
  5
5F6
  8
0
  6
CONTINUOUS
 10
521.20775506856637
 20
73.869602196640756
 30
0.0
 11
521.74968694687811
 21
73.058543824587105
 31
0.0
 12
525.28522085281088
 22
73.058543824587105
 32
0.0
 13
525.28522085281088
 23
73.058543824587105
 33
0.0
210
0.0
220
0.0
230
1.0
  0
SOLID
  5
5F7
  8
0
  6
CONTINUOUS
 10
-521.20775506856637
 20
73.869602196640756
 30
0.0
 11
-525.82715273112274
 21
73.869602196640756
 31
0.0
 12
-525.28522085281088
 22
73.058543824587105
 32
0.0
 13
-525.28522085281088
 23
73.058543824587105
 33
0.0
210
0.0
220
0.0
230
-1.0
  0
SOLID
  5
5F8
  8
0
  6
CONTINUOUS
 10
-522.56074531893182
 20
72.516611946275276
 30
0.0
 11
-524.47416248075729
 21
72.516611946275276
 31
0.0
 12
-523.51745389984455
 22
72.326310777553502
 32
0.0
 13
-523.51745389984455
 23
72.326310777553502
 33
0.0
210
0.0
220
0.0
230
-1.0
  0
SOLID
  5
5F9
  8
0
  6
CONTINUOUS
 10
521.74968694687811
 20
73.058543824587105
 30
0.0
 11
522.56074531893182
 21
72.516611946275276
 31
0.0
 12
524.47416248075729
 22
72.516611946275276
 32
0.0
 13
524.47416248075729
 23
72.516611946275276
 33
0.0
210
0.0
220
0.0
230
1.0
  0
SOLID
  5
5FA
  8
0
  6
CONTINUOUS
 10
-521.74968694687811
 20
73.058543824587105
 30
0.0
 11
-525.28522085281088
 21
73.058543824587105
 31
0.0
 12
-524.47416248075729
 22
72.516611946275276
 32
0.0
 13
-524.47416248075729
 23
72.516611946275276
 33
0.0
210
0.0
220
0.0
230
-1.0
  0
LINE
  5
5FB
  8
0
  6
CONTINUOUS
 10
523.51745389984455
 20
77.326310777553445
 30
0.0
 11
522.56074531893182
 21
77.136009608831671
 31
0.0
  0
LINE
  5
5FC
  8
0
  6
CONTINUOUS
 10
524.47416248075729
 20
77.136009608831671
 30
0.0
 11
523.51745389984455
 21
77.326310777553445
 31
0.0
  0
LINE
  5
5FD
  8
0
  6
CONTINUOUS
 10
522.56074531893182
 20
77.136009608831671
 30
0.0
 11
521.74968694687811
 21
76.594077730519828
 31
0.0
  0
LINE
  5
5FE
  8
0
  6
CONTINUOUS
 10
524.47416248075729
 20
77.136009608831671
 30
0.0
 11
525.28522085281088
 21
76.594077730519828
 31
0.0
  0
LINE
  5
5FF
  8
0
  6
CONTINUOUS
 10
521.74968694687811
 20
76.594077730519828
 30
0.0
 11
521.20775506856637
 21
75.783019358466191
 31
0.0
  0
LINE
  5
600
  8
0
  6
CONTINUOUS
 10
525.28522085281088
 20
76.594077730519828
 30
0.0
 11
525.82715273112274
 21
75.783019358466191
 31
0.0
  0
LINE
  5
601
  8
0
  6
CONTINUOUS
 10
521.20775506856637
 20
75.783019358466191
 30
0.0
 11
521.01745389984455
 21
74.826310777553473
 31
0.0
  0
LINE
  5
602
  8
0
  6
CONTINUOUS
 10
525.82715273112274
 20
75.783019358466191
 30
0.0
 11
526.01745389984455
 21
74.826310777553473
 31
0.0
  0
LINE
  5
603
  8
0
  6
CONTINUOUS
 10
521.01745389984455
 20
74.826310777553473
 30
0.0
 11
521.20775506856637
 21
73.869602196640756
 31
0.0
  0
LINE
  5
604
  8
0
  6
CONTINUOUS
 10
526.01745389984455
 20
74.826310777553473
 30
0.0
 11
525.82715273112274
 21
73.869602196640756
 31
0.0
  0
LINE
  5
605
  8
0
  6
CONTINUOUS
 10
521.20775506856637
 20
73.869602196640756
 30
0.0
 11
521.74968694687811
 21
73.058543824587105
 31
0.0
  0
LINE
  5
606
  8
0
  6
CONTINUOUS
 10
525.82715273112274
 20
73.869602196640756
 30
0.0
 11
525.28522085281088
 21
73.058543824587105
 31
0.0
  0
LINE
  5
607
  8
0
  6
CONTINUOUS
 10
524.47416248075729
 20
72.516611946275276
 30
0.0
 11
523.51745389984455
 21
72.326310777553502
 31
0.0
  0
LINE
  5
608
  8
0
  6
CONTINUOUS
 10
523.51745389984455
 20
72.326310777553502
 30
0.0
 11
522.56074531893182
 21
72.516611946275276
 31
0.0
  0
LINE
  5
609
  8
0
  6
CONTINUOUS
 10
521.74968694687811
 20
73.058543824587105
 30
0.0
 11
522.56074531893182
 21
72.516611946275276
 31
0.0
  0
LINE
  5
60A
  8
0
  6
CONTINUOUS
 10
525.28522085281088
 20
73.058543824587105
 30
0.0
 11
524.47416248075729
 21
72.516611946275276
 31
0.0
  0
ENDBLK
  5
60C
  8
0
  0
BLOCK
  8
0
  2
*U56
 70
     1
 10
0.0
 20
0.0
 30
0.0
  3
*U56
  1

  0
TEXT
  5
60E
  8
0
 10
582.25774904760601
 20
48.576480301381103
 30
0.0
 40
12.5
  1
Bottom of barge/verge cap
  7
ARIAL
  0
TEXT
  5
60F
  8
0
 10
582.38564809262652
 20
28.956107225285539
 30
0.0
 40
12.5
  1
nailed to timber fascia
  7
ARIAL
  0
ENDBLK
  5
611
  8
0
  0
BLOCK
  8
0
  2
*U57
 70
     1
 10
0.0
 20
0.0
 30
0.0
  3
*U57
  1

  0
SOLID
  5
613
  8
0
  6
CONTINUOUS
 10
517.44353966597384
 20
125.88977527258901
 30
0.0
 11
516.48683108506111
 21
125.6994741038672
 31
0.0
 12
518.40024824688658
 22
125.6994741038672
 32
0.0
 13
518.40024824688658
 23
125.6994741038672
 33
0.0
210
0.0
220
0.0
230
1.0
  0
SOLID
  5
614
  8
0
  6
CONTINUOUS
 10
516.48683108506111
 20
125.6994741038672
 30
0.0
 11
515.6757727130074
 21
125.1575422255554
 31
0.0
 12
519.21130661894028
 22
125.1575422255554
 32
0.0
 13
519.21130661894028
 23
125.1575422255554
 33
0.0
210
0.0
220
0.0
230
1.0
  0
SOLID
  5
615
  8
0
  6
CONTINUOUS
 10
-516.48683108506111
 20
125.6994741038672
 30
0.0
 11
-518.40024824688658
 21
125.6994741038672
 31
0.0
 12
-519.21130661894028
 22
125.1575422255554
 32
0.0
 13
-519.21130661894028
 23
125.1575422255554
 33
0.0
210
0.0
220
0.0
230
-1.0
  0
SOLID
  5
616
  8
0
  6
CONTINUOUS
 10
515.6757727130074
 20
125.1575422255554
 30
0.0
 11
515.13384083469555
 21
124.3464838535017
 31
0.0
 12
519.75323849725214
 22
124.3464838535017
 32
0.0
 13
519.75323849725214
 23
124.3464838535017
 33
0.0
210
0.0
220
0.0
230
1.0
  0
SOLID
  5
617
  8
0
  6
CONTINUOUS
 10
-515.6757727130074
 20
125.1575422255554
 30
0.0
 11
-519.21130661894028
 21
125.1575422255554
 31
0.0
 12
-519.75323849725214
 22
124.3464838535017
 32
0.0
 13
-519.75323849725214
 23
124.3464838535017
 33
0.0
210
0.0
220
0.0
230
-1.0
  0
SOLID
  5
618
  8
0
  6
CONTINUOUS
 10
515.13384083469555
 20
124.3464838535017
 30
0.0
 11
514.94353966597373
 21
123.38977527258901
 31
0.0
 12
519.94353966597384
 22
123.38977527258901
 32
0.0
 13
519.94353966597384
 23
123.38977527258901
 33
0.0
210
0.0
220
0.0
230
1.0
  0
SOLID
  5
619
  8
0
  6
CONTINUOUS
 10
-515.13384083469555
 20
124.3464838535017
 30
0.0
 11
-519.75323849725214
 21
124.3464838535017
 31
0.0
 12
-519.94353966597384
 22
123.38977527258901
 32
0.0
 13
-519.94353966597384
 23
123.38977527258901
 33
0.0
210
0.0
220
0.0
230
-1.0
  0
SOLID
  5
61A
  8
0
  6
CONTINUOUS
 10
514.94353966597373
 20
123.38977527258901
 30
0.0
 11
515.13384083469555
 21
122.4330666916762
 31
0.0
 12
519.75323849725214
 22
122.4330666916762
 32
0.0
 13
519.75323849725214
 23
122.4330666916762
 33
0.0
210
0.0
220
0.0
230
1.0
  0
SOLID
  5
61B
  8
0
  6
CONTINUOUS
 10
-514.94353966597373
 20
123.38977527258901
 30
0.0
 11
-519.94353966597384
 21
123.38977527258901
 31
0.0
 12
-519.75323849725214
 22
122.4330666916762
 32
0.0
 13
-519.75323849725214
 23
122.4330666916762
 33
0.0
210
0.0
220
0.0
230
-1.0
  0
SOLID
  5
61C
  8
0
  6
CONTINUOUS
 10
515.13384083469555
 20
122.4330666916762
 30
0.0
 11
515.6757727130074
 21
121.62200831962249
 31
0.0
 12
519.21130661894028
 22
121.62200831962249
 32
0.0
 13
519.21130661894028
 23
121.62200831962249
 33
0.0
210
0.0
220
0.0
230
1.0
  0
SOLID
  5
61D
  8
0
  6
CONTINUOUS
 10
-515.13384083469555
 20
122.4330666916762
 30
0.0
 11
-519.75323849725214
 21
122.4330666916762
 31
0.0
 12
-519.21130661894028
 22
121.62200831962249
 32
0.0
 13
-519.21130661894028
 23
121.62200831962249
 33
0.0
210
0.0
220
0.0
230
-1.0
  0
SOLID
  5
61E
  8
0
  6
CONTINUOUS
 10
-516.48683108506111
 20
121.08007644131069
 30
0.0
 11
-518.40024824688658
 21
121.08007644131069
 31
0.0
 12
-517.44353966597384
 22
120.88977527258891
 32
0.0
 13
-517.44353966597384
 23
120.88977527258891
 33
0.0
210
0.0
220
0.0
230
-1.0
  0
SOLID
  5
61F
  8
0
  6
CONTINUOUS
 10
515.6757727130074
 20
121.62200831962249
 30
0.0
 11
516.48683108506111
 21
121.08007644131069
 31
0.0
 12
518.40024824688658
 22
121.08007644131069
 32
0.0
 13
518.40024824688658
 23
121.08007644131069
 33
0.0
  0
SOLID
  5
620
  8
0
  6
CONTINUOUS
 10
-515.6757727130074
 20
121.62200831962249
 30
0.0
 11
-519.21130661894028
 21
121.62200831962249
 31
0.0
 12
-518.40024824688658
 22
121.08007644131069
 32
0.0
 13
-518.40024824688658
 23
121.08007644131069
 33
0.0
210
0.0
220
0.0
230
-1.0
  0
LINE
  5
621
  8
0
  6
CONTINUOUS
 10
517.44353966597384
 20
125.88977527258901
 30
0.0
 11
516.48683108506111
 21
125.6994741038672
 31
0.0
  0
LINE
  5
622
  8
0
  6
CONTINUOUS
 10
518.40024824688658
 20
125.6994741038672
 30
0.0
 11
517.44353966597384
 21
125.88977527258901
 31
0.0
  0
LINE
  5
623
  8
0
  6
CONTINUOUS
 10
516.48683108506111
 20
125.6994741038672
 30
0.0
 11
515.6757727130074
 21
125.1575422255554
 31
0.0
  0
LINE
  5
624
  8
0
  6
CONTINUOUS
 10
518.40024824688658
 20
125.6994741038672
 30
0.0
 11
519.21130661894028
 21
125.1575422255554
 31
0.0
  0
LINE
  5
625
  8
0
  6
CONTINUOUS
 10
515.6757727130074
 20
125.1575422255554
 30
0.0
 11
515.13384083469555
 21
124.3464838535017
 31
0.0
  0
LINE
  5
626
  8
0
  6
CONTINUOUS
 10
519.21130661894028
 20
125.1575422255554
 30
0.0
 11
519.75323849725214
 21
124.3464838535017
 31
0.0
  0
LINE
  5
627
  8
0
  6
CONTINUOUS
 10
515.13384083469555
 20
124.3464838535017
 30
0.0
 11
514.94353966597373
 21
123.38977527258901
 31
0.0
  0
LINE
  5
628
  8
0
  6
CONTINUOUS
 10
519.75323849725214
 20
124.3464838535017
 30
0.0
 11
519.94353966597384
 21
123.38977527258901
 31
0.0
  0
LINE
  5
629
  8
0
  6
CONTINUOUS
 10
514.94353966597373
 20
123.38977527258901
 30
0.0
 11
515.13384083469555
 21
122.4330666916762
 31
0.0
  0
LINE
  5
62A
  8
0
  6
CONTINUOUS
 10
519.94353966597384
 20
123.38977527258901
 30
0.0
 11
519.75323849725214
 21
122.4330666916762
 31
0.0
  0
LINE
  5
62B
  8
0
  6
CONTINUOUS
 10
515.13384083469555
 20
122.4330666916762
 30
0.0
 11
515.6757727130074
 21
121.62200831962249
 31
0.0
  0
LINE
  5
62C
  8
0
  6
CONTINUOUS
 10
519.75323849725214
 20
122.4330666916762
 30
0.0
 11
519.21130661894028
 21
121.62200831962249
 31
0.0
  0
LINE
  5
62D
  8
0
  6
CONTINUOUS
 10
518.40024824688658
 20
121.08007644131069
 30
0.0
 11
517.44353966597384
 21
120.88977527258891
 31
0.0
  0
LINE
  5
62E
  8
0
  6
CONTINUOUS
 10
517.44353966597384
 20
120.88977527258891
 30
0.0
 11
516.48683108506111
 21
121.08007644131069
 31
0.0
  0
LINE
  5
62F
  8
0
  6
CONTINUOUS
 10
515.6757727130074
 20
121.62200831962249
 30
0.0
 11
516.48683108506111
 21
121.08007644131069
 31
0.0
  0
LINE
  5
630
  8
0
  6
CONTINUOUS
 10
519.21130661894028
 20
121.62200831962249
 30
0.0
 11
518.40024824688658
 21
121.08007644131069
 31
0.0
  0
ENDBLK
  5
632
  8
0
  0
BLOCK
  8
0
  2
*U58
 70
     1
 10
0.0
 20
0.0
 30
0.0
  3
*U58
  1

  0
TEXT
  5
634
  8
0
 10
581.56197824269475
 20
98.657563948838629
 30
0.0
 40
12.5
  1
905 CF Barge Channel
  7
ARIAL
  0
ENDBLK
  5
636
  8
0
  0
BLOCK
  8
0
  2
*X59
 70
     1
 10
0.0
 20
0.0
 30
0.0
  3
*X59
  1

  0
LINE
  5
642
  8
0
 62
     0
 10
514.9011537017758
 20
-22.50000000000006
 30
0.0
 11
520.00000000000011
 21
-17.401153701775851
 31
0.0
  0
LINE
  5
643
  8
0
 62
     0
 10
507.83008588991049
 20
-22.500000000000028
 30
0.0
 11
520.00000000000011
 21
-10.33008588991035
 31
0.0
  0
LINE
  5
644
  8
0
 62
     0
 10
502.00000000000028
 20
-21.259018078044761
 30
0.0
 11
520.00000000000011
 21
-3.2590180780449032
 31
0.0
  0
LINE
  5
645
  8
0
 62
     0
 10
509.50000000000023
 20
-6.6879502661794268
 30
0.0
 11
520.00000000000011
 21
3.8120497338205719
 31
0.0
  0
LINE
  5
646
  8
0
 62
     0
 10
502.00000000000028
 20
-14.18795026617931
 30
0.0
 11
508.1879502661792
 21
-8.0000000000004547
 31
0.0
  0
LINE
  5
647
  8
0
 62
     0
 10
507.08348746736698
 20
-2.033394986947143
 30
0.0
 11
520.00000000000011
 21
10.883117545686041
 31
0.0
  0
LINE
  5
648
  8
0
 62
     0
 10
502.0327247446059
 20
-0.0130898978427752
 30
0.0
 11
520.00000000000011
 21
17.95418535755152
 31
0.0
  0
LINE
  5
649
  8
0
 62
     0
 10
502.00000000000028
 20
7.0252531694171401
 30
0.0
 11
520.00000000000011
 21
25.025253169416999
 31
0.0
  0
LINE
  5
64A
  8
0
 62
     0
 10
502.00000000000028
 20
14.09632098128259
 30
0.0
 11
520.00000000000011
 21
32.096320981282481
 31
0.0
  0
LINE
  5
64B
  8
0
 62
     0
 10
502.00000000000028
 20
21.16738879314806
 30
0.0
 11
520.00000000000011
 21
39.16738879314795
 31
0.0
  0
LINE
  5
64C
  8
0
 62
     0
 10
502.00000000000028
 20
28.238456605013539
 30
0.0
 11
520.00000000000011
 21
46.238456605013418
 31
0.0
  0
LINE
  5
64D
  8
0
 62
     0
 10
502.00000000000028
 20
35.309524416879007
 30
0.0
 11
520.00000000000011
 21
53.309524416878901
 31
0.0
  0
LINE
  5
64E
  8
0
 62
     0
 10
502.00000000000028
 20
42.38059222874449
 30
0.0
 11
520.00000000000011
 21
60.38059222874432
 31
0.0
  0
LINE
  5
64F
  8
0
 62
     0
 10
502.00000000000028
 20
49.451660040609973
 30
0.0
 11
520.00000000000011
 21
67.451660040609852
 31
0.0
  0
LINE
  5
650
  8
0
 62
     0
 10
502.00000000000028
 20
56.522727852475441
 30
0.0
 11
520.00000000000011
 21
74.522727852475271
 31
0.0
  0
LINE
  5
651
  8
0
 62
     0
 10
502.00000000000028
 20
63.593795664340917
 30
0.0
 11
520.00000000000011
 21
81.593795664340817
 31
0.0
  0
LINE
  5
652
  8
0
 62
     0
 10
519.08420087297316
 20
87.749064349179207
 30
0.0
 11
520.00000000000011
 21
88.664863476206222
 31
0.0
  0
LINE
  5
653
  8
0
 62
     0
 10
502.00000000000028
 20
70.664863476206392
 30
0.0
 11
518.08420087297316
 21
86.749064349179207
 31
0.0
  0
LINE
  5
654
  8
0
 62
     0
 10
512.01313306110762
 20
87.749064349179207
 30
0.0
 11
520.00000000000011
 21
95.735931288071754
 31
0.0
  0
LINE
  5
655
  8
0
 62
     0
 10
502.00000000000028
 20
77.735931288071868
 30
0.0
 11
511.01313306110768
 21
86.749064349179264
 31
0.0
  0
LINE
  5
656
  8
0
 62
     0
 10
504.94206524924221
 20
87.749064349179207
 30
0.0
 11
520.00000000000011
 21
102.8069990999372
 31
0.0
  0
LINE
  5
657
  8
0
 62
     0
 10
502.00000000000028
 20
84.806999099937343
 30
0.0
 11
503.94206524924221
 21
86.749064349179207
 31
0.0
  0
LINE
  5
658
  8
0
 62
     0
 10
509.50000000000028
 20
99.378066911802875
 30
0.0
 11
520.00000000000011
 21
109.8780669118027
 31
0.0
  0
LINE
  5
659
  8
0
 62
     0
 10
502.00000000000028
 20
91.878066911802819
 30
0.0
 11
507.20322181366191
 21
97.081288725464375
 31
0.0
  0
LINE
  5
65A
  8
0
 62
     0
 10
506.05086527633159
 20
102.9999999999996
 30
0.0
 11
519.65338480580726
 21
116.6025195294752
 31
0.0
  0
LINE
  5
65B
  8
0
 62
     0
 10
502.00000000000028
 20
106.0202025355337
 30
0.0
 11
513.47979746446561
 21
117.4999999999991
 31
0.0
  0
LINE
  5
65C
  8
0
 62
     0
 10
502.00000000000028
 20
113.0912703473992
 30
0.0
 11
506.40872965260007
 21
117.4999999999991
 31
0.0
  0
ENDBLK
  5
65E
  8
0
  0
BLOCK
  8
0
  2
*X60
 70
     1
 10
0.0
 20
0.0
 30
0.0
  3
*X60
  1

  0
LINE
  5
660
  8
0
 62
     0
 10
30.3082411351715
 20
-210.0000281523962
 30
0.0
 11
50.308241135171357
 21
-210.0000281523962
 31
0.0
  0
LINE
  5
661
  8
0
 62
     0
 10
30.308241135171439
 20
-195.00002815239611
 30
0.0
 11
50.308241135171301
 21
-195.00002815239611
 31
0.0
  0
LINE
  5
662
  8
0
 62
     0
 10
30.308241135171372
 20
-180.00002815239611
 30
0.0
 11
50.308241135171272
 21
-180.00002815239611
 31
0.0
  0
LINE
  5
663
  8
0
 62
     0
 10
30.308241135171311
 20
-165.00002815239611
 30
0.0
 11
50.308241135171208
 21
-165.00002815239611
 31
0.0
  0
LINE
  5
664
  8
0
 62
     0
 10
30.308241135171251
 20
-150.00002815239611
 30
0.0
 11
50.308241135171158
 21
-150.00002815239611
 31
0.0
  0
LINE
  5
665
  8
0
 62
     0
 10
30.30824113517118
 20
-135.00002815239611
 30
0.0
 11
50.308241135171123
 21
-135.00002815239611
 31
0.0
  0
LINE
  5
666
  8
0
 62
     0
 10
30.308241135171119
 20
-120.0000281523961
 30
0.0
 11
50.308241135171059
 21
-120.0000281523961
 31
0.0
  0
LINE
  5
667
  8
0
 62
     0
 10
30.308241135171059
 20
-105.0000281523961
 30
0.0
 11
50.308241135171023
 21
-105.0000281523961
 31
0.0
  0
LINE
  5
668
  8
0
 62
     0
 10
30.308241135170999
 20
-90.000028152396141
 30
0.0
 11
50.308241135170967
 21
-90.000028152396141
 31
0.0
  0
LINE
  5
669
  8
0
 62
     0
 10
30.308241135170931
 20
-75.000028152396141
 30
0.0
 11
50.308241135170917
 21
-75.000028152396141
 31
0.0
  0
LINE
  5
66A
  8
0
 62
     0
 10
30.308241135170871
 20
-60.000028152396141
 30
0.0
 11
50.308241135170881
 21
-60.000028152396141
 31
0.0
  0
LINE
  5
66B
  8
0
 62
     0
 10
30.30824113517081
 20
-45.000028152396133
 30
0.0
 11
50.308241135170817
 21
-45.000028152396133
 31
0.0
  0
LINE
  5
66C
  8
0
 62
     0
 10
30.308241135170739
 20
-30.000028152396141
 30
0.0
 11
50.308241135170768
 21
-30.000028152396141
 31
0.0
  0
LINE
  5
66D
  8
0
 62
     0
 10
30.308241135170679
 20
-15.000028152396141
 30
0.0
 11
50.308241135170732
 21
-15.000028152396141
 31
0.0
  0
ENDBLK
  5
66F
  8
0
  0
ENDSEC
  0
SECTION
  2
ENTITIES
  0
CIRCLE
  5
185
  8
0
 10
16.483701512987839
 20
120.4080480157685
 30
0.0
 40
2.5000000000000009
1001
REVIT
1002
{
1070
     1
1000
576832
1002
}
1002
{
1070
     5
1000
233013
1002
}
1002
{
1070
     2
1000
-2005028
1002
}
  0
INSERT
  5
186
  8
0
  6
CONTINUOUS
  2
*U22
 10
0.0
 20
0.0
 30
0.0
1001
REVIT
1002
{
1070
     1
1000
576832
1002
}
1002
{
1070
     5
1000
233013
1002
}
1002
{
1070
     2
1000
-2005028
1002
}
1001
ACAD
1002
{
1000
R14_HATCH_DATA
1000
186
1011
1.0
1021
0.0
1031
4.5195132494784101E+059
1021
0.0
1031
0.0
1011
0.0
1021
0.0
1031
4.5195132494784101E+059
1021
1.0
1031
0.0
1011
0.0
1021
0.0
1031
4.5195132494784101E+059
1021
0.0
1031
1.0
1040
0.0
1010
0.0
1020
0.0
1030
1.0
1000
SOLID
1070
     1
1070
     0
1071
        1
1071
        0
1071
        1
1070
     2
1040
16.483701512987839
1040
120.4080480157685
1040
2.5000000000000009
1040
0.0
1040
6.2831853071795862
1070
     1
1071
        0
1070
     0
1070
     1
1071
        1
1040
0.0
1040
0.0
1040
0.0
1002
}
  0
LINE
  5
187
  8
0
 10
-31.221242679154241
 20
266.49700885648679
 30
0.0
 11
-139.79371409766119
 21
266.50305092390488
 31
0.0
1001
REVIT
1002
{
1070
     1
1000
576832
1002
}
1002
{
1070
     5
1000
233013
1002
}
1002
{
1070
     2
1000
-2005028
1002
}
  0
LINE
  5
188
  8
0
 10
16.483701512987839
 20
120.4080480157685
 30
0.0
 11
-31.221242679154241
 21
266.49700885648679
 31
0.0
1001
REVIT
1002
{
1070
     1
1000
576832
1002
}
1002
{
1070
     5
1000
233013
1002
}
1002
{
1070
     2
1000
-2005028
1002
}
  0
INSERT
  5
18A
  8
0
  2
*U23
 10
0.0
 20
0.0
 30
0.0
  0
CIRCLE
  5
18B
  8
0
 10
-31.106703976503031
 20
113.77888224415101
 30
0.0
 40
2.5000000000000009
1001
REVIT
1002
{
1070
     1
1000
576833
1002
}
1002
{
1070
     5
1000
233013
1002
}
1002
{
1070
     2
1000
-2005028
1002
}
  0
INSERT
  5
18C
  8
0
  6
CONTINUOUS
  2
*U24
 10
0.0
 20
0.0
 30
0.0
1001
REVIT
1002
{
1070
     1
1000
576833
1002
}
1002
{
1070
     5
1000
233013
1002
}
1002
{
1070
     2
1000
-2005028
1002
}
1001
ACAD
1002
{
1000
R14_HATCH_DATA
1000
18C
1011
1.0
1021
0.0
1031
4.5195132494784101E+059
1021
0.0
1031
0.0
1011
0.0
1021
0.0
1031
4.5195132494784101E+059
1021
1.0
1031
0.0
1011
0.0
1021
0.0
1031
4.5195132494784101E+059
1021
0.0
1031
1.0
1040
0.0
1010
0.0
1020
0.0
1030
1.0
1000
SOLID
1070
     1
1070
     0
1071
        1
1071
        0
1071
        1
1070
     2
1040
-31.106703976503031
1040
113.77888224415101
1040
2.5000000000000009
1040
0.0
1040
6.2831853071795862
1070
     1
1071
        0
1070
     0
1070
     1
1071
        1
1040
0.0
1040
0.0
1040
0.0
1002
}
  0
LINE
  5
18D
  8
0
 10
-55.214659919382207
 20
207.9827496182383
 30
0.0
 11
-19.786684808958341
 21
207.98274961823839
 31
0.0
1001
REVIT
1002
{
1070
     1
1000
576833
1002
}
1002
{
1070
     5
1000
233013
1002
}
1002
{
1070
     2
1000
-2005028
1002
}
  0
LINE
  5
18E
  8
0
 10
-31.106703976503031
 20
113.77888224415101
 30
0.0
 11
-55.214659919382207
 21
207.9827496182383
 31
0.0
1001
REVIT
1002
{
1070
     1
1000
576833
1002
}
1002
{
1070
     5
1000
233013
1002
}
1002
{
1070
     2
1000
-2005028
1002
}
  0
INSERT
  5
18F
  8
0
  2
*U25
 10
0.0
 20
0.0
 30
0.0
  0
CIRCLE
  5
190
  8
0
 10
414.80110512497521
 20
-7.3438215980008508
 30
0.0
 40
2.4999999999999418
1001
REVIT
1002
{
1070
     1
1000
576834
1002
}
1002
{
1070
     5
1000
233013
1002
}
1002
{
1070
     2
1000
-2005028
1002
}
  0
INSERT
  5
191
  8
0
  6
CONTINUOUS
  2
*U26
 10
0.0
 20
0.0
 30
0.0
1001
REVIT
1002
{
1070
     1
1000
576834
1002
}
1002
{
1070
     5
1000
233013
1002
}
1002
{
1070
     2
1000
-2005028
1002
}
1001
ACAD
1002
{
1000
R14_HATCH_DATA
1000
191
1011
1.0
1021
0.0
1031
4.5195132494784101E+059
1021
0.0
1031
0.0
1011
0.0
1021
0.0
1031
4.5195132494784101E+059
1021
1.0
1031
0.0
1011
0.0
1021
0.0
1031
4.5195132494784101E+059
1021
0.0
1031
1.0
1040
0.0
1010
0.0
1020
0.0
1030
1.0
1000
SOLID
1070
     1
1070
     0
1071
        1
1071
        0
1071
        1
1070
     2
1040
414.80110512497521
1040
-7.3438215980008508
1040
2.4999999999999418
1040
0.0
1040
6.2831853071795862
1070
     1
1071
        0
1070
     0
1070
     1
1071
        1
1040
0.0
1040
0.0
1040
0.0
1002
}
  0
LINE
  5
192
  8
0
 10
448.39867554860251
 20
-154.31045050723111
 30
0.0
 11
581.1703562433097
 21
-154.30440843981279
 31
0.0
1001
REVIT
1002
{
1070
     1
1000
576834
1002
}
1002
{
1070
     5
1000
233013
1002
}
1002
{
1070
     2
1000
-2005028
1002
}
  0
LINE
  5
193
  8
0
 10
414.80110512497521
 20
-7.3438215980008508
 30
0.0
 11
448.39867554860251
 21
-154.31045050723111
 31
0.0
1001
REVIT
1002
{
1070
     1
1000
576834
1002
}
1002
{
1070
     5
1000
233013
1002
}
1002
{
1070
     2
1000
-2005028
1002
}
  0
INSERT
  5
194
  8
0
  2
*U27
 10
0.0
 20
0.0
 30
0.0
  0
INSERT
  5
196
  8
0
  2
*U28
 10
0.0
 20
0.0
 30
0.0
  0
CIRCLE
  5
197
  8
0
 10
514.52881619290054
 20
-17.20683888383639
 30
0.0
 40
2.5000000000001119
1001
REVIT
1002
{
1070
     1
1000
576838
1002
}
1002
{
1070
     5
1000
233013
1002
}
1002
{
1070
     2
1000
-2005028
1002
}
  0
INSERT
  5
198
  8
0
  6
CONTINUOUS
  2
*U29
 10
0.0
 20
0.0
 30
0.0
1001
REVIT
1002
{
1070
     1
1000
576838
1002
}
1002
{
1070
     5
1000
233013
1002
}
1002
{
1070
     2
1000
-2005028
1002
}
1001
ACAD
1002
{
1000
R14_HATCH_DATA
1000
198
1011
1.0
1021
0.0
1031
4.5195132494784101E+059
1021
0.0
1031
0.0
1011
0.0
1021
0.0
1031
4.5195132494784101E+059
1021
1.0
1031
0.0
1011
0.0
1021
0.0
1031
4.5195132494784101E+059
1021
0.0
1031
1.0
1040
0.0
1010
0.0
1020
0.0
1030
1.0
1000
SOLID
1070
     1
1070
     0
1071
        1
1071
        0
1071
        1
1070
     2
1040
514.52881619290054
1040
-17.20683888383639
1040
2.5000000000001119
1040
0.0
1040
6.2831853071795862
1070
     1
1071
        0
1070
     0
1070
     1
1071
        1
1040
0.0
1040
0.0
1040
0.0
1002
}
  0
LINE
  5
199
  8
0
 10
530.12768817529889
 20
-73.29702377460174
 30
0.0
 11
581.1703562433097
 21
-73.290981707183491
 31
0.0
1001
REVIT
1002
{
1070
     1
1000
576838
1002
}
1002
{
1070
     5
1000
233013
1002
}
1002
{
1070
     2
1000
-2005028
1002
}
  0
LINE
  5
19A
  8
0
 10
514.52881619290054
 20
-17.20683888383639
 30
0.0
 11
530.12768817529889
 21
-73.29702377460174
 31
0.0
1001
REVIT
1002
{
1070
     1
1000
576838
1002
}
1002
{
1070
     5
1000
233013
1002
}
1002
{
1070
     2
1000
-2005028
1002
}
  0
INSERT
  5
19B
  8
0
  2
*U30
 10
0.0
 20
0.0
 30
0.0
  0
CIRCLE
  5
19C
  8
0
 10
63.608844761259633
 20
142.52139031750761
 30
0.0
 40
2.4999999999999938
1001
REVIT
1002
{
1070
     1
1000
576840
1002
}
1002
{
1070
     5
1000
578835
1002
}
1002
{
1070
     2
1000
-2005028
1002
}
  0
INSERT
  5
19D
  8
0
  6
CONTINUOUS
  2
*U31
 10
0.0
 20
0.0
 30
0.0
1001
REVIT
1002
{
1070
     1
1000
576840
1002
}
1002
{
1070
     5
1000
578835
1002
}
1002
{
1070
     2
1000
-2005028
1002
}
1001
ACAD
1002
{
1000
R14_HATCH_DATA
1000
19D
1011
1.0
1021
0.0
1031
4.5195132494784101E+059
1021
0.0
1031
0.0
1011
0.0
1021
0.0
1031
4.5195132494784101E+059
1021
1.0
1031
0.0
1011
0.0
1021
0.0
1031
4.5195132494784101E+059
1021
0.0
1031
1.0
1040
0.0
1010
0.0
1020
0.0
1030
1.0
1000
SOLID
1070
     1
1070
     0
1071
        1
1071
        0
1071
        1
1070
     2
1040
63.608844761259633
1040
142.52139031750761
1040
2.4999999999999938
1040
0.0
1040
6.2831853071795862
1070
     1
1071
        0
1070
     0
1070
     1
1071
        1
1040
0.0
1040
0.0
1040
0.0
1002
}
  0
LINE
  5
19E
  8
0
 10
10.95228222090525
 20
325.73171703224921
 30
0.0
 11
-35.090450499334878
 21
325.73775909966741
 31
0.0
1001
REVIT
1002
{
1070
     1
1000
576840
1002
}
1002
{
1070
     5
1000
578835
1002
}
1002
{
1070
     2
1000
-2005028
1002
}
  0
LINE
  5
19F
  8
0
 10
63.608844761259633
 20
142.52139031750761
 30
0.0
 11
10.95228222090525
 21
325.73171703224921
 31
0.0
1001
REVIT
1002
{
1070
     1
1000
576840
1002
}
1002
{
1070
     5
1000
578835
1002
}
1002
{
1070
     2
1000
-2005028
1002
}
  0
INSERT
  5
1A0
  8
0
  2
*U32
 10
0.0
 20
0.0
 30
0.0
  0
CIRCLE
  5
1A1
  8
0
 10
-97.224949441907796
 20
50.000000000000391
 30
0.0
 40
2.499999999999996
1001
REVIT
1002
{
1070
     1
1000
576842
1002
}
1002
{
1070
     5
1000
233013
1002
}
1002
{
1070
     2
1000
-2005028
1002
}
  0
INSERT
  5
1A2
  8
0
  6
CONTINUOUS
  2
*U33
 10
0.0
 20
0.0
 30
0.0
1001
REVIT
1002
{
1070
     1
1000
576842
1002
}
1002
{
1070
     5
1000
233013
1002
}
1002
{
1070
     2
1000
-2005028
1002
}
1001
ACAD
1002
{
1000
R14_HATCH_DATA
1000
1A2
1011
1.0
1021
0.0
1031
4.5195132494784101E+059
1021
0.0
1031
0.0
1011
0.0
1021
0.0
1031
4.5195132494784101E+059
1021
1.0
1031
0.0
1011
0.0
1021
0.0
1031
4.5195132494784101E+059
1021
0.0
1031
1.0
1040
0.0
1010
0.0
1020
0.0
1030
1.0
1000
SOLID
1070
     1
1070
     0
1071
        1
1071
        0
1071
        1
1070
     2
1040
-97.224949441907796
1040
50.000000000000391
1040
2.499999999999996
1040
0.0
1040
6.2831853071795862
1070
     1
1071
        0
1070
     0
1070
     1
1071
        1
1040
0.0
1040
0.0
1040
0.0
1002
}
  0
LINE
  5
1A3
  8
0
 10
-150.51034575045739
 20
-27.636480454841919
 30
0.0
 11
-136.4778981980796
 21
-27.630438387423691
 31
0.0
1001
REVIT
1002
{
1070
     1
1000
576842
1002
}
1002
{
1070
     5
1000
233013
1002
}
1002
{
1070
     2
1000
-2005028
1002
}
  0
LINE
  5
1A4
  8
0
 10
-97.224949441907796
 20
50.000000000000391
 30
0.0
 11
-150.51034575045739
 21
-27.636480454841909
 31
0.0
1001
REVIT
1002
{
1070
     1
1000
576842
1002
}
1002
{
1070
     5
1000
233013
1002
}
1002
{
1070
     2
1000
-2005028
1002
}
  0
INSERT
  5
1A5
  8
0
  2
*U34
 10
0.0
 20
0.0
 30
0.0
  0
CIRCLE
  5
1A6
  8
0
 10
475.4287047401358
 20
18.013544642077601
 30
0.0
 40
2.4999999999999969
1001
REVIT
1002
{
1070
     1
1000
576843
1002
}
1002
{
1070
     5
1000
233013
1002
}
1002
{
1070
     2
1000
-2005028
1002
}
  0
INSERT
  5
1A7
  8
0
  6
CONTINUOUS
  2
*U35
 10
0.0
 20
0.0
 30
0.0
1001
REVIT
1002
{
1070
     1
1000
576843
1002
}
1002
{
1070
     5
1000
233013
1002
}
1002
{
1070
     2
1000
-2005028
1002
}
1001
ACAD
1002
{
1000
R14_HATCH_DATA
1000
1A7
1011
1.0
1021
0.0
1031
4.5195132494784101E+059
1021
0.0
1031
0.0
1011
0.0
1021
0.0
1031
4.5195132494784101E+059
1021
1.0
1031
0.0
1011
0.0
1021
0.0
1031
4.5195132494784101E+059
1021
0.0
1031
1.0
1040
0.0
1010
0.0
1020
0.0
1030
1.0
1000
SOLID
1070
     1
1070
     0
1071
        1
1071
        0
1071
        1
1070
     2
1040
475.4287047401358
1040
18.013544642077601
1040
2.4999999999999969
1040
0.0
1040
6.2831853071795862
1070
     1
1071
        0
1070
     0
1070
     1
1071
        1
1040
0.0
1040
0.0
1040
0.0
1002
}
  0
LINE
  5
1A8
  8
0
 10
505.42653547551743
 20
-112.2438708002351
 30
0.0
 11
581.1703562433097
 21
-112.23782873281679
 31
0.0
1001
REVIT
1002
{
1070
     1
1000
576843
1002
}
1002
{
1070
     5
1000
233013
1002
}
1002
{
1070
     2
1000
-2005028
1002
}
  0
LINE
  5
1A9
  8
0
 10
475.4287047401358
 20
18.013544642077601
 30
0.0
 11
505.42653547551743
 21
-112.2438708002351
 31
0.0
1001
REVIT
1002
{
1070
     1
1000
576843
1002
}
1002
{
1070
     5
1000
233013
1002
}
1002
{
1070
     2
1000
-2005028
1002
}
  0
INSERT
  5
1AA
  8
0
  2
*U36
 10
0.0
 20
0.0
 30
0.0
  0
CIRCLE
  5
1AB
  8
0
 10
523.51745389984455
 20
74.826310777553473
 30
0.0
 40
2.4999999999999711
1001
REVIT
1002
{
1070
     1
1000
576846
1002
}
1002
{
1070
     5
1000
233011
1002
}
1002
{
1070
     2
1000
-2005028
1002
}
  0
INSERT
  5
1AC
  8
0
  6
CONTINUOUS
  2
*U37
 10
0.0
 20
0.0
 30
0.0
1001
REVIT
1002
{
1070
     1
1000
576846
1002
}
1002
{
1070
     5
1000
233011
1002
}
1002
{
1070
     2
1000
-2005028
1002
}
1001
ACAD
1002
{
1000
R14_HATCH_DATA
1000
1AC
1011
1.0
1021
0.0
1031
4.5195132494784101E+059
1021
0.0
1031
0.0
1011
0.0
1021
0.0
1031
4.5195132494784101E+059
1021
1.0
1031
0.0
1011
0.0
1021
0.0
1031
4.5195132494784101E+059
1021
0.0
1031
1.0
1040
0.0
1010
0.0
1020
0.0
1030
1.0
1000
SOLID
1070
     1
1070
     0
1071
        1
1071
        0
1071
        1
1070
     2
1040
523.51745389984455
1040
74.826310777553473
1040
2.4999999999999711
1040
0.0
1040
6.2831853071795862
1070
     1
1071
        0
1070
     0
1070
     1
1071
        1
1040
0.0
1040
0.0
1040
0.0
1002
}
  0
LINE
  5
1AD
  8
0
 10
566.06560274682454
 20
44.253956157221857
 30
0.0
 11
581.1703562433097
 21
44.259998224640078
 31
0.0
1001
REVIT
1002
{
1070
     1
1000
576846
1002
}
1002
{
1070
     5
1000
233011
1002
}
1002
{
1070
     2
1000
-2005028
1002
}
  0
LINE
  5
1AE
  8
0
 10
523.51745389984455
 20
74.826310777553473
 30
0.0
 11
566.06560274682454
 21
44.253956157221857
 31
0.0
1001
REVIT
1002
{
1070
     1
1000
576846
1002
}
1002
{
1070
     5
1000
233011
1002
}
1002
{
1070
     2
1000
-2005028
1002
}
  0
INSERT
  5
1AF
  8
0
  2
*U38
 10
0.0
 20
0.0
 30
0.0
  0
CIRCLE
  5
1B0
  8
0
 10
517.44353966597384
 20
123.38977527258901
 30
0.0
 40
2.5000000000000751
1001
REVIT
1002
{
1070
     1
1000
576847
1002
}
1002
{
1070
     5
1000
233013
1002
}
1002
{
1070
     2
1000
-2005028
1002
}
  0
INSERT
  5
1B1
  8
0
  6
CONTINUOUS
  2
*U39
 10
0.0
 20
0.0
 30
0.0
1001
REVIT
1002
{
1070
     1
1000
576847
1002
}
1002
{
1070
     5
1000
233013
1002
}
1002
{
1070
     2
1000
-2005028
1002
}
1001
ACAD
1002
{
1000
R14_HATCH_DATA
1000
1B1
1011
1.0
1021
0.0
1031
4.5195132494784101E+059
1021
0.0
1031
0.0
1011
0.0
1021
0.0
1031
4.5195132494784101E+059
1021
1.0
1031
0.0
1011
0.0
1021
0.0
1031
4.5195132494784101E+059
1021
0.0
1031
1.0
1040
0.0
1010
0.0
1020
0.0
1030
1.0
1000
SOLID
1070
     1
1070
     0
1071
        1
1071
        0
1071
        1
1070
     2
1040
517.44353966597384
1040
123.38977527258901
1040
2.5000000000000751
1040
0.0
1040
6.2831853071795862
1070
     1
1071
        0
1070
     0
1070
     1
1071
        1
1040
0.0
1040
0.0
1040
0.0
1002
}
  0
LINE
  5
1B2
  8
0
 10
564.927480178574
 20
104.4395319388686
 30
0.0
 11
579.92035624330981
 21
104.4455740062868
 31
0.0
1001
REVIT
1002
{
1070
     1
1000
576847
1002
}
1002
{
1070
     5
1000
233013
1002
}
1002
{
1070
     2
1000
-2005028
1002
}
  0
LINE
  5
1B3
  8
0
 10
517.44353966597384
 20
123.38977527258901
 30
0.0
 11
564.927480178574
 21
104.4395319388686
 31
0.0
1001
REVIT
1002
{
1070
     1
1000
576847
1002
}
1002
{
1070
     5
1000
233013
1002
}
1002
{
1070
     2
1000
-2005028
1002
}
  0
INSERT
  5
1B4
  8
0
  2
*U40
 10
0.0
 20
0.0
 30
0.0
  0
CIRCLE
  5
1B5
  8
0
 10
16.483701512987839
 20
120.4080480157685
 30
0.0
 40
2.5000000000000009
1001
REVIT
1002
{
1070
     1
1000
576963
1002
}
1002
{
1070
     5
1000
233013
1002
}
1002
{
1070
     2
1000
-2005028
1002
}
  0
INSERT
  5
1B6
  8
0
  6
CONTINUOUS
  2
*U41
 10
0.0
 20
0.0
 30
0.0
1001
REVIT
1002
{
1070
     1
1000
576963
1002
}
1002
{
1070
     5
1000
233013
1002
}
1002
{
1070
     2
1000
-2005028
1002
}
1001
ACAD
1002
{
1000
R14_HATCH_DATA
1000
1B6
1011
1.0
1021
0.0
1031
4.5195132494784101E+059
1021
0.0
1031
0.0
1011
0.0
1021
0.0
1031
4.5195132494784101E+059
1021
1.0
1031
0.0
1011
0.0
1021
0.0
1031
4.5195132494784101E+059
1021
0.0
1031
1.0
1040
0.0
1010
0.0
1020
0.0
1030
1.0
1000
SOLID
1070
     1
1070
     0
1071
        1
1071
        0
1071
        1
1070
     2
1040
16.483701512987839
1040
120.4080480157685
1040
2.5000000000000009
1040
0.0
1040
6.2831853071795862
1070
     1
1071
        0
1070
     0
1070
     1
1071
        1
1040
0.0
1040
0.0
1040
0.0
1002
}
  0
LINE
  5
1B7
  8
0
 10
-31.221242679154241
 20
266.49700885648679
 30
0.0
 11
-139.79371409766119
 21
266.50305092390488
 31
0.0
1001
REVIT
1002
{
1070
     1
1000
576963
1002
}
1002
{
1070
     5
1000
233013
1002
}
1002
{
1070
     2
1000
-2005028
1002
}
  0
LINE
  5
1B8
  8
0
 10
16.483701512987839
 20
120.4080480157685
 30
0.0
 11
-31.221242679154241
 21
266.49700885648679
 31
0.0
1001
REVIT
1002
{
1070
     1
1000
576963
1002
}
1002
{
1070
     5
1000
233013
1002
}
1002
{
1070
     2
1000
-2005028
1002
}
  0
INSERT
  5
1B9
  8
0
  2
*U42
 10
0.0
 20
0.0
 30
0.0
  0
CIRCLE
  5
1BA
  8
0
 10
-31.106703976503031
 20
113.77888224415101
 30
0.0
 40
2.5000000000000009
1001
REVIT
1002
{
1070
     1
1000
576964
1002
}
1002
{
1070
     5
1000
233013
1002
}
1002
{
1070
     2
1000
-2005028
1002
}
  0
INSERT
  5
1BB
  8
0
  6
CONTINUOUS
  2
*U43
 10
0.0
 20
0.0
 30
0.0
1001
REVIT
1002
{
1070
     1
1000
576964
1002
}
1002
{
1070
     5
1000
233013
1002
}
1002
{
1070
     2
1000
-2005028
1002
}
1001
ACAD
1002
{
1000
R14_HATCH_DATA
1000
1BB
1011
1.0
1021
0.0
1031
4.5195132494784101E+059
1021
0.0
1031
0.0
1011
0.0
1021
0.0
1031
4.5195132494784101E+059
1021
1.0
1031
0.0
1011
0.0
1021
0.0
1031
4.5195132494784101E+059
1021
0.0
1031
1.0
1040
0.0
1010
0.0
1020
0.0
1030
1.0
1000
SOLID
1070
     1
1070
     0
1071
        1
1071
        0
1071
        1
1070
     2
1040
-31.106703976503031
1040
113.77888224415101
1040
2.5000000000000009
1040
0.0
1040
6.2831853071795862
1070
     1
1071
        0
1070
     0
1070
     1
1071
        1
1040
0.0
1040
0.0
1040
0.0
1002
}
  0
LINE
  5
1BC
  8
0
 10
-55.214659919382207
 20
207.9827496182383
 30
0.0
 11
-19.786684808958341
 21
207.98274961823839
 31
0.0
1001
REVIT
1002
{
1070
     1
1000
576964
1002
}
1002
{
1070
     5
1000
233013
1002
}
1002
{
1070
     2
1000
-2005028
1002
}
  0
LINE
  5
1BD
  8
0
 10
-31.106703976503031
 20
113.77888224415101
 30
0.0
 11
-55.214659919382207
 21
207.9827496182383
 31
0.0
1001
REVIT
1002
{
1070
     1
1000
576964
1002
}
1002
{
1070
     5
1000
233013
1002
}
1002
{
1070
     2
1000
-2005028
1002
}
  0
INSERT
  5
1BE
  8
0
  2
*U44
 10
0.0
 20
0.0
 30
0.0
  0
CIRCLE
  5
1BF
  8
0
 10
414.80110512497521
 20
-7.3438215980008508
 30
0.0
 40
2.4999999999999418
1001
REVIT
1002
{
1070
     1
1000
576965
1002
}
1002
{
1070
     5
1000
233013
1002
}
1002
{
1070
     2
1000
-2005028
1002
}
  0
INSERT
  5
1C0
  8
0
  6
CONTINUOUS
  2
*U45
 10
0.0
 20
0.0
 30
0.0
1001
REVIT
1002
{
1070
     1
1000
576965
1002
}
1002
{
1070
     5
1000
233013
1002
}
1002
{
1070
     2
1000
-2005028
1002
}
1001
ACAD
1002
{
1000
R14_HATCH_DATA
1000
1C0
1011
1.0
1021
0.0
1031
4.5195132494784101E+059
1021
0.0
1031
0.0
1011
0.0
1021
0.0
1031
4.5195132494784101E+059
1021
1.0
1031
0.0
1011
0.0
1021
0.0
1031
4.5195132494784101E+059
1021
0.0
1031
1.0
1040
0.0
1010
0.0
1020
0.0
1030
1.0
1000
SOLID
1070
     1
1070
     0
1071
        1
1071
        0
1071
        1
1070
     2
1040
414.80110512497521
1040
-7.3438215980008508
1040
2.4999999999999418
1040
0.0
1040
6.2831853071795862
1070
     1
1071
        0
1070
     0
1070
     1
1071
        1
1040
0.0
1040
0.0
1040
0.0
1002
}
  0
LINE
  5
1C1
  8
0
 10
448.39867554860251
 20
-154.31045050723111
 30
0.0
 11
581.1703562433097
 21
-154.30440843981279
 31
0.0
1001
REVIT
1002
{
1070
     1
1000
576965
1002
}
1002
{
1070
     5
1000
233013
1002
}
1002
{
1070
     2
1000
-2005028
1002
}
  0
LINE
  5
1C2
  8
0
 10
414.80110512497521
 20
-7.3438215980008508
 30
0.0
 11
448.39867554860251
 21
-154.31045050723111
 31
0.0
1001
REVIT
1002
{
1070
     1
1000
576965
1002
}
1002
{
1070
     5
1000
233013
1002
}
1002
{
1070
     2
1000
-2005028
1002
}
  0
INSERT
  5
1C3
  8
0
  2
*U46
 10
0.0
 20
0.0
 30
0.0
  0
CIRCLE
  5
1C4
  8
0
 10
514.52881619290054
 20
-17.20683888383639
 30
0.0
 40
2.5000000000001119
1001
REVIT
1002
{
1070
     1
1000
576966
1002
}
1002
{
1070
     5
1000
233013
1002
}
1002
{
1070
     2
1000
-2005028
1002
}
  0
INSERT
  5
1C5
  8
0
  6
CONTINUOUS
  2
*U47
 10
0.0
 20
0.0
 30
0.0
1001
REVIT
1002
{
1070
     1
1000
576966
1002
}
1002
{
1070
     5
1000
233013
1002
}
1002
{
1070
     2
1000
-2005028
1002
}
1001
ACAD
1002
{
1000
R14_HATCH_DATA
1000
1C5
1011
1.0
1021
0.0
1031
4.5195132494784101E+059
1021
0.0
1031
0.0
1011
0.0
1021
0.0
1031
4.5195132494784101E+059
1021
1.0
1031
0.0
1011
0.0
1021
0.0
1031
4.5195132494784101E+059
1021
0.0
1031
1.0
1040
0.0
1010
0.0
1020
0.0
1030
1.0
1000
SOLID
1070
     1
1070
     0
1071
        1
1071
        0
1071
        1
1070
     2
1040
514.52881619290054
1040
-17.20683888383639
1040
2.5000000000001119
1040
0.0
1040
6.2831853071795862
1070
     1
1071
        0
1070
     0
1070
     1
1071
        1
1040
0.0
1040
0.0
1040
0.0
1002
}
  0
LINE
  5
1C6
  8
0
 10
530.12768817529889
 20
-73.29702377460174
 30
0.0
 11
581.1703562433097
 21
-73.290981707183491
 31
0.0
1001
REVIT
1002
{
1070
     1
1000
576966
1002
}
1002
{
1070
     5
1000
233013
1002
}
1002
{
1070
     2
1000
-2005028
1002
}
  0
LINE
  5
1C7
  8
0
 10
514.52881619290054
 20
-17.20683888383639
 30
0.0
 11
530.12768817529889
 21
-73.29702377460174
 31
0.0
1001
REVIT
1002
{
1070
     1
1000
576966
1002
}
1002
{
1070
     5
1000
233013
1002
}
1002
{
1070
     2
1000
-2005028
1002
}
  0
INSERT
  5
1C8
  8
0
  2
*U48
 10
0.0
 20
0.0
 30
0.0
  0
CIRCLE
  5
1C9
  8
0
 10
509.9890150658988
 20
161.2543169176212
 30
0.0
 40
2.4999999999999409
1001
REVIT
1002
{
1070
     1
1000
576967
1002
}
1002
{
1070
     5
1000
233011
1002
}
1002
{
1070
     2
1000
-2005028
1002
}
  0
INSERT
  5
1CA
  8
0
  6
CONTINUOUS
  2
*U49
 10
0.0
 20
0.0
 30
0.0
1001
REVIT
1002
{
1070
     1
1000
576967
1002
}
1002
{
1070
     5
1000
233011
1002
}
1002
{
1070
     2
1000
-2005028
1002
}
1001
ACAD
1002
{
1000
R14_HATCH_DATA
1000
1CA
1011
1.0
1021
0.0
1031
4.5195132494784101E+059
1021
0.0
1031
0.0
1011
0.0
1021
0.0
1031
4.5195132494784101E+059
1021
1.0
1031
0.0
1011
0.0
1021
0.0
1031
4.5195132494784101E+059
1021
0.0
1031
1.0
1040
0.0
1010
0.0
1020
0.0
1030
1.0
1000
SOLID
1070
     1
1070
     0
1071
        1
1071
        0
1071
        1
1070
     2
1040
509.9890150658988
1040
161.2543169176212
1040
2.4999999999999409
1040
0.0
1040
6.2831853071795862
1070
     1
1071
        0
1070
     0
1070
     1
1071
        1
1040
0.0
1040
0.0
1040
0.0
1002
}
  0
LINE
  5
1CB
  8
0
 10
544.40248017857414
 20
217.08291112275811
 30
0.0
 11
581.1703562433097
 21
217.0889531901762
 31
0.0
1001
REVIT
1002
{
1070
     1
1000
576967
1002
}
1002
{
1070
     5
1000
233011
1002
}
1002
{
1070
     2
1000
-2005028
1002
}
  0
LINE
  5
1CC
  8
0
 10
509.9890150658988
 20
161.2543169176212
 30
0.0
 11
544.40248017857414
 21
217.08291112275811
 31
0.0
1001
REVIT
1002
{
1070
     1
1000
576967
1002
}
1002
{
1070
     5
1000
233011
1002
}
1002
{
1070
     2
1000
-2005028
1002
}
  0
INSERT
  5
1CD
  8
0
  2
*U50
 10
0.0
 20
0.0
 30
0.0
  0
CIRCLE
  5
1CE
  8
0
 10
-97.224949441907796
 20
50.000000000000391
 30
0.0
 40
2.499999999999996
1001
REVIT
1002
{
1070
     1
1000
576969
1002
}
1002
{
1070
     5
1000
233013
1002
}
1002
{
1070
     2
1000
-2005028
1002
}
  0
INSERT
  5
1CF
  8
0
  6
CONTINUOUS
  2
*U51
 10
0.0
 20
0.0
 30
0.0
1001
REVIT
1002
{
1070
     1
1000
576969
1002
}
1002
{
1070
     5
1000
233013
1002
}
1002
{
1070
     2
1000
-2005028
1002
}
1001
ACAD
1002
{
1000
R14_HATCH_DATA
1000
1CF
1011
1.0
1021
0.0
1031
4.5195132494784101E+059
1021
0.0
1031
0.0
1011
0.0
1021
0.0
1031
4.5195132494784101E+059
1021
1.0
1031
0.0
1011
0.0
1021
0.0
1031
4.5195132494784101E+059
1021
0.0
1031
1.0
1040
0.0
1010
0.0
1020
0.0
1030
1.0
1000
SOLID
1070
     1
1070
     0
1071
        1
1071
        0
1071
        1
1070
     2
1040
-97.224949441907796
1040
50.000000000000391
1040
2.499999999999996
1040
0.0
1040
6.2831853071795862
1070
     1
1071
        0
1070
     0
1070
     1
1071
        1
1040
0.0
1040
0.0
1040
0.0
1002
}
  0
LINE
  5
1D0
  8
0
 10
-150.51034575045739
 20
-27.636480454841919
 30
0.0
 11
-136.4778981980796
 21
-27.630438387423691
 31
0.0
1001
REVIT
1002
{
1070
     1
1000
576969
1002
}
1002
{
1070
     5
1000
233013
1002
}
1002
{
1070
     2
1000
-2005028
1002
}
  0
LINE
  5
1D1
  8
0
 10
-97.224949441907796
 20
50.000000000000391
 30
0.0
 11
-150.51034575045739
 21
-27.636480454841909
 31
0.0
1001
REVIT
1002
{
1070
     1
1000
576969
1002
}
1002
{
1070
     5
1000
233013
1002
}
1002
{
1070
     2
1000
-2005028
1002
}
  0
INSERT
  5
1D2
  8
0
  2
*U52
 10
0.0
 20
0.0
 30
0.0
  0
CIRCLE
  5
1D3
  8
0
 10
475.4287047401358
 20
18.013544642077601
 30
0.0
 40
2.4999999999999969
1001
REVIT
1002
{
1070
     1
1000
576970
1002
}
1002
{
1070
     5
1000
233013
1002
}
1002
{
1070
     2
1000
-2005028
1002
}
  0
INSERT
  5
1D4
  8
0
  6
CONTINUOUS
  2
*U53
 10
0.0
 20
0.0
 30
0.0
1001
REVIT
1002
{
1070
     1
1000
576970
1002
}
1002
{
1070
     5
1000
233013
1002
}
1002
{
1070
     2
1000
-2005028
1002
}
1001
ACAD
1002
{
1000
R14_HATCH_DATA
1000
1D4
1011
1.0
1021
0.0
1031
4.5195132494784101E+059
1021
0.0
1031
0.0
1011
0.0
1021
0.0
1031
4.5195132494784101E+059
1021
1.0
1031
0.0
1011
0.0
1021
0.0
1031
4.5195132494784101E+059
1021
0.0
1031
1.0
1040
0.0
1010
0.0
1020
0.0
1030
1.0
1000
SOLID
1070
     1
1070
     0
1071
        1
1071
        0
1071
        1
1070
     2
1040
475.4287047401358
1040
18.013544642077601
1040
2.4999999999999969
1040
0.0
1040
6.2831853071795862
1070
     1
1071
        0
1070
     0
1070
     1
1071
        1
1040
0.0
1040
0.0
1040
0.0
1002
}
  0
LINE
  5
1D5
  8
0
 10
505.42653547551743
 20
-112.2438708002351
 30
0.0
 11
581.1703562433097
 21
-112.23782873281679
 31
0.0
1001
REVIT
1002
{
1070
     1
1000
576970
1002
}
1002
{
1070
     5
1000
233013
1002
}
1002
{
1070
     2
1000
-2005028
1002
}
  0
LINE
  5
1D6
  8
0
 10
475.4287047401358
 20
18.013544642077601
 30
0.0
 11
505.42653547551743
 21
-112.2438708002351
 31
0.0
1001
REVIT
1002
{
1070
     1
1000
576970
1002
}
1002
{
1070
     5
1000
233013
1002
}
1002
{
1070
     2
1000
-2005028
1002
}
  0
INSERT
  5
1D7
  8
0
  2
*U54
 10
0.0
 20
0.0
 30
0.0
  0
CIRCLE
  5
1D8
  8
0
 10
523.51745389984455
 20
74.826310777553473
 30
0.0
 40
2.4999999999999711
1001
REVIT
1002
{
1070
     1
1000
576973
1002
}
1002
{
1070
     5
1000
233011
1002
}
1002
{
1070
     2
1000
-2005028
1002
}
  0
INSERT
  5
1D9
  8
0
  6
CONTINUOUS
  2
*U55
 10
0.0
 20
0.0
 30
0.0
1001
REVIT
1002
{
1070
     1
1000
576973
1002
}
1002
{
1070
     5
1000
233011
1002
}
1002
{
1070
     2
1000
-2005028
1002
}
1001
ACAD
1002
{
1000
R14_HATCH_DATA
1000
1D9
1011
1.0
1021
0.0
1031
4.5195132494784101E+059
1021
0.0
1031
0.0
1011
0.0
1021
0.0
1031
4.5195132494784101E+059
1021
1.0
1031
0.0
1011
0.0
1021
0.0
1031
4.5195132494784101E+059
1021
0.0
1031
1.0
1040
0.0
1010
0.0
1020
0.0
1030
1.0
1000
SOLID
1070
     1
1070
     0
1071
        1
1071
        0
1071
        1
1070
     2
1040
523.51745389984455
1040
74.826310777553473
1040
2.4999999999999711
1040
0.0
1040
6.2831853071795862
1070
     1
1071
        0
1070
     0
1070
     1
1071
        1
1040
0.0
1040
0.0
1040
0.0
1002
}
  0
LINE
  5
1DA
  8
0
 10
566.06560274682454
 20
44.253956157221857
 30
0.0
 11
581.1703562433097
 21
44.259998224640078
 31
0.0
1001
REVIT
1002
{
1070
     1
1000
576973
1002
}
1002
{
1070
     5
1000
233011
1002
}
1002
{
1070
     2
1000
-2005028
1002
}
  0
LINE
  5
1DB
  8
0
 10
523.51745389984455
 20
74.826310777553473
 30
0.0
 11
566.06560274682454
 21
44.253956157221857
 31
0.0
1001
REVIT
1002
{
1070
     1
1000
576973
1002
}
1002
{
1070
     5
1000
233011
1002
}
1002
{
1070
     2
1000
-2005028
1002
}
  0
INSERT
  5
1DC
  8
0
  2
*U56
 10
0.0
 20
0.0
 30
0.0
  0
CIRCLE
  5
1DD
  8
0
 10
517.44353966597384
 20
123.38977527258901
 30
0.0
 40
2.5000000000000751
1001
REVIT
1002
{
1070
     1
1000
576974
1002
}
1002
{
1070
     5
1000
233013
1002
}
1002
{
1070
     2
1000
-2005028
1002
}
  0
INSERT
  5
1DE
  8
0
  6
CONTINUOUS
  2
*U57
 10
0.0
 20
0.0
 30
0.0
1001
REVIT
1002
{
1070
     1
1000
576974
1002
}
1002
{
1070
     5
1000
233013
1002
}
1002
{
1070
     2
1000
-2005028
1002
}
1001
ACAD
1002
{
1000
R14_HATCH_DATA
1000
1DE
1011
1.0
1021
0.0
1031
4.5195132494784101E+059
1021
0.0
1031
0.0
1011
0.0
1021
0.0
1031
4.5195132494784101E+059
1021
1.0
1031
0.0
1011
0.0
1021
0.0
1031
4.5195132494784101E+059
1021
0.0
1031
1.0
1040
0.0
1010
0.0
1020
0.0
1030
1.0
1000
SOLID
1070
     1
1070
     0
1071
        1
1071
        0
1071
        1
1070
     2
1040
517.44353966597384
1040
123.38977527258901
1040
2.5000000000000751
1040
0.0
1040
6.2831853071795862
1070
     1
1071
        0
1070
     0
1070
     1
1071
        1
1040
0.0
1040
0.0
1040
0.0
1002
}
  0
LINE
  5
1DF
  8
0
 10
564.927480178574
 20
104.4395319388686
 30
0.0
 11
579.92035624330981
 21
104.4455740062868
 31
0.0
1001
REVIT
1002
{
1070
     1
1000
576974
1002
}
1002
{
1070
     5
1000
233013
1002
}
1002
{
1070
     2
1000
-2005028
1002
}
  0
LINE
  5
1E0
  8
0
 10
517.44353966597384
 20
123.38977527258901
 30
0.0
 11
564.927480178574
 21
104.4395319388686
 31
0.0
1001
REVIT
1002
{
1070
     1
1000
576974
1002
}
1002
{
1070
     5
1000
233013
1002
}
1002
{
1070
     2
1000
-2005028
1002
}
  0
INSERT
  5
1E1
  8
0
  2
*U58
 10
0.0
 20
0.0
 30
0.0
  0
LINE
  5
245
  8
0
 10
-220.171629530247
 20
-53.408250613458009
 30
0.0
 11
-220.17162953024669
 21
68.037756244941889
 31
0.0
  0
LINE
  5
246
  8
0
 10
-220.17162953024641
 20
196.59174938654201
 30
0.0
 11
-220.17162953024669
 21
75.145742528142094
 31
0.0
  0
LINE
  5
247
  8
0
 10
-220.171629530247
 20
-53.408250613458009
 30
0.0
 11
-220.17162953024669
 21
68.037756244941889
 31
0.0
  0
LINE
  5
248
  8
0
 10
-220.17162953024669
 20
68.037756244941889
 30
0.0
 11
-209.8640103693659
 21
69.855267609872655
 31
0.0
  0
LINE
  5
249
  8
0
 10
-209.86401036936579
 20
69.855267609872655
 30
0.0
 11
-230.47924869112759
 21
73.328231163211328
 31
0.0
  0
LINE
  5
24A
  8
0
 10
-230.47924869112759
 20
73.328231163211328
 30
0.0
 11
-220.17162953024669
 21
75.145742528142094
 31
0.0
  0
LINE
  5
24B
  8
0
 10
-220.17162953024669
 20
75.145742528142094
 30
0.0
 11
-220.17162953024641
 21
196.59174938654201
 31
0.0
  0
LINE
  5
24C
  8
0
 10
90.000000000000171
 20
-218.41902815239609
 30
0.0
 11
-26.446006858399731
 21
-218.41902815239609
 31
0.0
  0
LINE
  5
24D
  8
0
 10
-149.9999999999998
 20
-218.41902815239609
 30
0.0
 11
-33.553993141599932
 21
-218.41902815239609
 31
0.0
  0
LINE
  5
24E
  8
0
 10
90.000000000000171
 20
-218.41902815239609
 30
0.0
 11
-26.446006858399731
 21
-218.41902815239609
 31
0.0
  0
LINE
  5
24F
  8
0
 10
-26.446006858399731
 20
-218.41902815239609
 30
0.0
 11
-28.263518223330522
 21
-208.1114089915153
 31
0.0
  0
LINE
  5
250
  8
0
 10
-28.263518223330522
 20
-208.11140899151519
 30
0.0
 11
-31.736481776669141
 21
-228.726647313277
 31
0.0
  0
LINE
  5
251
  8
0
 10
-31.736481776669141
 20
-228.726647313277
 30
0.0
 11
-33.553993141599932
 21
-218.41902815239609
 31
0.0
  0
LINE
  5
252
  8
0
 10
-33.553993141599932
 20
-218.41902815239609
 30
0.0
 11
-149.9999999999998
 21
-218.41902815239609
 31
0.0
  0
LINE
  5
253
  8
0
 10
420.15413036985058
 20
125.3713203435592
 30
0.0
 11
416.15413036984921
 21
125.3713203435592
 31
0.0
1001
REVIT
1002
{
1070
     3
1000
211597
1002
}
  0
LINE
  5
254
  8
0
 10
418.65413036985098
 20
111.62132034355911
 30
0.0
 11
418.65413036985098
 21
124.62132034355911
 31
0.0
1001
REVIT
1002
{
1070
     3
1000
211597
1002
}
  0
LINE
  5
255
  8
0
 10
418.1541303698499
 20
109.6213203435592
 30
0.0
 11
418.65413036985098
 21
111.62132034355911
 31
0.0
1001
REVIT
1002
{
1070
     3
1000
211597
1002
}
  0
LINE
  5
256
  8
0
 10
417.65413036985109
 20
111.62132034355911
 30
0.0
 11
418.1541303698499
 21
109.6213203435592
 31
0.0
1001
REVIT
1002
{
1070
     3
1000
211597
1002
}
  0
LINE
  5
257
  8
0
 10
417.65413036985109
 20
124.62132034355911
 30
0.0
 11
417.65413036985109
 21
111.62132034355911
 31
0.0
1001
REVIT
1002
{
1070
     3
1000
211597
1002
}
  0
LINE
  5
258
  8
0
 10
416.45426682873961
 20
124.62132034355911
 30
0.0
 11
417.65413036985109
 21
124.62132034355911
 31
0.0
1001
REVIT
1002
{
1070
     3
1000
211597
1002
}
  0
LINE
  5
259
  8
0
 10
418.65413036985098
 20
124.62132034355911
 30
0.0
 11
419.853993910962
 21
124.62132034355911
 31
0.0
1001
REVIT
1002
{
1070
     3
1000
211597
1002
}
  0
LINE
  5
25A
  8
0
 10
420.15413036985058
 20
125.3713203435592
 30
0.0
 11
419.853993910962
 21
124.62132034355911
 31
0.0
1001
REVIT
1002
{
1070
     3
1000
211597
1002
}
  0
LINE
  5
25B
  8
0
 10
416.15413036984921
 20
125.3713203435592
 30
0.0
 11
416.45426682873961
 21
124.62132034355911
 31
0.0
1001
REVIT
1002
{
1070
     3
1000
211597
1002
}
  0
LINE
  5
25C
  8
0
 10
523.51789321881165
 20
161.12132034355989
 30
0.0
 11
523.51789321881165
 21
71.12132034355983
 31
0.0
1001
REVIT
1002
{
1070
     3
1000
578786
1002
}
  0
LINE
  5
25D
  8
0
 10
523.51789321881165
 20
161.12132034355989
 30
0.0
 11
480.51789321881159
 21
161.12132034355989
 31
0.0
1001
REVIT
1002
{
1070
     3
1000
578786
1002
}
  0
LINE
  5
25E
  8
0
 10
523.51789321881165
 20
71.12132034355983
 30
0.0
 11
528.51789321881165
 21
62.461066305715477
 31
0.0
1001
REVIT
1002
{
1070
     3
1000
578786
1002
}
  0
ARC
  5
25F
  8
0
 10
480.51789321881159
 20
158.62132034355989
 30
0.0
 40
2.5000000000000022
 50
90.0
 51
270.0
1001
REVIT
1002
{
1070
     3
1000
578786
1002
}
  0
LINE
  5
260
  8
0
 10
480.51789321881159
 20
156.12132034355989
 30
0.0
 11
490.51789321881159
 21
156.12132034355989
 31
0.0
1001
REVIT
1002
{
1070
     3
1000
578786
1002
}
  0
LINE
  5
261
  8
0
 10
520.51789321881313
 20
123.6213203435598
 30
0.0
 11
488.51789321881301
 21
123.6213203435598
 31
0.0
1001
REVIT
1002
{
1070
     3
1000
578786
1002
}
  0
LINE
  5
262
  8
0
 10
481.51789321881262
 20
123.6213203435598
 30
0.0
 11
449.51789321881307
 21
123.6213203435598
 31
0.0
1001
REVIT
1002
{
1070
     3
1000
578786
1002
}
  0
LINE
  5
263
  8
0
 10
442.51789321881279
 20
123.6213203435598
 30
0.0
 11
418.65413036985109
 21
123.6213203435598
 31
0.0
1001
REVIT
1002
{
1070
     3
1000
578786
1002
}
  0
LINE
  5
264
  8
0
 10
417.65413036985109
 20
123.6213203435598
 30
0.0
 11
405.51789321881307
 21
123.6213203435598
 31
0.0
1001
REVIT
1002
{
1070
     3
1000
578786
1002
}
  0
LINE
  5
265
  8
0
 10
405.51789321881307
 20
123.6213203435598
 30
0.0
 11
414.17814725665738
 21
128.62132034355969
 31
0.0
1001
REVIT
1002
{
1070
     3
1000
578786
1002
}
  0
LINE
  5
266
  8
0
 10
520.51789321881313
 20
123.6213203435598
 30
0.0
 11
520.51789321881313
 21
158.6213203435598
 31
0.0
1001
REVIT
1002
{
1070
     3
1000
578786
1002
}
  0
LINE
  5
267
  8
0
 10
520.51789321881313
 20
158.6213203435598
 30
0.0
 11
480.51789321881307
 21
158.6213203435598
 31
0.0
1001
REVIT
1002
{
1070
     3
1000
578786
1002
}
  0
LINE
  5
268
  8
0
 10
442.51789321881279
 20
123.6213203435598
 30
0.0
 11
451.17814725665721
 21
128.6213203435598
 31
0.0
1001
REVIT
1002
{
1070
     3
1000
578786
1002
}
  0
LINE
  5
269
  8
0
 10
451.17814725665721
 20
128.6213203435598
 30
0.0
 11
449.51789321881307
 21
123.6213203435598
 31
0.0
  0
LINE
  5
26A
  8
0
 10
481.51789321881262
 20
123.6213203435598
 30
0.0
 11
490.17814725665733
 21
128.62132034356
 31
0.0
1001
REVIT
1002
{
1070
     3
1000
578786
1002
}
  0
LINE
  5
26B
  8
0
 10
490.17814725665733
 20
128.62132034356
 30
0.0
 11
488.51789321881301
 21
123.6213203435598
 31
0.0
  0
LINE
  5
26C
  8
0
 10
-220.17162953024771
 20
102.5000000000004
 30
0.0
 11
499.99999999999932
 21
102.5000000000003
 31
0.0
  0
LINE
  5
26D
  8
0
 10
499.99999999999932
 20
102.5000000000003
 30
0.0
 11
499.99999999999932
 21
117.5000000000005
 31
0.0
  0
LINE
  5
26E
  8
0
 10
499.99999999999932
 20
117.5000000000005
 30
0.0
 11
418.65413036985092
 21
117.5000000000005
 31
0.0
  0
LINE
  5
26F
  8
0
 10
417.65413036985098
 20
117.5000000000005
 30
0.0
 11
-220.17162953024771
 21
117.5000000000006
 31
0.0
  0
LINE
  5
270
  8
0
 10
499.99999999999932
 20
110.0000000000009
 30
0.0
 11
418.24880028396041
 21
110.0000000000009
 31
0.0
1001
REVIT
1002
{
1070
     3
1000
456193
1002
}
  0
LINE
  5
271
  8
0
 10
418.05946045573972
 20
110.0000000000009
 30
0.0
 11
-220.17162953024771
 21
110.00000000000099
 31
0.0
1001
REVIT
1002
{
1070
     3
1000
456193
1002
}
  0
LINE
  5
272
  8
0
 10
499.99999999999932
 20
107.5000000000003
 30
0.0
 11
-220.17162953024771
 21
107.5000000000004
 31
0.0
1001
REVIT
1002
{
1070
     3
1000
456193
1002
}
  0
LINE
  5
273
  8
0
 10
499.99999999999932
 20
112.5000000000001
 30
0.0
 11
418.65413036985092
 21
112.5000000000001
 31
0.0
1001
REVIT
1002
{
1070
     3
1000
456193
1002
}
  0
LINE
  5
274
  8
0
 10
417.65413036985098
 20
112.5000000000001
 30
0.0
 11
-220.171629530247
 21
112.5000000000002
 31
0.0
1001
REVIT
1002
{
1070
     3
1000
456193
1002
}
  0
LINE
  5
275
  8
0
 10
499.99999999999932
 20
115.0000000000001
 30
0.0
 11
418.65413036985092
 21
115.0000000000001
 31
0.0
1001
REVIT
1002
{
1070
     3
1000
456193
1002
}
  0
LINE
  5
276
  8
0
 10
417.65413036985098
 20
115.0000000000001
 30
0.0
 11
-220.171629530247
 21
115.0000000000002
 31
0.0
1001
REVIT
1002
{
1070
     3
1000
456193
1002
}
  0
LINE
  5
277
  8
0
 10
499.99999999999932
 20
105.0000000000003
 30
0.0
 11
-220.17162953024771
 21
105.0000000000004
 31
0.0
1001
REVIT
1002
{
1070
     3
1000
456193
1002
}
  0
LINE
  5
278
  8
0
 10
526.94077779611325
 20
89.249064349178681
 30
0.0
 11
526.94077779611325
 21
85.249064349177317
 31
0.0
1001
REVIT
1002
{
1070
     3
1000
211597
1002
}
  0
LINE
  5
279
  8
0
 10
478.1907777961132
 20
87.749064349179108
 30
0.0
 11
526.19077779611325
 21
87.749064349179136
 31
0.0
1001
REVIT
1002
{
1070
     3
1000
211597
1002
}
  0
LINE
  5
27A
  8
0
 10
476.1907777961132
 20
87.249064349177985
 30
0.0
 11
478.1907777961132
 21
87.749064349179108
 31
0.0
1001
REVIT
1002
{
1070
     3
1000
211597
1002
}
  0
LINE
  5
27B
  8
0
 10
478.1907777961132
 20
86.749064349179136
 30
0.0
 11
476.1907777961132
 21
87.249064349177985
 31
0.0
1001
REVIT
1002
{
1070
     3
1000
211597
1002
}
  0
LINE
  5
27C
  8
0
 10
526.19077779611325
 20
86.749064349179136
 30
0.0
 11
478.1907777961132
 21
86.749064349179136
 31
0.0
1001
REVIT
1002
{
1070
     3
1000
211597
1002
}
  0
LINE
  5
27D
  8
0
 10
526.19077779611325
 20
85.549200808067724
 30
0.0
 11
526.19077779611325
 21
86.749064349179136
 31
0.0
1001
REVIT
1002
{
1070
     3
1000
211597
1002
}
  0
LINE
  5
27E
  8
0
 10
526.19077779611325
 20
87.749064349179136
 30
0.0
 11
526.19077779611325
 21
88.948927890290108
 31
0.0
1001
REVIT
1002
{
1070
     3
1000
211597
1002
}
  0
LINE
  5
27F
  8
0
 10
526.94077779611325
 20
89.249064349178681
 30
0.0
 11
526.19077779611325
 21
88.948927890290108
 31
0.0
1001
REVIT
1002
{
1070
     3
1000
211597
1002
}
  0
LINE
  5
280
  8
0
 10
526.94077779611325
 20
85.249064349177317
 30
0.0
 11
526.19077779611325
 21
85.549200808067724
 31
0.0
1001
REVIT
1002
{
1070
     3
1000
211597
1002
}
  0
LINE
  5
281
  8
0
  6
DASH
 10
499.9999999999996
 20
120.5000000000004
 30
0.0
 11
418.65413036985098
 21
120.5000000000004
 31
0.0
1001
REVIT
1002
{
1070
     3
1000
217411
1002
}
  0
LINE
  5
282
  8
0
  6
DASH
 10
417.65413036985098
 20
120.5000000000004
 30
0.0
 11
-220.17162953024689
 21
120.5000000000005
 31
0.0
1001
REVIT
1002
{
1070
     3
1000
217411
1002
}
  0
INSERT
  5
283
  8
0
  6
CONTINUOUS
  2
*X59
 10
0.0
 20
0.0
 30
0.0
1001
ACAD
1000
HATCH
1002
{
1070
    19
1000
FP_2
1040
1.0
1040
0.0
1000
R14_HATCH_DATA
1000
283
1011
1.0
1021
0.0
1031
4.5195132494784101E+059
1021
0.0
1031
0.0
1011
0.0
1021
0.0
1031
4.5195132494784101E+059
1021
1.0
1031
0.0
1011
0.0
1021
0.0
1031
4.5195132494784101E+059
1021
0.0
1031
1.0
1040
0.0
1010
0.0
1020
0.0
1030
1.0
1000
FP_2
1070
     0
1070
     0
1071
        2
1071
        0
1071
       14
1070
     1
1040
502.00000000000028
1040
-22.50000000000006
1040
518.00000000000034
1040
-22.50000000000006
1070
     1
1040
518.00000000000034
1040
-22.50000000000006
1040
518.51763809020531
1040
-22.431851652578072
1070
     1
1040
518.51763809020531
1040
-22.431851652578072
1040
519.00000000000034
1040
-22.232050807568871
1070
     1
1040
519.00000000000034
1040
-22.232050807568871
1040
519.41421356237345
1040
-21.914213562373089
1070
     1
1040
519.41421356237345
1040
-21.914213562373089
1040
519.73205080756929
1040
-21.49999999999995
1070
     1
1040
519.73205080756929
1040
-21.49999999999995
1040
519.93185165257853
1040
-21.017638090205079
1070
     1
1040
519.93185165257853
1040
-21.017638090205079
1040
520.00000000000034
1040
-20.50000000000038
1070
     1
1040
520.00000000000011
1040
-20.50000000000038
1040
520.00000000000011
1040
86.749064349179221
1070
     1
1040
520.00000000000011
1040
86.749064349179221
1040
502.00000000000023
1040
86.749064349179221
1070
     1
1040
502.00000000000028
1040
86.749064349179221
1040
502.00000000000028
1040
-0.0000000000005116
1070
     1
1040
502.00000000000028
1040
-0.0000000000005116
1040
509.50000000000023
1040
-3.0000000000004259
1070
     1
1040
509.50000000000023
1040
-3.0000000000004259
1040
509.50000000000023
1040
-8.0000000000004405
1070
     1
1040
509.50000000000023
1040
-8.0000000000004405
1040
502.00000000000028
1040
-8.0000000000004405
1070
     1
1040
502.00000000000028
1040
-8.0000000000004405
1040
502.00000000000028
1040
-22.50000000000006
1071
        0
1071
        0
1071
       16
1070
     1
1040
517.54105633473785
1040
87.749064349179264
1040
520.00000000000011
1040
87.749064349179264
1070
     1
1040
520.00000000000011
1040
87.749064349179264
1040
520.00000000000011
1040
115.4999999999991
1070
     1
1040
520.00000000000011
1040
115.4999999999991
1040
519.93185165257842
1040
116.0176380902042
1070
     1
1040
519.93185165257853
1040
116.0176380902042
1040
519.73205080756929
1040
116.4999999999991
1070
     1
1040
519.73205080756929
1040
116.4999999999991
1040
519.41421356237345
1040
116.9142135623722
1070
     1
1040
519.41421356237345
1040
116.9142135623722
1040
519.00000000000045
1040
117.232050807568
1070
     1
1040
519.00000000000034
1040
117.232050807568
1040
518.51763809020531
1040
117.43185165257729
1070
     1
1040
518.51763809020531
1040
117.43185165257729
1040
518.00000000000034
1040
117.4999999999991
1070
     1
1040
518.00000000000034
1040
117.4999999999991
1040
502.00000000000028
1040
117.4999999999991
1070
     1
1040
502.00000000000028
1040
117.4999999999991
1040
502.00000000000028
1040
102.9999999999997
1070
     1
1040
502.00000000000028
1040
102.9999999999997
1040
509.50000000000028
1040
102.9999999999997
1070
     1
1040
509.50000000000028
1040
102.9999999999997
1040
509.50000000000028
1040
97.999999999999815
1070
     1
1040
509.50000000000028
1040
97.999999999999815
1040
502.00000000000028
1040
94.999999999999758
1070
     1
1040
502.00000000000028
1040
94.999999999999758
1040
502.00000000000028
1040
87.749064349179264
1070
     1
1040
502.00000000000028
1040
87.749064349179264
1040
509.50000000000028
1040
87.749064349179264
1070
     1
1040
509.50000000000028
1040
87.749064349179264
1040
517.54105633473785
1040
87.749064349179264
1071
        0
1070
     0
1070
     2
1040
0.0
1040
1.0
1070
     0
1070
     1
1040
0.7853981633974483
1040
-0.0000000000001137
1040
-0.0000000000000142
1040
-3.5355339059327369
1040
3.5355339059327369
1070
     0
1071
        1
1040
510.99999999999977
1040
67.499999999999986
1040
0.0
1002
}
  0
ARC
  5
284
  8
0
 10
517.99999999999977
 20
-20.49999999999994
 30
0.0
 40
2.0000000000000142
 50
270.0
 51
359.9999999999992
1001
REVIT
1002
{
1070
     3
1000
224252
1002
}
  0
LINE
  5
285
  8
0
 10
519.99999999999989
 20
-20.500000000000309
 30
0.0
 11
519.99999999999989
 21
86.749064349179164
 31
0.0
1001
REVIT
1002
{
1070
     3
1000
224252
1002
}
  0
LINE
  5
286
  8
0
 10
519.99999999999989
 20
87.749064349179179
 30
0.0
 11
519.99999999999989
 21
115.49999999999901
 31
0.0
1001
REVIT
1002
{
1070
     3
1000
224252
1002
}
  0
ARC
  5
287
  8
0
 10
517.99999999999977
 20
115.49999999999901
 30
0.0
 40
2.0000000000000009
 50
359.9999999999992
 51
90.0
1001
REVIT
1002
{
1070
     3
1000
224252
1002
}
  0
LINE
  5
288
  8
0
 10
517.99999999999977
 20
117.49999999999901
 30
0.0
 11
501.99999999999977
 21
117.49999999999901
 31
0.0
1001
REVIT
1002
{
1070
     3
1000
224252
1002
}
  0
LINE
  5
289
  8
0
 10
501.99999999999977
 20
117.49999999999901
 30
0.0
 11
501.99999999999977
 21
102.9999999999996
 31
0.0
1001
REVIT
1002
{
1070
     3
1000
224252
1002
}
  0
LINE
  5
28A
  8
0
 10
501.99999999999977
 20
102.9999999999996
 30
0.0
 11
509.49999999999977
 21
102.9999999999996
 31
0.0
1001
REVIT
1002
{
1070
     3
1000
224252
1002
}
  0
LINE
  5
28B
  8
0
 10
509.49999999999977
 20
102.9999999999996
 30
0.0
 11
509.49999999999977
 21
97.999999999999716
 31
0.0
1001
REVIT
1002
{
1070
     3
1000
224252
1002
}
  0
LINE
  5
28C
  8
0
 10
509.49999999999977
 20
97.999999999999716
 30
0.0
 11
502.0
 21
94.999999999999659
 31
0.0
1001
REVIT
1002
{
1070
     3
1000
224252
1002
}
  0
LINE
  5
28D
  8
0
 10
502.0
 20
94.999999999999659
 30
0.0
 11
502.0
 21
87.749064349179122
 31
0.0
1001
REVIT
1002
{
1070
     3
1000
224252
1002
}
  0
LINE
  5
28E
  8
0
 10
502.0
 20
86.749064349179136
 30
0.0
 11
502.0
 21
-0.0000000000003979
 31
0.0
1001
REVIT
1002
{
1070
     3
1000
224252
1002
}
  0
LINE
  5
28F
  8
0
 10
501.99999999999977
 20
-0.0000000000004974
 30
0.0
 11
509.49999999999972
 21
-3.0000000000004259
 31
0.0
1001
REVIT
1002
{
1070
     3
1000
224252
1002
}
  0
LINE
  5
290
  8
0
 10
509.49999999999972
 20
-3.0000000000004259
 30
0.0
 11
509.49999999999972
 21
-8.0000000000004263
 31
0.0
1001
REVIT
1002
{
1070
     3
1000
224252
1002
}
  0
LINE
  5
291
  8
0
 10
509.49999999999972
 20
-8.0000000000004263
 30
0.0
 11
501.99999999999977
 21
-8.0000000000004263
 31
0.0
1001
REVIT
1002
{
1070
     3
1000
224252
1002
}
  0
LINE
  5
292
  8
0
 10
501.99999999999977
 20
-8.0000000000004263
 30
0.0
 11
501.99999999999977
 21
-22.499999999999972
 31
0.0
1001
REVIT
1002
{
1070
     3
1000
224252
1002
}
  0
LINE
  5
293
  8
0
 10
501.99999999999977
 20
-22.499999999999972
 30
0.0
 11
517.99999999999977
 21
-22.499999999999972
 31
0.0
1001
REVIT
1002
{
1070
     3
1000
224252
1002
}
  0
LINE
  5
294
  8
0
 10
504.33333333333451
 20
-7.5000000000004361
 30
0.0
 11
504.33333333333451
 21
-1.50000000000027
 31
0.0
1001
REVIT
1002
{
1070
     3
1000
211597
1002
}
  0
LINE
  5
295
  8
0
 10
504.33333333333451
 20
-1.50000000000027
 30
0.0
 11
5.3082411351715564
 21
-1.50000000000027
 31
0.0
1001
REVIT
1002
{
1070
     3
1000
211597
1002
}
  0
LINE
  5
296
  8
0
 10
5.3082411351715564
 20
-1.50000000000027
 30
0.0
 11
5.3082411351715564
 21
-7.5000000000004361
 31
0.0
1001
REVIT
1002
{
1070
     3
1000
211597
1002
}
  0
LINE
  5
297
  8
0
 10
5.3082411351715564
 20
-7.5000000000004361
 30
0.0
 11
504.33333333333451
 21
-7.5000000000004361
 31
0.0
1001
REVIT
1002
{
1070
     3
1000
211597
1002
}
  0
LINE
  5
298
  8
0
 10
523.51789321881165
 20
161.12132034355989
 30
0.0
 11
523.51789321881165
 21
87.749064349179179
 31
0.0
1001
REVIT
1002
{
1070
     3
1000
578786
1002
}
  0
LINE
  5
299
  8
0
 10
523.51789321881165
 20
86.749064349179179
 30
0.0
 11
523.51789321881165
 21
71.12132034355983
 31
0.0
1001
REVIT
1002
{
1070
     3
1000
578786
1002
}
  0
LINE
  5
29A
  8
0
 10
523.51789321881165
 20
161.12132034355989
 30
0.0
 11
480.51789321881159
 21
161.12132034355989
 31
0.0
1001
REVIT
1002
{
1070
     3
1000
578786
1002
}
  0
LINE
  5
29B
  8
0
 10
523.51789321881165
 20
71.12132034355983
 30
0.0
 11
528.51789321881165
 21
62.461066305715477
 31
0.0
1001
REVIT
1002
{
1070
     3
1000
578786
1002
}
  0
ARC
  5
29C
  8
0
 10
480.51789321881159
 20
158.62132034355989
 30
0.0
 40
2.5000000000000022
 50
90.0
 51
270.0
1001
REVIT
1002
{
1070
     3
1000
578786
1002
}
  0
LINE
  5
29D
  8
0
 10
480.51789321881159
 20
156.12132034355989
 30
0.0
 11
490.51789321881159
 21
156.12132034355989
 31
0.0
1001
REVIT
1002
{
1070
     3
1000
578786
1002
}
  0
LINE
  5
29E
  8
0
 10
520.51789321881313
 20
123.6213203435598
 30
0.0
 11
488.51789321881301
 21
123.6213203435598
 31
0.0
1001
REVIT
1002
{
1070
     3
1000
578786
1002
}
  0
LINE
  5
29F
  8
0
 10
481.51789321881262
 20
123.6213203435598
 30
0.0
 11
449.51789321881307
 21
123.6213203435598
 31
0.0
1001
REVIT
1002
{
1070
     3
1000
578786
1002
}
  0
LINE
  5
2A0
  8
0
 10
442.51789321881279
 20
123.6213203435598
 30
0.0
 11
418.65413036985109
 21
123.6213203435598
 31
0.0
1001
REVIT
1002
{
1070
     3
1000
578786
1002
}
  0
LINE
  5
2A1
  8
0
 10
417.65413036985109
 20
123.6213203435598
 30
0.0
 11
405.51789321881307
 21
123.6213203435598
 31
0.0
1001
REVIT
1002
{
1070
     3
1000
578786
1002
}
  0
LINE
  5
2A2
  8
0
 10
405.51789321881307
 20
123.6213203435598
 30
0.0
 11
414.17814725665738
 21
128.62132034355969
 31
0.0
1001
REVIT
1002
{
1070
     3
1000
578786
1002
}
  0
LINE
  5
2A3
  8
0
 10
520.51789321881313
 20
123.6213203435598
 30
0.0
 11
520.51789321881313
 21
158.6213203435598
 31
0.0
1001
REVIT
1002
{
1070
     3
1000
578786
1002
}
  0
LINE
  5
2A4
  8
0
 10
520.51789321881313
 20
158.6213203435598
 30
0.0
 11
480.51789321881307
 21
158.6213203435598
 31
0.0
1001
REVIT
1002
{
1070
     3
1000
578786
1002
}
  0
LINE
  5
2A5
  8
0
 10
442.51789321881279
 20
123.6213203435598
 30
0.0
 11
451.17814725665721
 21
128.6213203435598
 31
0.0
1001
REVIT
1002
{
1070
     3
1000
578786
1002
}
  0
LINE
  5
2A6
  8
0
 10
451.17814725665721
 20
128.6213203435598
 30
0.0
 11
449.51789321881307
 21
123.6213203435598
 31
0.0
  0
LINE
  5
2A7
  8
0
 10
481.51789321881262
 20
123.6213203435598
 30
0.0
 11
490.17814725665733
 21
128.62132034356
 31
0.0
1001
REVIT
1002
{
1070
     3
1000
578786
1002
}
  0
LINE
  5
2A8
  8
0
 10
490.17814725665733
 20
128.62132034356
 30
0.0
 11
488.51789321881301
 21
123.6213203435598
 31
0.0
  0
ARC
  5
2A9
  8
0
 10
48.000000000001137
 20
73.000000000000455
 30
0.0
 40
1.9999999999999969
 50
0.0
 51
90.000000000000185
1001
REVIT
1002
{
1070
     3
1000
224526
1002
}
  0
ARC
  5
2AA
  8
0
 10
2.0000000000011968
 20
73.000000000000526
 30
0.0
 40
2.0
 50
89.999999999999801
 51
179.9999999999996
1001
REVIT
1002
{
1070
     3
1000
224526
1002
}
  0
ARC
  5
2AB
  8
0
 10
2.000000000001207
 20
2.0000000000004898
 30
0.0
 40
1.999999999999994
 50
180.0
 51
269.99999999999977
1001
REVIT
1002
{
1070
     3
1000
224526
1002
}
  0
ARC
  5
2AC
  8
0
 10
48.000000000001208
 20
2.0000000000004832
 30
0.0
 40
1.9999999999999949
 50
269.9999999999996
 51
0.0
1001
REVIT
1002
{
1070
     3
1000
224526
1002
}
  0
LINE
  5
2AD
  8
0
 10
48.000000000001137
 20
75.000000000000526
 30
0.0
 11
2.000000000001207
 21
75.000000000000526
 31
0.0
1001
REVIT
1002
{
1070
     3
1000
224526
1002
}
  0
LINE
  5
2AE
  8
0
 10
0.0000000000011973
 20
73.00000000000054
 30
0.0
 11
0.0000000000011973
 21
2.0000000000004969
 31
0.0
1001
REVIT
1002
{
1070
     3
1000
224526
1002
}
  0
LINE
  5
2AF
  8
0
 10
2.0000000000011928
 20
0.0000000000004832
 30
0.0
 11
48.000000000001208
 21
0.0000000000004832
 31
0.0
1001
REVIT
1002
{
1070
     3
1000
224526
1002
}
  0
LINE
  5
2B0
  8
0
 10
50.000000000001201
 20
2.0000000000004832
 30
0.0
 11
50.000000000001201
 21
73.000000000000455
 31
0.0
1001
REVIT
1002
{
1070
     3
1000
224526
1002
}
  0
LINE
  5
2B1
  8
0
 10
2.0000000000010369
 20
73.000000000000711
 30
0.0
 11
48.000000000001243
 21
2.0000000000005538
 31
0.0
  0
LINE
  5
2B2
  8
0
 10
48.000000000001243
 20
73.000000000000711
 30
0.0
 11
2.000000000001239
 21
2.0000000000004832
 31
0.0
  0
LINE
  5
2B3
  8
0
 10
515.51789321881301
 20
130.2071067811892
 30
0.0
 11
515.51789321881301
 21
150.2071067811892
 31
0.0
  0
LINE
  5
2B4
  8
0
 10
515.51789321881301
 20
150.2071067811892
 30
0.0
 11
-280.49937484784959
 21
150.2071067811892
 31
0.0
  0
LINE
  5
2B5
  8
0
 10
-280.49937484784959
 20
150.2071067811892
 30
0.0
 11
-280.49937484784959
 21
130.2071067811884
 31
0.0
  0
LINE
  5
2B6
  8
0
 10
-280.49937484784959
 20
130.2071067811884
 30
0.0
 11
515.51789321881301
 21
130.2071067811884
 31
0.0
1001
REVIT
1002
{
1070
     3
1000
476644
1002
}
  0
LINE
  5
2B7
  8
0
  6
DASH
 10
499.9999999999996
 20
120.5000000000004
 30
0.0
 11
418.65413036985098
 21
120.5000000000004
 31
0.0
1001
REVIT
1002
{
1070
     3
1000
217411
1002
}
  0
LINE
  5
2B8
  8
0
  6
DASH
 10
417.65413036985098
 20
120.5000000000004
 30
0.0
 11
-220.17162953024689
 21
120.5000000000005
 31
0.0
1001
REVIT
1002
{
1070
     3
1000
217411
1002
}
  0
LINE
  5
2B9
  8
0
  6
DASH
 10
2.5000000000000742
 20
-2.072339171135444
 30
0.0
 11
2.4999999999996572
 21
-214.84228192367729
 31
0.0
1001
REVIT
1002
{
1070
     3
1000
217411
1002
}
  0
INSERT
  5
2BA
  8
0
  6
CONTINUOUS
  2
*X60
 10
0.0
 20
0.0
 30
0.0
1001
ACAD
1000
HATCH
1002
{
1070
    19
1000
FP_1
1040
1.0
1040
0.0
1000
R14_HATCH_DATA
1000
2BA
1011
1.0
1021
0.0
1031
4.5195132494784101E+059
1021
0.0
1031
0.0
1011
0.0
1021
0.0
1031
4.5195132494784101E+059
1021
1.0
1031
0.0
1011
0.0
1021
0.0
1031
4.5195132494784101E+059
1021
0.0
1031
1.0
1040
0.0
1010
0.0
1020
0.0
1030
1.0
1000
FP_1
1070
     0
1070
     0
1071
        1
1071
        0
1071
        4
1070
     1
1040
50.308241135171379
1040
-218.41902815239629
1040
50.308241135170711
1040
-8.9999999999999716
1070
     1
1040
50.308241135170711
1040
-8.9999999999999716
1040
30.30824113517065
1040
-9.0000000000001137
1070
     1
1040
30.30824113517065
1040
-9.0000000000001137
1040
30.308241135171539
1040
-218.41902815239629
1070
     1
1040
30.308241135171539
1040
-218.41902815239629
1040
50.308241135171379
1040
-218.41902815239629
1071
        0
1070
     0
1070
     2
1040
0.0
1040
1.0
1070
     0
1070
     1
1040
0.0
1040
0.0002411351715637
1040
-0.0000281523961405
1040
0.0
1040
15.0
1070
     0
1071
        1
1040
40.308241135171563
1040
-218.41902815239609
1040
0.0
1002
}
  0
LINE
  5
2BB
  8
0
 10
50.30824113517059
 20
-9.0000000000000568
 30
0.0
 11
30.30824113517059
 21
-9.0000000000001137
 31
0.0
1001
REVIT
1002
{
1070
     3
1000
224526
1002
}
  0
LINE
  5
2BC
  8
0
 10
30.30824113517059
 20
-9.0000000000001137
 30
0.0
 11
30.308241135171279
 21
-218.41902815239621
 31
0.0
1001
REVIT
1002
{
1070
     3
1000
224526
1002
}
  0
LINE
  5
2BD
  8
0
 10
50.308241135171279
 20
-218.41902815239609
 30
0.0
 11
50.30824113517059
 21
-9.0000000000000568
 31
0.0
1001
REVIT
1002
{
1070
     3
1000
224526
1002
}
  0
ARC
  5
2BE
  8
0
 10
497.99999999999949
 20
97.999999999997911
 30
0.0
 40
1.9999999999999969
 50
0.0
 51
90.0
1001
REVIT
1002
{
1070
     3
1000
224526
1002
}
  0
ARC
  5
2BF
  8
0
 10
451.99999999999949
 20
97.999999999997982
 30
0.0
 40
2.0
 50
90.0
 51
179.9999999999996
1001
REVIT
1002
{
1070
     3
1000
224526
1002
}
  0
ARC
  5
2C0
  8
0
 10
451.99999999999949
 20
1.999999999997953
 30
0.0
 40
1.999999999999996
 50
179.9999999999996
 51
270.0
1001
REVIT
1002
{
1070
     3
1000
224526
1002
}
  0
ARC
  5
2C1
  8
0
 10
497.99999999999949
 20
1.9999999999979461
 30
0.0
 40
2.0000000000000009
 50
270.0
 51
0.0
1001
REVIT
1002
{
1070
     3
1000
224526
1002
}
  0
LINE
  5
2C2
  8
0
 10
497.99999999999949
 20
99.999999999997996
 30
0.0
 11
451.99999999999949
 21
99.999999999997996
 31
0.0
1001
REVIT
1002
{
1070
     3
1000
224526
1002
}
  0
LINE
  5
2C3
  8
0
 10
449.99999999999949
 20
97.999999999997982
 30
0.0
 11
449.99999999999949
 21
1.999999999997953
 31
0.0
1001
REVIT
1002
{
1070
     3
1000
224526
1002
}
  0
LINE
  5
2C4
  8
0
 10
451.99999999999949
 20
-0.0000000000020606
 30
0.0
 11
497.99999999999949
 21
-0.0000000000020606
 31
0.0
1001
REVIT
1002
{
1070
     3
1000
224526
1002
}
  0
LINE
  5
2C5
  8
0
 10
499.99999999999949
 20
1.9999999999979461
 30
0.0
 11
499.99999999999949
 21
86.749064349179065
 31
0.0
1001
REVIT
1002
{
1070
     3
1000
224526
1002
}
  0
LINE
  5
2C6
  8
0
 10
499.99999999999949
 20
87.749064349179065
 30
0.0
 11
499.99999999999949
 21
97.999999999997911
 31
0.0
1001
REVIT
1002
{
1070
     3
1000
224526
1002
}
  0
LINE
  5
2C7
  8
0
 10
451.99999999999937
 20
97.999999999998153
 30
0.0
 11
497.99999999999949
 21
1.9999999999980169
 31
0.0
  0
LINE
  5
2C8
  8
0
 10
497.99999999999949
 20
97.999999999998153
 30
0.0
 11
493.0880933339821
 21
87.749064349179093
 31
0.0
  0
LINE
  5
2C9
  8
0
 10
492.60892666731542
 20
86.749064349179093
 30
0.0
 11
451.9999999999996
 21
1.999999999997953
 31
0.0
  0
ARC
  5
2CA
  8
0
 10
-2.0000000000000071
 20
-3.0000000000000488
 30
0.0
 40
1.9999999999999969
 50
0.0000000000002036
 51
90.0
1001
REVIT
1002
{
1070
     3
1000
224526
1002
}
  0
ARC
  5
2CB
  8
0
 10
-97.999999999999943
 20
-2.9999999999999818
 30
0.0
 40
1.999999999999996
 50
90.0
 51
179.9999999999998
1001
REVIT
1002
{
1070
     3
1000
224526
1002
}
  0
ARC
  5
2CC
  8
0
 10
-97.999999999999943
 20
-49.0
 30
0.0
 40
1.999999999999992
 50
179.9999999999998
 51
269.9999999999996
1001
REVIT
1002
{
1070
     3
1000
224526
1002
}
  0
ARC
  5
2CD
  8
0
 10
-1.9999999999999429
 20
-49.000000000000021
 30
0.0
 40
2.0000000000000071
 50
269.9999999999996
 51
0.0
1001
REVIT
1002
{
1070
     3
1000
224526
1002
}
  0
LINE
  5
2CE
  8
0
 10
-2.0000000000000071
 20
-0.9999999999999786
 30
0.0
 11
-97.999999999999943
 21
-0.9999999999999786
 31
0.0
1001
REVIT
1002
{
1070
     3
1000
224526
1002
}
  0
LINE
  5
2CF
  8
0
 10
-99.999999999999943
 20
-2.9999999999999711
 30
0.0
 11
-99.999999999999943
 21
-49.0
 31
0.0
1001
REVIT
1002
{
1070
     3
1000
224526
1002
}
  0
LINE
  5
2D0
  8
0
 10
-97.999999999999943
 20
-51.000000000000007
 30
0.0
 11
-1.9999999999999429
 21
-51.000000000000007
 31
0.0
1001
REVIT
1002
{
1070
     3
1000
224526
1002
}
  0
LINE
  5
2D1
  8
0
 10
0.0000000000000639
 20
-49.000000000000021
 30
0.0
 11
0.0000000000000639
 21
-3.0000000000000488
 31
0.0
1001
REVIT
1002
{
1070
     3
1000
224526
1002
}
  0
LINE
  5
2D2
  8
0
 10
-98.000000000000114
 20
-2.9999999999998042
 30
0.0
 11
-1.9999999999999141
 21
-48.999999999999943
 31
0.0
  0
LINE
  5
2D3
  8
0
 10
-1.9999999999999141
 20
-2.9999999999998042
 30
0.0
 11
-97.999999999999901
 21
-49.000000000000007
 31
0.0
  0
LINE
  5
2D4
  8
0
 10
450.0
 20
100.0000000000004
 30
0.0
 11
-220.17162953024669
 21
100.0000000000004
 31
0.0
1001
REVIT
1002
{
1070
     3
1000
206265
1002
}
  0
LINE
  5
2D5
  8
0
 10
-220.17162953024669
 20
0.0000000000003055
 30
0.0
 11
0.0000000000011084
 21
0.0000000000003055
 31
0.0
1001
REVIT
1002
{
1070
     3
1000
206265
1002
}
  0
LINE
  5
2D6
  8
0
 10
50.000000000001172
 20
0.0000000000003055
 30
0.0
 11
450.0
 21
0.0000000000003055
 31
0.0
1001
REVIT
1002
{
1070
     3
1000
206265
1002
}
  0
LINE
  5
2D7
  8
0
 10
0.0000000000000995
 20
-218.41902815239661
 30
0.0
 11
0.0000000000004263
 21
-51.000000000000057
 31
0.0
1001
REVIT
1002
{
1070
     3
1000
206265
1002
}
  0
LINE
  5
2D8
  8
0
 10
-99.999999999999744
 20
-50.999999999999872
 30
0.0
 11
-100.0
 21
-218.41902815239641
 31
0.0
1001
REVIT
1002
{
1070
     3
1000
206265
1002
}
  0
VIEWPORT
  5
234
 67
     1
  8
0
 10
128.5
 20
97.5
 30
0.0
 40
620.98982300884961
 41
222.18000000000001
 68
     1
 69
     1
1001
ACAD
1000
MVIEW
1002
{
1070
    16
1010
0.0
1020
0.0
1030
0.0
1010
0.0
1020
0.0
1030
1.0
1040
0.0
1040
222.18000000000001
1040
128.5
1040
97.5
1040
50.0
1040
0.0
1040
0.0
1070
     0
1070
   100
1070
     1
1070
     1
1070
     0
1070
     0
1070
     0
1070
     0
1040
0.0
1040
0.0
1040
0.0
1040
10.0
1040
10.0
1040
10.0
1040
10.0
1070
     0
1002
{
1002
}
1002
}
  0
VIEWPORT
  5
238
 67
     1
  8
0
 10
128.5
 20
97.5
 30
0.0
 40
205.59999999999999
 41
156.0
 68
     2
 69
     2
1001
ACAD
1000
MVIEW
1002
{
1070
    16
1010
0.0
1020
0.0
1030
0.0
1010
0.0
1020
0.0
1030
1.0
1040
0.0
1040
852.89377505502569
1040
276.19997730405998
1040
27.383182810959969
1040
50.0
1040
0.0
1040
0.0
1070
     0
1070
  1000
1070
     1
1070
     1
1070
     0
1070
     0
1070
     0
1070
     0
1040
0.0
1040
0.0
1040
0.0
1040
1.0
1040
1.0
1040
0.0
1040
0.0
1070
     0
1002
{
1002
}
1002
}
  0
ENDSEC
  0
EOF
