  0
SECTION
  2
HEADER
  9
$ACADVER
  1
AC1009
  9
$INSBASE
 10
0.0
 20
0.0
 30
0.0
  9
$EXTMIN
 10
-713.47856364069435
 20
-125.2635891837887
 30
0.0
  9
$EXTMAX
 10
713.47856364069764
 20
328.40680630853728
 30
0.0
  9
$LIMMIN
 10
0.0
 20
0.0
  9
$LIMMAX
 10
12.0
 20
9.0
  9
$ORTHOMODE
 70
     0
  9
$REGENMODE
 70
     1
  9
$FILLMODE
 70
     1
  9
$QTEXTMODE
 70
     0
  9
$MIRRTEXT
 70
     0
  9
$DRAGMODE
 70
     2
  9
$LTSCALE
 40
1.0
  9
$OSMODE
 70
     0
  9
$ATTMODE
 70
     1
  9
$TEXTSIZE
 40
0.2
  9
$TRACEWID
 40
0.05
  9
$TEXTSTYLE
  7
STANDARD
  9
$CLAYER
  8
0
  9
$CELTYPE
  6
CONTINUOUS
  9
$CECOLOR
 62
   256
  9
$DIMSCALE
 40
1.0
  9
$DIMASZ
 40
0.18
  9
$DIMEXO
 40
0.0625
  9
$DIMDLI
 40
0.38
  9
$DIMRND
 40
0.0
  9
$DIMDLE
 40
0.0
  9
$DIMEXE
 40
0.18
  9
$DIMTP
 40
0.0
  9
$DIMTM
 40
0.0
  9
$DIMTXT
 40
0.18
  9
$DIMCEN
 40
0.09
  9
$DIMTSZ
 40
0.0
  9
$DIMTOL
 70
     0
  9
$DIMLIM
 70
     0
  9
$DIMTIH
 70
     1
  9
$DIMTOH
 70
     1
  9
$DIMSE1
 70
     0
  9
$DIMSE2
 70
     0
  9
$DIMTAD
 70
     0
  9
$DIMZIN
 70
     0
  9
$DIMBLK
  1

  9
$DIMASO
 70
     1
  9
$DIMSHO
 70
     1
  9
$DIMPOST
  1

  9
$DIMAPOST
  1

  9
$DIMALT
 70
     0
  9
$DIMALTD
 70
     2
  9
$DIMALTF
 40
25.399999999999999
  9
$DIMLFAC
 40
1.0
  9
$DIMTOFL
 70
     0
  9
$DIMTVP
 40
0.0
  9
$DIMTIX
 70
     0
  9
$DIMSOXD
 70
     0
  9
$DIMSAH
 70
     0
  9
$DIMBLK1
  1

  9
$DIMBLK2
  1

  9
$DIMSTYLE
  2
STANDARD
  9
$DIMCLRD
 70
     0
  9
$DIMCLRE
 70
     0
  9
$DIMCLRT
 70
     0
  9
$DIMTFAC
 40
1.0
  9
$DIMGAP
 40
0.09
  9
$LUNITS
 70
     2
  9
$LUPREC
 70
     4
  9
$SKETCHINC
 40
0.1
  9
$FILLETRAD
 40
0.0
  9
$AUNITS
 70
     0
  9
$AUPREC
 70
     0
  9
$MENU
  1
.
  9
$ELEVATION
 40
0.0
  9
$PELEVATION
 40
0.0
  9
$THICKNESS
 40
0.0
  9
$LIMCHECK
 70
     0
  9
$BLIPMODE
 70
     0
  9
$CHAMFERA
 40
0.0
  9
$CHAMFERB
 40
0.0
  9
$SKPOLY
 70
     0
  9
$TDCREATE
 40
2458069.997556319
  9
$TDUPDATE
 40
2458070.0806540162
  9
$TDINDWG
 40
0.000391794
  9
$TDUSRTIMER
 40
0.000391794
  9
$USRTIMER
 70
     1
  9
$ANGBASE
 50
0.0
  9
$ANGDIR
 70
     0
  9
$PDMODE
 70
     0
  9
$PDSIZE
 40
0.0
  9
$PLINEWID
 40
0.0
  9
$COORDS
 70
     2
  9
$SPLFRAME
 70
     0
  9
$SPLINETYPE
 70
     6
  9
$SPLINESEGS
 70
     8
  9
$ATTDIA
 70
     1
  9
$ATTREQ
 70
     0
  9
$HANDLING
 70
     1
  9
$HANDSEED
  5
50C
  9
$SURFTAB1
 70
     6
  9
$SURFTAB2
 70
     6
  9
$SURFTYPE
 70
     6
  9
$SURFU
 70
     6
  9
$SURFV
 70
     6
  9
$UCSNAME
  2

  9
$UCSORG
 10
0.0
 20
0.0
 30
0.0
  9
$UCSXDIR
 10
1.0
 20
0.0
 30
0.0
  9
$UCSYDIR
 10
0.0
 20
1.0
 30
0.0
  9
$PUCSNAME
  2

  9
$PUCSORG
 10
0.0
 20
0.0
 30
0.0
  9
$PUCSXDIR
 10
1.0
 20
0.0
 30
0.0
  9
$PUCSYDIR
 10
0.0
 20
1.0
 30
0.0
  9
$USERI1
 70
     0
  9
$USERI2
 70
     0
  9
$USERI3
 70
     0
  9
$USERI4
 70
     0
  9
$USERI5
 70
     0
  9
$USERR1
 40
0.0
  9
$USERR2
 40
0.0
  9
$USERR3
 40
0.0
  9
$USERR4
 40
0.0
  9
$USERR5
 40
0.0
  9
$WORLDVIEW
 70
     1
  9
$SHADEDGE
 70
     3
  9
$SHADEDIF
 70
    70
  9
$TILEMODE
 70
     1
  9
$MAXACTVP
 70
    64
  9
$PLIMCHECK
 70
     0
  9
$PEXTMIN
 10
25.699999999999989
 20
19.5
 30
0.0
  9
$PEXTMAX
 10
231.30000000000001
 20
175.5
 30
0.0
  9
$PLIMMIN
 10
-20.0
 20
-7.5
  9
$PLIMMAX
 10
277.0
 20
202.5
  9
$UNITMODE
 70
     0
  9
$VISRETAIN
 70
     1
  9
$PLINEGEN
 70
     0
  9
$PSLTSCALE
 70
     1
  0
ENDSEC
  0
SECTION
  2
TABLES
  0
TABLE
  2
VPORT
 70
     1
  0
VPORT
  2
*ACTIVE
 70
     0
 10
0.0
 20
0.0
 11
1.0
 21
1.0
 12
0.0000000000017053
 22
148.29553183230149
 13
0.0
 23
0.0
 14
1.0
 24
1.0
 15
0.0
 25
0.0
 16
0.0
 26
0.0
 36
1.0
 17
0.0
 27
0.0
 37
0.0
 40
547.11824203218055
 41
2.6232876712328759
 42
50.0
 43
0.0
 44
0.0
 50
0.0
 51
0.0
 71
     0
 72
  1000
 73
     1
 74
     1
 75
     0
 76
     0
 77
     0
 78
     0
  0
ENDTAB
  0
TABLE
  2
LTYPE
 70
     2
  0
LTYPE
  2
CONTINUOUS
 70
     0
  3
Solid line
 72
    65
 73
     0
 40
0.0
  0
LTYPE
  2
DASH
 70
     0
  3

 72
    65
 73
     2
 40
6.3499999999999988
 49
3.1749999999999989
 49
-3.1749999999999989
  0
ENDTAB
  0
TABLE
  2
LAYER
 70
     7
  0
LAYER
  2
0
 70
     0
 62
     7
  6
CONTINUOUS
  0
ENDTAB
  0
TABLE
  2
STYLE
 70
     2
  0
STYLE
  2
STANDARD
 70
     0
 40
0.0
 41
1.0
 50
0.0
 71
     0
 42
0.2
  3
txt
  4

  0
STYLE
  2
ARIAL
 70
     0
 40
9.8353293413173617
 41
1.0
 50
0.0
 71
     0
 42
0.2
  3
txt
  4

  0
ENDTAB
  0
TABLE
  2
VIEW
 70
     1
  0
ENDTAB
  0
TABLE
  2
UCS
 70
     0
  0
ENDTAB
  0
TABLE
  2
APPID
 70
     6
  0
APPID
  2
ACAD
 70
     0
  0
APPID
  2
ACADANNOTATIVE
 70
     0
  0
APPID
  2
REVIT
 70
     0
  0
APPID
  2
ACAD_PSEXT
 70
     0
  0
APPID
  2
ACAD_MLEADERVER
 70
     0
  0
APPID
  2
ACAD_NAV_VCDISPLAY
 70
     0
  0
ENDTAB
  0
TABLE
  2
DIMSTYLE
 70
     1
  0
DIMSTYLE
  2
STANDARD
 70
     0
  3

  4

  5

  6

  7

 40
1.0
 41
0.18
 42
0.0625
 43
0.38
 44
0.18
 45
0.0
 46
0.0
 47
0.0
 48
0.0
140
0.18
141
0.09
142
0.0
143
25.399999999999999
144
1.0
145
0.0
146
1.0
147
0.09
 71
     0
 72
     0
 73
     1
 74
     1
 75
     0
 76
     0
 77
     0
 78
     0
170
     0
171
     2
172
     0
173
     0
174
     0
175
     0
176
     0
177
     0
178
     0
  0
ENDTAB
  0
ENDSEC
  0
SECTION
  2
BLOCKS
  0
BLOCK
  8
0
  2
$MODEL_SPACE
 70
     0
 10
0.0
 20
0.0
 30
0.0
  3
$MODEL_SPACE
  1

  0
ENDBLK
  5
72
  8
0
  0
BLOCK
 67
     1
  8
0
  2
$PAPER_SPACE
 70
     0
 10
0.0
 20
0.0
 30
0.0
  3
$PAPER_SPACE
  1

  0
ENDBLK
  5
2D4
 67
     1
  8
0
  0
BLOCK
  8
0
  2
*U18
 70
     1
 10
0.0
 20
0.0
 30
0.0
  3
*U18
  1

  0
SOLID
  5
447
  8
0
  6
CONTINUOUS
 10
198.7279316067515
 20
75.928764924181706
 30
0.0
 11
197.9625647420213
 21
75.776523989204264
 31
0.0
 12
199.49329847148169
 22
75.776523989204264
 32
0.0
 13
199.49329847148169
 23
75.776523989204264
 33
0.0
210
0.0
220
0.0
230
1.0
  0
SOLID
  5
448
  8
0
  6
CONTINUOUS
 10
197.9625647420213
 20
75.776523989204264
 30
0.0
 11
197.31371804437839
 21
75.342978486554784
 31
0.0
 12
200.14214516912469
 22
75.342978486554784
 32
0.0
 13
200.14214516912469
 23
75.342978486554784
 33
0.0
210
0.0
220
0.0
230
1.0
  0
SOLID
  5
449
  8
0
  6
CONTINUOUS
 10
-197.9625647420213
 20
75.776523989204264
 30
0.0
 11
-199.49329847148169
 21
75.776523989204264
 31
0.0
 12
-200.14214516912469
 22
75.342978486554784
 32
0.0
 13
-200.14214516912469
 23
75.342978486554784
 33
0.0
210
0.0
220
0.0
230
-1.0
  0
SOLID
  5
44A
  8
0
  6
CONTINUOUS
 10
197.31371804437839
 20
75.342978486554784
 30
0.0
 11
196.88017254172891
 21
74.694131788911861
 31
0.0
 12
200.5756906717742
 22
74.694131788911861
 32
0.0
 13
200.5756906717742
 23
74.694131788911861
 33
0.0
210
0.0
220
0.0
230
1.0
  0
SOLID
  5
44B
  8
0
  6
CONTINUOUS
 10
-197.31371804437839
 20
75.342978486554784
 30
0.0
 11
-200.14214516912469
 21
75.342978486554784
 31
0.0
 12
-200.5756906717742
 22
74.694131788911861
 32
0.0
 13
-200.5756906717742
 23
74.694131788911861
 33
0.0
210
0.0
220
0.0
230
-1.0
  0
SOLID
  5
44C
  8
0
  6
CONTINUOUS
 10
196.88017254172891
 20
74.694131788911861
 30
0.0
 11
196.7279316067515
 21
73.928764924181664
 31
0.0
 12
200.72793160675161
 22
73.928764924181664
 32
0.0
 13
200.72793160675161
 23
73.928764924181664
 33
0.0
210
0.0
220
0.0
230
1.0
  0
SOLID
  5
44D
  8
0
  6
CONTINUOUS
 10
-196.88017254172891
 20
74.694131788911861
 30
0.0
 11
-200.5756906717742
 21
74.694131788911861
 31
0.0
 12
-200.72793160675161
 22
73.928764924181664
 32
0.0
 13
-200.72793160675161
 23
73.928764924181664
 33
0.0
210
0.0
220
0.0
230
-1.0
  0
SOLID
  5
44E
  8
0
  6
CONTINUOUS
 10
196.7279316067515
 20
73.928764924181664
 30
0.0
 11
196.88017254172891
 21
73.163398059451495
 31
0.0
 12
200.5756906717742
 22
73.163398059451495
 32
0.0
 13
200.5756906717742
 23
73.163398059451495
 33
0.0
210
0.0
220
0.0
230
1.0
  0
SOLID
  5
44F
  8
0
  6
CONTINUOUS
 10
-196.7279316067515
 20
73.928764924181664
 30
0.0
 11
-200.72793160675161
 21
73.928764924181664
 31
0.0
 12
-200.5756906717742
 22
73.163398059451495
 32
0.0
 13
-200.5756906717742
 23
73.163398059451495
 33
0.0
210
0.0
220
0.0
230
-1.0
  0
SOLID
  5
450
  8
0
  6
CONTINUOUS
 10
196.88017254172891
 20
73.163398059451495
 30
0.0
 11
197.31371804437839
 21
72.514551361808572
 31
0.0
 12
200.14214516912469
 22
72.514551361808572
 32
0.0
 13
200.14214516912469
 23
72.514551361808572
 33
0.0
210
0.0
220
0.0
230
1.0
  0
SOLID
  5
451
  8
0
  6
CONTINUOUS
 10
-196.88017254172891
 20
73.163398059451495
 30
0.0
 11
-200.5756906717742
 21
73.163398059451495
 31
0.0
 12
-200.14214516912469
 22
72.514551361808572
 32
0.0
 13
-200.14214516912469
 23
72.514551361808572
 33
0.0
210
0.0
220
0.0
230
-1.0
  0
SOLID
  5
452
  8
0
  6
CONTINUOUS
 10
-197.9625647420213
 20
72.081005859159063
 30
0.0
 11
-199.49329847148169
 21
72.081005859159063
 31
0.0
 12
-198.7279316067515
 22
71.928764924181635
 32
0.0
 13
-198.7279316067515
 23
71.928764924181635
 33
0.0
210
0.0
220
0.0
230
-1.0
  0
SOLID
  5
453
  8
0
  6
CONTINUOUS
 10
197.31371804437839
 20
72.514551361808572
 30
0.0
 11
197.9625647420213
 21
72.081005859159063
 31
0.0
 12
199.49329847148169
 22
72.081005859159063
 32
0.0
 13
199.49329847148169
 23
72.081005859159063
 33
0.0
210
0.0
220
0.0
230
1.0
  0
SOLID
  5
454
  8
0
  6
CONTINUOUS
 10
-197.31371804437839
 20
72.514551361808572
 30
0.0
 11
-200.14214516912469
 21
72.514551361808572
 31
0.0
 12
-199.49329847148169
 22
72.081005859159063
 32
0.0
 13
-199.49329847148169
 23
72.081005859159063
 33
0.0
210
0.0
220
0.0
230
-1.0
  0
LINE
  5
455
  8
0
  6
CONTINUOUS
 10
198.7279316067515
 20
75.928764924181706
 30
0.0
 11
197.9625647420213
 21
75.776523989204264
 31
0.0
  0
LINE
  5
456
  8
0
  6
CONTINUOUS
 10
199.49329847148169
 20
75.776523989204264
 30
0.0
 11
198.7279316067515
 21
75.928764924181706
 31
0.0
  0
LINE
  5
457
  8
0
  6
CONTINUOUS
 10
197.9625647420213
 20
75.776523989204264
 30
0.0
 11
197.31371804437839
 21
75.342978486554784
 31
0.0
  0
LINE
  5
458
  8
0
  6
CONTINUOUS
 10
199.49329847148169
 20
75.776523989204264
 30
0.0
 11
200.14214516912469
 21
75.342978486554784
 31
0.0
  0
LINE
  5
459
  8
0
  6
CONTINUOUS
 10
197.31371804437839
 20
75.342978486554784
 30
0.0
 11
196.88017254172891
 21
74.694131788911861
 31
0.0
  0
LINE
  5
45A
  8
0
  6
CONTINUOUS
 10
200.14214516912469
 20
75.342978486554784
 30
0.0
 11
200.5756906717742
 21
74.694131788911861
 31
0.0
  0
LINE
  5
45B
  8
0
  6
CONTINUOUS
 10
196.88017254172891
 20
74.694131788911861
 30
0.0
 11
196.7279316067515
 21
73.928764924181664
 31
0.0
  0
LINE
  5
45C
  8
0
  6
CONTINUOUS
 10
200.5756906717742
 20
74.694131788911861
 30
0.0
 11
200.72793160675161
 21
73.928764924181664
 31
0.0
  0
LINE
  5
45D
  8
0
  6
CONTINUOUS
 10
196.7279316067515
 20
73.928764924181664
 30
0.0
 11
196.88017254172891
 21
73.163398059451495
 31
0.0
  0
LINE
  5
45E
  8
0
  6
CONTINUOUS
 10
200.72793160675161
 20
73.928764924181664
 30
0.0
 11
200.5756906717742
 21
73.163398059451495
 31
0.0
  0
LINE
  5
45F
  8
0
  6
CONTINUOUS
 10
196.88017254172891
 20
73.163398059451495
 30
0.0
 11
197.31371804437839
 21
72.514551361808572
 31
0.0
  0
LINE
  5
460
  8
0
  6
CONTINUOUS
 10
200.5756906717742
 20
73.163398059451495
 30
0.0
 11
200.14214516912469
 21
72.514551361808572
 31
0.0
  0
LINE
  5
461
  8
0
  6
CONTINUOUS
 10
199.49329847148169
 20
72.081005859159063
 30
0.0
 11
198.7279316067515
 21
71.928764924181635
 31
0.0
  0
LINE
  5
462
  8
0
  6
CONTINUOUS
 10
198.7279316067515
 20
71.928764924181635
 30
0.0
 11
197.9625647420213
 21
72.081005859159063
 31
0.0
  0
LINE
  5
463
  8
0
  6
CONTINUOUS
 10
197.31371804437839
 20
72.514551361808572
 30
0.0
 11
197.9625647420213
 21
72.081005859159063
 31
0.0
  0
LINE
  5
464
  8
0
  6
CONTINUOUS
 10
200.14214516912469
 20
72.514551361808572
 30
0.0
 11
199.49329847148169
 21
72.081005859159063
 31
0.0
  0
ENDBLK
  5
466
  8
0
  0
BLOCK
  8
0
  2
*U19
 70
     1
 10
0.0
 20
0.0
 30
0.0
  3
*U19
  1

  0
TEXT
  5
468
  8
0
  6
CONTINUOUS
 10
320.88243010840199
 20
112.0425435155713
 30
0.0
 40
9.8353293413173617
  1
Substrate
  7
ARIAL
  0
ENDBLK
  5
46A
  8
0
  0
BLOCK
  8
0
  2
*U20
 70
     1
 10
0.0
 20
0.0
 30
0.0
  3
*U20
  1

  0
SOLID
  5
46C
  8
0
  6
CONTINUOUS
 10
65.109298718157589
 20
131.3865755341422
 30
0.0
 11
64.343931853427407
 21
131.23433459916481
 31
0.0
 12
65.874665582887772
 22
131.23433459916481
 32
0.0
 13
65.874665582887772
 23
131.23433459916481
 33
0.0
210
0.0
220
0.0
230
1.0
  0
SOLID
  5
46D
  8
0
  6
CONTINUOUS
 10
64.343931853427407
 20
131.23433459916481
 30
0.0
 11
63.69508515578449
 21
130.8007890965153
 31
0.0
 12
66.523512280530682
 22
130.8007890965153
 32
0.0
 13
66.523512280530682
 23
130.8007890965153
 33
0.0
210
0.0
220
0.0
230
1.0
  0
SOLID
  5
46E
  8
0
  6
CONTINUOUS
 10
-64.343931853427407
 20
131.23433459916481
 30
0.0
 11
-65.874665582887772
 21
131.23433459916481
 31
0.0
 12
-66.523512280530682
 22
130.8007890965153
 32
0.0
 13
-66.523512280530682
 23
130.8007890965153
 33
0.0
210
0.0
220
0.0
230
-1.0
  0
SOLID
  5
46F
  8
0
  6
CONTINUOUS
 10
63.69508515578449
 20
130.8007890965153
 30
0.0
 11
63.261539653135017
 21
130.15194239887239
 31
0.0
 12
66.957057783180161
 22
130.15194239887239
 32
0.0
 13
66.957057783180161
 23
130.15194239887239
 33
0.0
210
0.0
220
0.0
230
1.0
  0
SOLID
  5
470
  8
0
  6
CONTINUOUS
 10
-63.69508515578449
 20
130.8007890965153
 30
0.0
 11
-66.523512280530682
 21
130.8007890965153
 31
0.0
 12
-66.957057783180161
 22
130.15194239887239
 32
0.0
 13
-66.957057783180161
 23
130.15194239887239
 33
0.0
210
0.0
220
0.0
230
-1.0
  0
SOLID
  5
471
  8
0
  6
CONTINUOUS
 10
63.261539653135017
 20
130.15194239887239
 30
0.0
 11
63.109298718157589
 21
129.3865755341422
 31
0.0
 12
67.109298718157589
 22
129.3865755341422
 32
0.0
 13
67.109298718157589
 23
129.3865755341422
 33
0.0
210
0.0
220
0.0
230
1.0
  0
SOLID
  5
472
  8
0
  6
CONTINUOUS
 10
-63.261539653135017
 20
130.15194239887239
 30
0.0
 11
-66.957057783180161
 21
130.15194239887239
 31
0.0
 12
-67.109298718157589
 22
129.3865755341422
 32
0.0
 13
-67.109298718157589
 23
129.3865755341422
 33
0.0
210
0.0
220
0.0
230
-1.0
  0
SOLID
  5
473
  8
0
  6
CONTINUOUS
 10
63.109298718157589
 20
129.3865755341422
 30
0.0
 11
63.261539653135017
 21
128.62120866941211
 31
0.0
 12
66.957057783180161
 22
128.62120866941211
 32
0.0
 13
66.957057783180161
 23
128.62120866941211
 33
0.0
210
0.0
220
0.0
230
1.0
  0
SOLID
  5
474
  8
0
  6
CONTINUOUS
 10
-63.109298718157589
 20
129.3865755341422
 30
0.0
 11
-67.109298718157589
 21
129.3865755341422
 31
0.0
 12
-66.957057783180161
 22
128.62120866941211
 32
0.0
 13
-66.957057783180161
 23
128.62120866941211
 33
0.0
210
0.0
220
0.0
230
-1.0
  0
SOLID
  5
475
  8
0
  6
CONTINUOUS
 10
63.261539653135017
 20
128.62120866941211
 30
0.0
 11
63.69508515578449
 21
127.9723619717691
 31
0.0
 12
66.523512280530682
 22
127.9723619717691
 32
0.0
 13
66.523512280530682
 23
127.9723619717691
 33
0.0
210
0.0
220
0.0
230
1.0
  0
SOLID
  5
476
  8
0
  6
CONTINUOUS
 10
-63.261539653135017
 20
128.62120866941211
 30
0.0
 11
-66.957057783180161
 21
128.62120866941211
 31
0.0
 12
-66.523512280530682
 22
127.9723619717691
 32
0.0
 13
-66.523512280530682
 23
127.9723619717691
 33
0.0
210
0.0
220
0.0
230
-1.0
  0
SOLID
  5
477
  8
0
  6
CONTINUOUS
 10
-64.343931853427407
 20
127.53881646911969
 30
0.0
 11
-65.874665582887772
 21
127.53881646911969
 31
0.0
 12
-65.109298718157589
 22
127.3865755341422
 32
0.0
 13
-65.109298718157589
 23
127.3865755341422
 33
0.0
210
0.0
220
0.0
230
-1.0
  0
SOLID
  5
478
  8
0
  6
CONTINUOUS
 10
63.69508515578449
 20
127.9723619717691
 30
0.0
 11
64.343931853427407
 21
127.53881646911969
 31
0.0
 12
65.874665582887772
 22
127.53881646911969
 32
0.0
 13
65.874665582887772
 23
127.53881646911969
 33
0.0
210
0.0
220
0.0
230
1.0
  0
SOLID
  5
479
  8
0
  6
CONTINUOUS
 10
-63.69508515578449
 20
127.9723619717691
 30
0.0
 11
-66.523512280530682
 21
127.9723619717691
 31
0.0
 12
-65.874665582887772
 22
127.53881646911969
 32
0.0
 13
-65.874665582887772
 23
127.53881646911969
 33
0.0
210
0.0
220
0.0
230
-1.0
  0
LINE
  5
47A
  8
0
  6
CONTINUOUS
 10
65.109298718157589
 20
131.3865755341422
 30
0.0
 11
64.343931853427407
 21
131.23433459916481
 31
0.0
  0
LINE
  5
47B
  8
0
  6
CONTINUOUS
 10
65.874665582887772
 20
131.23433459916481
 30
0.0
 11
65.109298718157589
 21
131.3865755341422
 31
0.0
  0
LINE
  5
47C
  8
0
  6
CONTINUOUS
 10
64.343931853427407
 20
131.23433459916481
 30
0.0
 11
63.69508515578449
 21
130.8007890965153
 31
0.0
  0
LINE
  5
47D
  8
0
  6
CONTINUOUS
 10
65.874665582887772
 20
131.23433459916481
 30
0.0
 11
66.523512280530682
 21
130.8007890965153
 31
0.0
  0
LINE
  5
47E
  8
0
  6
CONTINUOUS
 10
63.69508515578449
 20
130.8007890965153
 30
0.0
 11
63.261539653135017
 21
130.15194239887239
 31
0.0
  0
LINE
  5
47F
  8
0
  6
CONTINUOUS
 10
66.523512280530682
 20
130.8007890965153
 30
0.0
 11
66.957057783180161
 21
130.15194239887239
 31
0.0
  0
LINE
  5
480
  8
0
  6
CONTINUOUS
 10
63.261539653135017
 20
130.15194239887239
 30
0.0
 11
63.109298718157589
 21
129.3865755341422
 31
0.0
  0
LINE
  5
481
  8
0
  6
CONTINUOUS
 10
66.957057783180161
 20
130.15194239887239
 30
0.0
 11
67.109298718157589
 21
129.3865755341422
 31
0.0
  0
LINE
  5
482
  8
0
  6
CONTINUOUS
 10
63.109298718157589
 20
129.3865755341422
 30
0.0
 11
63.261539653135017
 21
128.62120866941211
 31
0.0
  0
LINE
  5
483
  8
0
  6
CONTINUOUS
 10
67.109298718157589
 20
129.3865755341422
 30
0.0
 11
66.957057783180161
 21
128.62120866941211
 31
0.0
  0
LINE
  5
484
  8
0
  6
CONTINUOUS
 10
63.261539653135017
 20
128.62120866941211
 30
0.0
 11
63.69508515578449
 21
127.9723619717691
 31
0.0
  0
LINE
  5
485
  8
0
  6
CONTINUOUS
 10
66.957057783180161
 20
128.62120866941211
 30
0.0
 11
66.523512280530682
 21
127.9723619717691
 31
0.0
  0
LINE
  5
486
  8
0
  6
CONTINUOUS
 10
65.874665582887772
 20
127.53881646911969
 30
0.0
 11
65.109298718157589
 21
127.3865755341422
 31
0.0
  0
LINE
  5
487
  8
0
  6
CONTINUOUS
 10
65.109298718157589
 20
127.3865755341422
 30
0.0
 11
64.343931853427407
 21
127.53881646911969
 31
0.0
  0
LINE
  5
488
  8
0
  6
CONTINUOUS
 10
63.69508515578449
 20
127.9723619717691
 30
0.0
 11
64.343931853427407
 21
127.53881646911969
 31
0.0
  0
LINE
  5
489
  8
0
  6
CONTINUOUS
 10
66.523512280530682
 20
127.9723619717691
 30
0.0
 11
65.874665582887772
 21
127.53881646911969
 31
0.0
  0
ENDBLK
  5
48B
  8
0
  0
BLOCK
  8
0
  2
*U21
 70
     1
 10
0.0
 20
0.0
 30
0.0
  3
*U21
  1

  0
TEXT
  5
48D
  8
0
  6
CONTINUOUS
 10
320.92939279966339
 20
272.6114510576902
 30
0.0
 40
9.8353293413173617
  1
904 CF Hip Under Channel
  7
ARIAL
  0
ENDBLK
  5
48F
  8
0
  0
BLOCK
  8
0
  2
*U22
 70
     1
 10
0.0
 20
0.0
 30
0.0
  3
*U22
  1

  0
SOLID
  5
491
  8
0
  6
CONTINUOUS
 10
16.44966719662046
 20
175.5933046100858
 30
0.0
 11
15.684300331890279
 21
175.44106367510841
 31
0.0
 12
17.215034061350639
 22
175.44106367510841
 32
0.0
 13
17.215034061350639
 23
175.44106367510841
 33
0.0
210
0.0
220
0.0
230
1.0
  0
SOLID
  5
492
  8
0
  6
CONTINUOUS
 10
15.684300331890279
 20
175.44106367510841
 30
0.0
 11
15.03545363424737
 21
175.0075181724589
 31
0.0
 12
17.863880758993592
 22
175.0075181724589
 32
0.0
 13
17.863880758993592
 23
175.0075181724589
 33
0.0
210
0.0
220
0.0
230
1.0
  0
SOLID
  5
493
  8
0
  6
CONTINUOUS
 10
-15.684300331890279
 20
175.44106367510841
 30
0.0
 11
-17.215034061350639
 21
175.44106367510841
 31
0.0
 12
-17.863880758993592
 22
175.0075181724589
 32
0.0
 13
-17.863880758993592
 23
175.0075181724589
 33
0.0
210
0.0
220
0.0
230
-1.0
  0
SOLID
  5
494
  8
0
  6
CONTINUOUS
 10
15.03545363424737
 20
175.0075181724589
 30
0.0
 11
14.60190813159789
 21
174.35867147481599
 31
0.0
 12
18.297426261643029
 22
174.35867147481599
 32
0.0
 13
18.297426261643029
 23
174.35867147481599
 33
0.0
210
0.0
220
0.0
230
1.0
  0
SOLID
  5
495
  8
0
  6
CONTINUOUS
 10
-15.03545363424737
 20
175.0075181724589
 30
0.0
 11
-17.86388075899357
 21
175.0075181724589
 31
0.0
 12
-18.297426261643029
 22
174.35867147481599
 32
0.0
 13
-18.297426261643029
 23
174.35867147481599
 33
0.0
210
0.0
220
0.0
230
-1.0
  0
SOLID
  5
496
  8
0
  6
CONTINUOUS
 10
14.60190813159789
 20
174.35867147481599
 30
0.0
 11
14.44966719662046
 21
173.5933046100858
 31
0.0
 12
18.44966719662046
 22
173.5933046100858
 32
0.0
 13
18.44966719662046
 23
173.5933046100858
 33
0.0
210
0.0
220
0.0
230
1.0
  0
SOLID
  5
497
  8
0
  6
CONTINUOUS
 10
-14.60190813159789
 20
174.35867147481599
 30
0.0
 11
-18.297426261643029
 21
174.35867147481599
 31
0.0
 12
-18.44966719662046
 22
173.5933046100858
 32
0.0
 13
-18.44966719662046
 23
173.5933046100858
 33
0.0
210
0.0
220
0.0
230
-1.0
  0
SOLID
  5
498
  8
0
  6
CONTINUOUS
 10
14.44966719662046
 20
173.5933046100858
 30
0.0
 11
14.60190813159789
 21
172.82793774535571
 31
0.0
 12
18.297426261643029
 22
172.82793774535571
 32
0.0
 13
18.297426261643029
 23
172.82793774535571
 33
0.0
210
0.0
220
0.0
230
1.0
  0
SOLID
  5
499
  8
0
  6
CONTINUOUS
 10
-14.44966719662046
 20
173.5933046100858
 30
0.0
 11
-18.44966719662046
 21
173.5933046100858
 31
0.0
 12
-18.297426261643029
 22
172.82793774535571
 32
0.0
 13
-18.297426261643029
 23
172.82793774535571
 33
0.0
210
0.0
220
0.0
230
-1.0
  0
SOLID
  5
49A
  8
0
  6
CONTINUOUS
 10
14.60190813159789
 20
172.82793774535571
 30
0.0
 11
15.03545363424737
 21
172.17909104771269
 31
0.0
 12
17.863880758993531
 22
172.17909104771269
 32
0.0
 13
17.863880758993531
 23
172.17909104771269
 33
0.0
210
0.0
220
0.0
230
1.0
  0
SOLID
  5
49B
  8
0
  6
CONTINUOUS
 10
-14.60190813159789
 20
172.82793774535571
 30
0.0
 11
-18.297426261643029
 21
172.82793774535571
 31
0.0
 12
-17.863880758993531
 22
172.17909104771269
 32
0.0
 13
-17.863880758993531
 23
172.17909104771269
 33
0.0
210
0.0
220
0.0
230
-1.0
  0
SOLID
  5
49C
  8
0
  6
CONTINUOUS
 10
-15.684300331890279
 20
171.74554554506329
 30
0.0
 11
-17.215034061350639
 21
171.74554554506329
 31
0.0
 12
-16.44966719662046
 22
171.5933046100858
 32
0.0
 13
-16.44966719662046
 23
171.5933046100858
 33
0.0
210
0.0
220
0.0
230
-1.0
  0
SOLID
  5
49D
  8
0
  6
CONTINUOUS
 10
15.03545363424737
 20
172.17909104771269
 30
0.0
 11
15.684300331890279
 21
171.74554554506329
 31
0.0
 12
17.215034061350639
 22
171.74554554506329
 32
0.0
 13
17.215034061350639
 23
171.74554554506329
 33
0.0
210
0.0
220
0.0
230
1.0
  0
SOLID
  5
49E
  8
0
  6
CONTINUOUS
 10
-15.03545363424737
 20
172.17909104771269
 30
0.0
 11
-17.86388075899351
 21
172.17909104771269
 31
0.0
 12
-17.215034061350639
 22
171.74554554506329
 32
0.0
 13
-17.215034061350639
 23
171.74554554506329
 33
0.0
210
0.0
220
0.0
230
-1.0
  0
LINE
  5
49F
  8
0
  6
CONTINUOUS
 10
16.44966719662046
 20
175.5933046100858
 30
0.0
 11
15.684300331890279
 21
175.44106367510841
 31
0.0
  0
LINE
  5
4A0
  8
0
  6
CONTINUOUS
 10
17.215034061350639
 20
175.44106367510841
 30
0.0
 11
16.44966719662046
 21
175.5933046100858
 31
0.0
  0
LINE
  5
4A1
  8
0
  6
CONTINUOUS
 10
15.684300331890279
 20
175.44106367510841
 30
0.0
 11
15.03545363424737
 21
175.0075181724589
 31
0.0
  0
LINE
  5
4A2
  8
0
  6
CONTINUOUS
 10
17.215034061350639
 20
175.44106367510841
 30
0.0
 11
17.863880758993592
 21
175.0075181724589
 31
0.0
  0
LINE
  5
4A3
  8
0
  6
CONTINUOUS
 10
15.03545363424737
 20
175.0075181724589
 30
0.0
 11
14.60190813159789
 21
174.35867147481599
 31
0.0
  0
LINE
  5
4A4
  8
0
  6
CONTINUOUS
 10
17.86388075899357
 20
175.0075181724589
 30
0.0
 11
18.297426261643029
 21
174.35867147481599
 31
0.0
  0
LINE
  5
4A5
  8
0
  6
CONTINUOUS
 10
14.60190813159789
 20
174.35867147481599
 30
0.0
 11
14.44966719662046
 21
173.5933046100858
 31
0.0
  0
LINE
  5
4A6
  8
0
  6
CONTINUOUS
 10
18.297426261643029
 20
174.35867147481599
 30
0.0
 11
18.44966719662046
 21
173.5933046100858
 31
0.0
  0
LINE
  5
4A7
  8
0
  6
CONTINUOUS
 10
14.44966719662046
 20
173.5933046100858
 30
0.0
 11
14.60190813159789
 21
172.82793774535571
 31
0.0
  0
LINE
  5
4A8
  8
0
  6
CONTINUOUS
 10
18.44966719662046
 20
173.5933046100858
 30
0.0
 11
18.297426261643029
 21
172.82793774535571
 31
0.0
  0
LINE
  5
4A9
  8
0
  6
CONTINUOUS
 10
14.60190813159789
 20
172.82793774535571
 30
0.0
 11
15.03545363424737
 21
172.17909104771269
 31
0.0
  0
LINE
  5
4AA
  8
0
  6
CONTINUOUS
 10
18.297426261643029
 20
172.82793774535571
 30
0.0
 11
17.863880758993531
 21
172.17909104771269
 31
0.0
  0
LINE
  5
4AB
  8
0
  6
CONTINUOUS
 10
17.215034061350639
 20
171.74554554506329
 30
0.0
 11
16.44966719662046
 21
171.5933046100858
 31
0.0
  0
LINE
  5
4AC
  8
0
  6
CONTINUOUS
 10
16.44966719662046
 20
171.5933046100858
 30
0.0
 11
15.684300331890279
 21
171.74554554506329
 31
0.0
  0
LINE
  5
4AD
  8
0
  6
CONTINUOUS
 10
15.03545363424737
 20
172.17909104771269
 30
0.0
 11
15.684300331890279
 21
171.74554554506329
 31
0.0
  0
LINE
  5
4AE
  8
0
  6
CONTINUOUS
 10
17.86388075899351
 20
172.17909104771269
 30
0.0
 11
17.215034061350639
 21
171.74554554506329
 31
0.0
  0
ENDBLK
  5
4B0
  8
0
  0
BLOCK
  8
0
  2
*U23
 70
     1
 10
0.0
 20
0.0
 30
0.0
  3
*U23
  1

  0
TEXT
  5
4B2
  8
0
  6
CONTINUOUS
 10
320.81534054945712
 20
315.96840208015919
 30
0.0
 40
9.8353293413173617
  1
CF Trim 400
  7
ARIAL
  0
ENDBLK
  5
4B4
  8
0
  0
BLOCK
  8
0
  2
*U24
 70
     1
 10
0.0
 20
0.0
 30
0.0
  3
*U24
  1

  0
SOLID
  5
4B6
  8
0
  6
CONTINUOUS
 10
136.51523182739081
 20
115.6263320545804
 30
0.0
 11
135.74986496266061
 21
115.4740911196029
 31
0.0
 12
137.28059869212089
 22
115.4740911196029
 32
0.0
 13
137.28059869212089
 23
115.4740911196029
 33
0.0
210
0.0
220
0.0
230
1.0
  0
SOLID
  5
4B7
  8
0
  6
CONTINUOUS
 10
135.74986496266061
 20
115.4740911196029
 30
0.0
 11
135.1010182650177
 21
115.04054561695349
 31
0.0
 12
137.9294453897638
 22
115.04054561695349
 32
0.0
 13
137.9294453897638
 23
115.04054561695349
 33
0.0
210
0.0
220
0.0
230
1.0
  0
SOLID
  5
4B8
  8
0
  6
CONTINUOUS
 10
-135.74986496266061
 20
115.4740911196029
 30
0.0
 11
-137.28059869212089
 21
115.4740911196029
 31
0.0
 12
-137.9294453897638
 22
115.04054561695349
 32
0.0
 13
-137.9294453897638
 23
115.04054561695349
 33
0.0
210
0.0
220
0.0
230
-1.0
  0
SOLID
  5
4B9
  8
0
  6
CONTINUOUS
 10
135.1010182650177
 20
115.04054561695349
 30
0.0
 11
134.66747276236819
 21
114.3916989193106
 31
0.0
 12
138.36299089241331
 22
114.3916989193106
 32
0.0
 13
138.36299089241331
 23
114.3916989193106
 33
0.0
210
0.0
220
0.0
230
1.0
  0
SOLID
  5
4BA
  8
0
  6
CONTINUOUS
 10
-135.1010182650177
 20
115.04054561695349
 30
0.0
 11
-137.9294453897638
 21
115.04054561695349
 31
0.0
 12
-138.36299089241331
 22
114.3916989193106
 32
0.0
 13
-138.36299089241331
 23
114.3916989193106
 33
0.0
210
0.0
220
0.0
230
-1.0
  0
SOLID
  5
4BB
  8
0
  6
CONTINUOUS
 10
134.66747276236819
 20
114.3916989193106
 30
0.0
 11
134.51523182739081
 21
113.6263320545804
 31
0.0
 12
138.51523182739069
 22
113.6263320545804
 32
0.0
 13
138.51523182739069
 23
113.6263320545804
 33
0.0
210
0.0
220
0.0
230
1.0
  0
SOLID
  5
4BC
  8
0
  6
CONTINUOUS
 10
-134.66747276236819
 20
114.3916989193106
 30
0.0
 11
-138.36299089241331
 21
114.3916989193106
 31
0.0
 12
-138.51523182739069
 22
113.6263320545804
 32
0.0
 13
-138.51523182739069
 23
113.6263320545804
 33
0.0
210
0.0
220
0.0
230
-1.0
  0
SOLID
  5
4BD
  8
0
  6
CONTINUOUS
 10
134.51523182739081
 20
113.6263320545804
 30
0.0
 11
134.66747276236819
 21
112.86096518985021
 31
0.0
 12
138.36299089241331
 22
112.86096518985021
 32
0.0
 13
138.36299089241331
 23
112.86096518985021
 33
0.0
  0
SOLID
  5
4BE
  8
0
  6
CONTINUOUS
 10
-134.51523182739081
 20
113.6263320545804
 30
0.0
 11
-138.51523182739069
 21
113.6263320545804
 31
0.0
 12
-138.36299089241331
 22
112.86096518985021
 32
0.0
 13
-138.36299089241331
 23
112.86096518985021
 33
0.0
210
0.0
220
0.0
230
-1.0
  0
SOLID
  5
4BF
  8
0
  6
CONTINUOUS
 10
134.66747276236819
 20
112.86096518985021
 30
0.0
 11
135.1010182650177
 21
112.2121184922073
 31
0.0
 12
137.9294453897638
 22
112.2121184922073
 32
0.0
 13
137.9294453897638
 23
112.2121184922073
 33
0.0
210
0.0
220
0.0
230
1.0
  0
SOLID
  5
4C0
  8
0
  6
CONTINUOUS
 10
-134.66747276236819
 20
112.86096518985021
 30
0.0
 11
-138.36299089241331
 21
112.86096518985021
 31
0.0
 12
-137.9294453897638
 22
112.2121184922073
 32
0.0
 13
-137.9294453897638
 23
112.2121184922073
 33
0.0
210
0.0
220
0.0
230
-1.0
  0
SOLID
  5
4C1
  8
0
  6
CONTINUOUS
 10
-135.74986496266061
 20
111.7785729895578
 30
0.0
 11
-137.28059869212089
 21
111.7785729895578
 31
0.0
 12
-136.51523182739081
 22
111.6263320545804
 32
0.0
 13
-136.51523182739081
 23
111.6263320545804
 33
0.0
210
0.0
220
0.0
230
-1.0
  0
SOLID
  5
4C2
  8
0
  6
CONTINUOUS
 10
135.1010182650177
 20
112.2121184922073
 30
0.0
 11
135.74986496266061
 21
111.7785729895578
 31
0.0
 12
137.28059869212089
 22
111.7785729895578
 32
0.0
 13
137.28059869212089
 23
111.7785729895578
 33
0.0
210
0.0
220
0.0
230
1.0
  0
SOLID
  5
4C3
  8
0
  6
CONTINUOUS
 10
-135.1010182650177
 20
112.2121184922073
 30
0.0
 11
-137.9294453897638
 21
112.2121184922073
 31
0.0
 12
-137.28059869212089
 22
111.7785729895578
 32
0.0
 13
-137.28059869212089
 23
111.7785729895578
 33
0.0
210
0.0
220
0.0
230
-1.0
  0
LINE
  5
4C4
  8
0
  6
CONTINUOUS
 10
136.51523182739081
 20
115.6263320545804
 30
0.0
 11
135.74986496266061
 21
115.4740911196029
 31
0.0
  0
LINE
  5
4C5
  8
0
  6
CONTINUOUS
 10
137.28059869212089
 20
115.4740911196029
 30
0.0
 11
136.51523182739081
 21
115.6263320545804
 31
0.0
  0
LINE
  5
4C6
  8
0
  6
CONTINUOUS
 10
135.74986496266061
 20
115.4740911196029
 30
0.0
 11
135.1010182650177
 21
115.04054561695349
 31
0.0
  0
LINE
  5
4C7
  8
0
  6
CONTINUOUS
 10
137.28059869212089
 20
115.4740911196029
 30
0.0
 11
137.9294453897638
 21
115.04054561695349
 31
0.0
  0
LINE
  5
4C8
  8
0
  6
CONTINUOUS
 10
135.1010182650177
 20
115.04054561695349
 30
0.0
 11
134.66747276236819
 21
114.3916989193106
 31
0.0
  0
LINE
  5
4C9
  8
0
  6
CONTINUOUS
 10
137.9294453897638
 20
115.04054561695349
 30
0.0
 11
138.36299089241331
 21
114.3916989193106
 31
0.0
  0
LINE
  5
4CA
  8
0
  6
CONTINUOUS
 10
134.66747276236819
 20
114.3916989193106
 30
0.0
 11
134.51523182739081
 21
113.6263320545804
 31
0.0
  0
LINE
  5
4CB
  8
0
  6
CONTINUOUS
 10
138.36299089241331
 20
114.3916989193106
 30
0.0
 11
138.51523182739069
 21
113.6263320545804
 31
0.0
  0
LINE
  5
4CC
  8
0
  6
CONTINUOUS
 10
134.51523182739081
 20
113.6263320545804
 30
0.0
 11
134.66747276236819
 21
112.86096518985021
 31
0.0
  0
LINE
  5
4CD
  8
0
  6
CONTINUOUS
 10
138.51523182739069
 20
113.6263320545804
 30
0.0
 11
138.36299089241331
 21
112.86096518985021
 31
0.0
  0
LINE
  5
4CE
  8
0
  6
CONTINUOUS
 10
134.66747276236819
 20
112.86096518985021
 30
0.0
 11
135.1010182650177
 21
112.2121184922073
 31
0.0
  0
LINE
  5
4CF
  8
0
  6
CONTINUOUS
 10
138.36299089241331
 20
112.86096518985021
 30
0.0
 11
137.9294453897638
 21
112.2121184922073
 31
0.0
  0
LINE
  5
4D0
  8
0
  6
CONTINUOUS
 10
137.28059869212089
 20
111.7785729895578
 30
0.0
 11
136.51523182739081
 21
111.6263320545804
 31
0.0
  0
LINE
  5
4D1
  8
0
  6
CONTINUOUS
 10
136.51523182739081
 20
111.6263320545804
 30
0.0
 11
135.74986496266061
 21
111.7785729895578
 31
0.0
  0
LINE
  5
4D2
  8
0
  6
CONTINUOUS
 10
135.1010182650177
 20
112.2121184922073
 30
0.0
 11
135.74986496266061
 21
111.7785729895578
 31
0.0
  0
LINE
  5
4D3
  8
0
  6
CONTINUOUS
 10
137.9294453897638
 20
112.2121184922073
 30
0.0
 11
137.28059869212089
 21
111.7785729895578
 31
0.0
  0
ENDBLK
  5
4D5
  8
0
  0
BLOCK
  8
0
  2
*U25
 70
     1
 10
0.0
 20
0.0
 30
0.0
  3
*U25
  1

  0
TEXT
  5
4D7
  8
0
  6
CONTINUOUS
 10
320.81534054945712
 20
221.61221336519091
 30
0.0
 40
9.8353293413173617
  1
CF Shingle Panel
  7
ARIAL
  0
ENDBLK
  5
4D9
  8
0
  0
BLOCK
  8
0
  2
*U26
 70
     1
 10
0.0
 20
0.0
 30
0.0
  3
*U26
  1

  0
SOLID
  5
4DB
  8
0
  6
CONTINUOUS
 10
158.46241865199389
 20
109.01371616466849
 30
0.0
 11
157.69705178726369
 21
108.8614752296911
 31
0.0
 12
159.22778551672411
 22
108.8614752296911
 32
0.0
 13
159.22778551672411
 23
108.8614752296911
 33
0.0
210
0.0
220
0.0
230
1.0
  0
SOLID
  5
4DC
  8
0
  6
CONTINUOUS
 10
157.69705178726369
 20
108.8614752296911
 30
0.0
 11
157.04820508962081
 21
108.4279297270416
 31
0.0
 12
159.87663221436699
 22
108.4279297270416
 32
0.0
 13
159.87663221436699
 23
108.4279297270416
 33
0.0
210
0.0
220
0.0
230
1.0
  0
SOLID
  5
4DD
  8
0
  6
CONTINUOUS
 10
-157.69705178726369
 20
108.8614752296911
 30
0.0
 11
-159.22778551672411
 21
108.8614752296911
 31
0.0
 12
-159.87663221436699
 22
108.4279297270416
 32
0.0
 13
-159.87663221436699
 23
108.4279297270416
 33
0.0
210
0.0
220
0.0
230
-1.0
  0
SOLID
  5
4DE
  8
0
  6
CONTINUOUS
 10
157.04820508962081
 20
108.4279297270416
 30
0.0
 11
156.6146595869713
 21
107.77908302939871
 31
0.0
 12
160.3101777170165
 22
107.77908302939871
 32
0.0
 13
160.3101777170165
 23
107.77908302939871
 33
0.0
210
0.0
220
0.0
230
1.0
  0
SOLID
  5
4DF
  8
0
  6
CONTINUOUS
 10
-157.04820508962081
 20
108.4279297270416
 30
0.0
 11
-159.87663221436699
 21
108.4279297270416
 31
0.0
 12
-160.3101777170165
 22
107.77908302939871
 32
0.0
 13
-160.3101777170165
 23
107.77908302939871
 33
0.0
210
0.0
220
0.0
230
-1.0
  0
SOLID
  5
4E0
  8
0
  6
CONTINUOUS
 10
156.6146595869713
 20
107.77908302939871
 30
0.0
 11
156.46241865199389
 21
107.01371616466849
 31
0.0
 12
160.46241865199389
 22
107.01371616466849
 32
0.0
 13
160.46241865199389
 23
107.01371616466849
 33
0.0
210
0.0
220
0.0
230
1.0
  0
SOLID
  5
4E1
  8
0
  6
CONTINUOUS
 10
-156.6146595869713
 20
107.77908302939871
 30
0.0
 11
-160.3101777170165
 21
107.77908302939871
 31
0.0
 12
-160.46241865199389
 22
107.01371616466849
 32
0.0
 13
-160.46241865199389
 23
107.01371616466849
 33
0.0
210
0.0
220
0.0
230
-1.0
  0
SOLID
  5
4E2
  8
0
  6
CONTINUOUS
 10
156.46241865199389
 20
107.01371616466849
 30
0.0
 11
156.6146595869713
 21
106.2483492999383
 31
0.0
 12
160.3101777170165
 22
106.2483492999383
 32
0.0
 13
160.3101777170165
 23
106.2483492999383
 33
0.0
210
0.0
220
0.0
230
1.0
  0
SOLID
  5
4E3
  8
0
  6
CONTINUOUS
 10
-156.46241865199389
 20
107.01371616466849
 30
0.0
 11
-160.46241865199389
 21
107.01371616466849
 31
0.0
 12
-160.3101777170165
 22
106.2483492999383
 32
0.0
 13
-160.3101777170165
 23
106.2483492999383
 33
0.0
210
0.0
220
0.0
230
-1.0
  0
SOLID
  5
4E4
  8
0
  6
CONTINUOUS
 10
156.6146595869713
 20
106.2483492999383
 30
0.0
 11
157.04820508962081
 21
105.5995026022954
 31
0.0
 12
159.87663221436699
 22
105.5995026022954
 32
0.0
 13
159.87663221436699
 23
105.5995026022954
 33
0.0
210
0.0
220
0.0
230
1.0
  0
SOLID
  5
4E5
  8
0
  6
CONTINUOUS
 10
-156.6146595869713
 20
106.2483492999383
 30
0.0
 11
-160.3101777170165
 21
106.2483492999383
 31
0.0
 12
-159.87663221436699
 22
105.5995026022954
 32
0.0
 13
-159.87663221436699
 23
105.5995026022954
 33
0.0
210
0.0
220
0.0
230
-1.0
  0
SOLID
  5
4E6
  8
0
  6
CONTINUOUS
 10
-157.69705178726369
 20
105.16595709964589
 30
0.0
 11
-159.22778551672411
 21
105.16595709964589
 31
0.0
 12
-158.46241865199389
 22
105.01371616466849
 32
0.0
 13
-158.46241865199389
 23
105.01371616466849
 33
0.0
210
0.0
220
0.0
230
-1.0
  0
SOLID
  5
4E7
  8
0
  6
CONTINUOUS
 10
157.04820508962081
 20
105.5995026022954
 30
0.0
 11
157.69705178726369
 21
105.16595709964589
 31
0.0
 12
159.22778551672411
 22
105.16595709964589
 32
0.0
 13
159.22778551672411
 23
105.16595709964589
 33
0.0
210
0.0
220
0.0
230
1.0
  0
SOLID
  5
4E8
  8
0
  6
CONTINUOUS
 10
-157.04820508962081
 20
105.5995026022954
 30
0.0
 11
-159.87663221436699
 21
105.5995026022954
 31
0.0
 12
-159.22778551672411
 22
105.16595709964589
 32
0.0
 13
-159.22778551672411
 23
105.16595709964589
 33
0.0
210
0.0
220
0.0
230
-1.0
  0
LINE
  5
4E9
  8
0
  6
CONTINUOUS
 10
158.46241865199389
 20
109.01371616466849
 30
0.0
 11
157.69705178726369
 21
108.8614752296911
 31
0.0
  0
LINE
  5
4EA
  8
0
  6
CONTINUOUS
 10
159.22778551672411
 20
108.8614752296911
 30
0.0
 11
158.46241865199389
 21
109.01371616466849
 31
0.0
  0
LINE
  5
4EB
  8
0
  6
CONTINUOUS
 10
157.69705178726369
 20
108.8614752296911
 30
0.0
 11
157.04820508962081
 21
108.4279297270416
 31
0.0
  0
LINE
  5
4EC
  8
0
  6
CONTINUOUS
 10
159.22778551672411
 20
108.8614752296911
 30
0.0
 11
159.87663221436699
 21
108.4279297270416
 31
0.0
  0
LINE
  5
4ED
  8
0
  6
CONTINUOUS
 10
157.04820508962081
 20
108.4279297270416
 30
0.0
 11
156.6146595869713
 21
107.77908302939871
 31
0.0
  0
LINE
  5
4EE
  8
0
  6
CONTINUOUS
 10
159.87663221436699
 20
108.4279297270416
 30
0.0
 11
160.3101777170165
 21
107.77908302939871
 31
0.0
  0
LINE
  5
4EF
  8
0
  6
CONTINUOUS
 10
156.6146595869713
 20
107.77908302939871
 30
0.0
 11
156.46241865199389
 21
107.01371616466849
 31
0.0
  0
LINE
  5
4F0
  8
0
  6
CONTINUOUS
 10
160.3101777170165
 20
107.77908302939871
 30
0.0
 11
160.46241865199389
 21
107.01371616466849
 31
0.0
  0
LINE
  5
4F1
  8
0
  6
CONTINUOUS
 10
156.46241865199389
 20
107.01371616466849
 30
0.0
 11
156.6146595869713
 21
106.2483492999383
 31
0.0
  0
LINE
  5
4F2
  8
0
  6
CONTINUOUS
 10
160.46241865199389
 20
107.01371616466849
 30
0.0
 11
160.3101777170165
 21
106.2483492999383
 31
0.0
  0
LINE
  5
4F3
  8
0
  6
CONTINUOUS
 10
156.6146595869713
 20
106.2483492999383
 30
0.0
 11
157.04820508962081
 21
105.5995026022954
 31
0.0
  0
LINE
  5
4F4
  8
0
  6
CONTINUOUS
 10
160.3101777170165
 20
106.2483492999383
 30
0.0
 11
159.87663221436699
 21
105.5995026022954
 31
0.0
  0
LINE
  5
4F5
  8
0
  6
CONTINUOUS
 10
159.22778551672411
 20
105.16595709964589
 30
0.0
 11
158.46241865199389
 21
105.01371616466849
 31
0.0
  0
LINE
  5
4F6
  8
0
  6
CONTINUOUS
 10
158.46241865199389
 20
105.01371616466849
 30
0.0
 11
157.69705178726369
 21
105.16595709964589
 31
0.0
  0
LINE
  5
4F7
  8
0
  6
CONTINUOUS
 10
157.04820508962081
 20
105.5995026022954
 30
0.0
 11
157.69705178726369
 21
105.16595709964589
 31
0.0
  0
LINE
  5
4F8
  8
0
  6
CONTINUOUS
 10
159.87663221436699
 20
105.5995026022954
 30
0.0
 11
159.22778551672411
 21
105.16595709964589
 31
0.0
  0
ENDBLK
  5
4FA
  8
0
  0
BLOCK
  8
0
  2
*U27
 70
     1
 10
0.0
 20
0.0
 30
0.0
  3
*U27
  1

  0
TEXT
  5
4FC
  8
0
  6
CONTINUOUS
 10
320.87928938075549
 20
177.5112665199446
 30
0.0
 40
9.8353293413173617
  1
Nails/Staples inside bitumen
  7
ARIAL
  0
TEXT
  5
4FD
  8
0
  6
CONTINUOUS
 10
321.79841633830023
 20
162.12665113532921
 30
0.0
 40
9.8353293413173617
  1
foam
  7
ARIAL
  0
ENDBLK
  5
4FF
  8
0
  0
ENDSEC
  0
SECTION
  2
ENTITIES
  0
CIRCLE
  5
178
  8
0
 10
198.7279316067515
 20
73.928764924181664
 30
0.0
 40
2.0000000000000222
1001
REVIT
1002
{
1070
     1
1000
785402
1002
}
1002
{
1070
     5
1000
233013
1002
}
1002
{
1070
     2
1000
-2005028
1002
}
  0
INSERT
  5
179
  8
0
  6
CONTINUOUS
  2
*U18
 10
0.0
 20
0.0
 30
0.0
1001
REVIT
1002
{
1070
     1
1000
785402
1002
}
1002
{
1070
     5
1000
233013
1002
}
1002
{
1070
     2
1000
-2005028
1002
}
1001
ACAD
1002
{
1000
R14_HATCH_DATA
1000
179
1011
1.0
1021
0.0
1031
0.0
1021
0.0
1031
0.0
1011
0.0
1021
0.0
1031
0.0
1021
1.0
1031
0.0
1011
0.0
1021
0.0
1031
0.0
1021
0.0
1031
1.0
1040
0.0
1010
0.0
1020
0.0
1030
1.0
1000
SOLID
1070
     1
1070
     0
1071
        1
1071
        0
1071
        1
1070
     2
1040
198.7279316067515
1040
73.928764924181664
1040
2.0000000000000222
1040
0.0
1040
6.2831853071795862
1070
     1
1071
        0
1070
     0
1070
     1
1071
        1
1040
0.0
1040
0.0
1040
0.0
1002
}
  0
LINE
  5
17A
  8
0
 10
254.3242591641436
 20
116.5810050540329
 30
0.0
 11
319.60654744709399
 21
116.5810050540329
 31
0.0
1001
REVIT
1002
{
1070
     1
1000
785402
1002
}
1002
{
1070
     5
1000
233013
1002
}
1002
{
1070
     2
1000
-2005028
1002
}
  0
LINE
  5
17B
  8
0
 10
198.7279316067515
 20
73.928764924181664
 30
0.0
 11
254.3242591641436
 21
116.5810050540329
 31
0.0
1001
REVIT
1002
{
1070
     1
1000
785402
1002
}
1002
{
1070
     5
1000
233013
1002
}
1002
{
1070
     2
1000
-2005028
1002
}
  0
INSERT
  5
17D
  8
0
  6
CONTINUOUS
  2
*U19
 10
0.0
 20
0.0
 30
0.0
  0
CIRCLE
  5
17E
  8
0
 10
65.109298718157589
 20
129.3865755341422
 30
0.0
 40
1.9999999999999929
1001
REVIT
1002
{
1070
     1
1000
785406
1002
}
1002
{
1070
     5
1000
233013
1002
}
1002
{
1070
     2
1000
-2005028
1002
}
  0
INSERT
  5
17F
  8
0
  6
CONTINUOUS
  2
*U20
 10
0.0
 20
0.0
 30
0.0
1001
REVIT
1002
{
1070
     1
1000
785406
1002
}
1002
{
1070
     5
1000
233013
1002
}
1002
{
1070
     2
1000
-2005028
1002
}
1001
ACAD
1002
{
1000
R14_HATCH_DATA
1000
17F
1011
1.0
1021
0.0
1031
0.0
1021
0.0
1031
0.0
1011
0.0
1021
0.0
1031
0.0
1021
1.0
1031
0.0
1011
0.0
1021
0.0
1031
0.0
1021
0.0
1031
1.0
1040
0.0
1010
0.0
1020
0.0
1030
1.0
1000
SOLID
1070
     1
1070
     0
1071
        1
1071
        0
1071
        1
1070
     2
1040
65.109298718157589
1040
129.3865755341422
1040
1.9999999999999929
1040
0.0
1040
6.2831853071795862
1070
     1
1071
        0
1070
     0
1070
     1
1071
        1
1040
0.0
1040
0.0
1040
0.0
1002
}
  0
LINE
  5
180
  8
0
 10
184.7825816944864
 20
277.14991259615181
 30
0.0
 11
319.60654744709399
 21
277.14991259615181
 31
0.0
1001
REVIT
1002
{
1070
     1
1000
785406
1002
}
1002
{
1070
     5
1000
233013
1002
}
1002
{
1070
     2
1000
-2005028
1002
}
  0
LINE
  5
181
  8
0
 10
65.109298718157589
 20
129.3865755341422
 30
0.0
 11
184.7825816944864
 21
277.14991259615181
 31
0.0
1001
REVIT
1002
{
1070
     1
1000
785406
1002
}
1002
{
1070
     5
1000
233013
1002
}
1002
{
1070
     2
1000
-2005028
1002
}
  0
INSERT
  5
182
  8
0
  6
CONTINUOUS
  2
*U21
 10
0.0
 20
0.0
 30
0.0
  0
CIRCLE
  5
183
  8
0
 10
16.44966719662046
 20
173.5933046100858
 30
0.0
 40
1.999999999999996
1001
REVIT
1002
{
1070
     1
1000
803843
1002
}
1002
{
1070
     5
1000
233013
1002
}
1002
{
1070
     2
1000
-2005028
1002
}
  0
INSERT
  5
184
  8
0
  6
CONTINUOUS
  2
*U22
 10
0.0
 20
0.0
 30
0.0
1001
REVIT
1002
{
1070
     1
1000
803843
1002
}
1002
{
1070
     5
1000
233013
1002
}
1002
{
1070
     2
1000
-2005028
1002
}
1001
ACAD
1002
{
1000
R14_HATCH_DATA
1000
184
1011
1.0
1021
0.0
1031
0.0
1021
0.0
1031
0.0
1011
0.0
1021
0.0
1031
0.0
1021
1.0
1031
0.0
1011
0.0
1021
0.0
1031
0.0
1021
0.0
1031
1.0
1040
0.0
1010
0.0
1020
0.0
1030
1.0
1000
SOLID
1070
     1
1070
     0
1071
        1
1071
        0
1071
        1
1070
     2
1040
16.44966719662046
1040
173.5933046100858
1040
1.999999999999996
1040
0.0
1040
6.2831853071795862
1070
     1
1071
        0
1070
     0
1070
     1
1071
        1
1040
0.0
1040
0.0
1040
0.0
1002
}
  0
LINE
  5
185
  8
0
 10
153.9392967566481
 20
320.5068636186208
 30
0.0
 11
319.60654744709399
 21
320.50686361862068
 31
0.0
1001
REVIT
1002
{
1070
     1
1000
803843
1002
}
1002
{
1070
     5
1000
233013
1002
}
1002
{
1070
     2
1000
-2005028
1002
}
  0
LINE
  5
186
  8
0
 10
16.44966719662046
 20
173.5933046100858
 30
0.0
 11
153.9392967566481
 21
320.5068636186208
 31
0.0
1001
REVIT
1002
{
1070
     1
1000
803843
1002
}
1002
{
1070
     5
1000
233013
1002
}
1002
{
1070
     2
1000
-2005028
1002
}
  0
INSERT
  5
187
  8
0
  6
CONTINUOUS
  2
*U23
 10
0.0
 20
0.0
 30
0.0
  0
CIRCLE
  5
188
  8
0
 10
136.51523182739081
 20
113.6263320545804
 30
0.0
 40
1.999999999999984
1001
REVIT
1002
{
1070
     1
1000
803844
1002
}
1002
{
1070
     5
1000
233013
1002
}
1002
{
1070
     2
1000
-2005028
1002
}
  0
INSERT
  5
189
  8
0
  6
CONTINUOUS
  2
*U24
 10
0.0
 20
0.0
 30
0.0
1001
REVIT
1002
{
1070
     1
1000
803844
1002
}
1002
{
1070
     5
1000
233013
1002
}
1002
{
1070
     2
1000
-2005028
1002
}
1001
ACAD
1002
{
1000
R14_HATCH_DATA
1000
189
1011
1.0
1021
0.0
1031
0.0
1021
0.0
1031
0.0
1011
0.0
1021
0.0
1031
0.0
1021
1.0
1031
0.0
1011
0.0
1021
0.0
1031
0.0
1021
0.0
1031
1.0
1040
0.0
1010
0.0
1020
0.0
1030
1.0
1000
SOLID
1070
     1
1070
     0
1071
        1
1071
        0
1071
        1
1070
     2
1040
136.51523182739081
1040
113.6263320545804
1040
1.999999999999984
1040
0.0
1040
6.2831853071795862
1070
     1
1071
        0
1070
     0
1070
     1
1071
        1
1040
0.0
1040
0.0
1040
0.0
1002
}
  0
LINE
  5
18A
  8
0
 10
223.98967586872649
 20
226.1506749036524
 30
0.0
 11
319.60654744709399
 21
226.1506749036524
 31
0.0
1001
REVIT
1002
{
1070
     1
1000
803844
1002
}
1002
{
1070
     5
1000
233013
1002
}
1002
{
1070
     2
1000
-2005028
1002
}
  0
LINE
  5
18B
  8
0
 10
136.51523182739081
 20
113.6263320545804
 30
0.0
 11
223.98967586872649
 21
226.1506749036524
 31
0.0
1001
REVIT
1002
{
1070
     1
1000
803844
1002
}
1002
{
1070
     5
1000
233013
1002
}
1002
{
1070
     2
1000
-2005028
1002
}
  0
INSERT
  5
18C
  8
0
  6
CONTINUOUS
  2
*U25
 10
0.0
 20
0.0
 30
0.0
  0
CIRCLE
  5
18D
  8
0
 10
158.46241865199389
 20
107.01371616466849
 30
0.0
 40
2.000000000000024
1001
REVIT
1002
{
1070
     1
1000
803845
1002
}
1002
{
1070
     5
1000
233011
1002
}
1002
{
1070
     2
1000
-2005028
1002
}
  0
INSERT
  5
18E
  8
0
  6
CONTINUOUS
  2
*U26
 10
0.0
 20
0.0
 30
0.0
1001
REVIT
1002
{
1070
     1
1000
803845
1002
}
1002
{
1070
     5
1000
233011
1002
}
1002
{
1070
     2
1000
-2005028
1002
}
1001
ACAD
1002
{
1000
R14_HATCH_DATA
1000
18E
1011
1.0
1021
0.0
1031
0.0
1021
0.0
1031
0.0
1011
0.0
1021
0.0
1031
0.0
1021
1.0
1031
0.0
1011
0.0
1021
0.0
1031
0.0
1021
0.0
1031
1.0
1040
0.0
1010
0.0
1020
0.0
1030
1.0
1000
SOLID
1070
     1
1070
     0
1071
        1
1071
        0
1071
        1
1070
     2
1040
158.46241865199389
1040
107.01371616466849
1040
2.000000000000024
1040
0.0
1040
6.2831853071795862
1070
     1
1071
        0
1070
     0
1070
     1
1071
        1
1040
0.0
1040
0.0
1040
0.0
1002
}
  0
LINE
  5
18F
  8
0
 10
245.1797708059338
 20
174.1266511353293
 30
0.0
 11
320.03277989669471
 21
174.1266511353293
 31
0.0
1001
REVIT
1002
{
1070
     1
1000
803845
1002
}
1002
{
1070
     5
1000
233011
1002
}
1002
{
1070
     2
1000
-2005028
1002
}
  0
LINE
  5
190
  8
0
 10
158.46241865199389
 20
107.01371616466849
 30
0.0
 11
245.1797708059338
 21
174.1266511353293
 31
0.0
1001
REVIT
1002
{
1070
     1
1000
803845
1002
}
1002
{
1070
     5
1000
233011
1002
}
1002
{
1070
     2
1000
-2005028
1002
}
  0
INSERT
  5
191
  8
0
  6
CONTINUOUS
  2
*U27
 10
0.0
 20
0.0
 30
0.0
  0
LINE
  5
2E9
  8
0
 10
529.1785286527238
 20
-125.2635891837887
 30
0.0
 11
529.1785286527238
 21
-64.106783697068821
 31
0.0
  0
LINE
  5
2EA
  8
0
 10
529.1785286527238
 20
2.7364108162112539
 30
0.0
 11
529.1785286527238
 21
-58.420394670508671
 31
0.0
  0
LINE
  5
2EB
  8
0
 10
529.1785286527238
 20
2.7364108162112539
 30
0.0
 11
529.1785286527238
 21
-58.420394670508671
 31
0.0
  0
LINE
  5
2EC
  8
0
 10
529.1785286527238
 20
-58.420394670508671
 30
0.0
 11
537.42462398142845
 21
-59.874403762453298
 31
0.0
  0
LINE
  5
2ED
  8
0
 10
537.42462398142845
 20
-59.874403762453298
 30
0.0
 11
520.93243332401903
 21
-62.652774605124193
 31
0.0
  0
LINE
  5
2EE
  8
0
 10
520.93243332401903
 20
-62.652774605124193
 30
0.0
 11
529.1785286527238
 21
-64.106783697068821
 31
0.0
  0
LINE
  5
2EF
  8
0
 10
529.1785286527238
 20
-64.106783697068821
 30
0.0
 11
529.1785286527238
 21
-125.2635891837887
 31
0.0
  0
LINE
  5
2F0
  8
0
 10
-529.17852865272346
 20
-125.2635891837887
 30
0.0
 11
-529.17852865272346
 21
-64.106783697068821
 31
0.0
  0
LINE
  5
2F1
  8
0
 10
-529.17852865272346
 20
2.7364108162112539
 30
0.0
 11
-529.17852865272346
 21
-58.420394670508671
 31
0.0
  0
LINE
  5
2F2
  8
0
 10
-529.17852865272346
 20
-125.2635891837887
 30
0.0
 11
-529.17852865272346
 21
-64.106783697068821
 31
0.0
  0
LINE
  5
2F3
  8
0
 10
-529.17852865272346
 20
-64.106783697068821
 30
0.0
 11
-520.93243332401869
 21
-62.652774605124193
 31
0.0
  0
LINE
  5
2F4
  8
0
 10
-520.93243332401869
 20
-62.652774605124193
 30
0.0
 11
-537.42462398142823
 21
-59.874403762453298
 31
0.0
  0
LINE
  5
2F5
  8
0
 10
-537.42462398142823
 20
-59.874403762453298
 30
0.0
 11
-529.17852865272346
 21
-58.420394670508671
 31
0.0
  0
LINE
  5
2F6
  8
0
 10
-529.17852865272346
 20
-58.420394670508671
 30
0.0
 11
-529.17852865272346
 21
2.7364108162112539
 31
0.0
  0
LINE
  5
2F7
  8
0
 10
-502.94470850818578
 20
-25.01332142961579
 30
0.0
 11
-499.20306199189781
 21
-23.599079106970709
 31
0.0
1001
REVIT
1002
{
1070
     3
1000
211597
1002
}
  0
LINE
  5
2F8
  8
0
 10
-493.14452727387641
 20
-46.699006749076837
 30
0.0
 11
-501.27642062908279
 21
-25.184539280427991
 31
0.0
1001
REVIT
1002
{
1070
     3
1000
211597
1002
}
  0
LINE
  5
2F9
  8
0
 10
-491.96970029801719
 20
-48.393049716889237
 30
0.0
 11
-493.14452727387641
 21
-46.699006749076837
 31
0.0
1001
REVIT
1002
{
1070
     3
1000
211597
1002
}
  0
LINE
  5
2FA
  8
0
 10
-492.20911564480468
 20
-46.345446168415698
 30
0.0
 11
-491.96970029801719
 21
-48.393049716889237
 31
0.0
1001
REVIT
1002
{
1070
     3
1000
211597
1002
}
  0
LINE
  5
2FB
  8
0
 10
-500.34100900001113
 20
-24.830978699766849
 30
0.0
 11
-492.20911564480468
 21
-46.345446168415698
 31
0.0
1001
REVIT
1002
{
1070
     3
1000
211597
1002
}
  0
LINE
  5
2FC
  8
0
 10
-499.21864269035638
 20
-24.40675424945734
 30
0.0
 11
-500.34100900001113
 21
-24.830978699766849
 31
0.0
1001
REVIT
1002
{
1070
     3
1000
211597
1002
}
  0
LINE
  5
2FD
  8
0
 10
-501.27642062908279
 20
-25.184539280427991
 30
0.0
 11
-502.39878693873709
 21
-25.608763730737341
 31
0.0
1001
REVIT
1002
{
1070
     3
1000
211597
1002
}
  0
LINE
  5
2FE
  8
0
 10
-502.94470850818578
 20
-25.01332142961579
 30
0.0
 11
-502.39878693873709
 21
-25.608763730737341
 31
0.0
1001
REVIT
1002
{
1070
     3
1000
211597
1002
}
  0
LINE
  5
2FF
  8
0
 10
-499.20306199189781
 20
-23.599079106970709
 30
0.0
 11
-499.21864269035638
 21
-24.40675424945734
 31
0.0
1001
REVIT
1002
{
1070
     3
1000
211597
1002
}
  0
LINE
  5
300
  8
0
 10
-157.20890853268651
 20
106.11951328849869
 30
0.0
 11
-153.49811563034751
 21
107.6128371100328
 31
0.0
1001
REVIT
1002
{
1070
     3
1000
211597
1002
}
  0
LINE
  5
301
  8
0
 10
-146.95075100395451
 20
84.646676863943242
 30
0.0
 11
-155.5373629777728
 21
105.9837360523853
 31
0.0
1001
REVIT
1002
{
1070
     3
1000
211597
1002
}
  0
LINE
  5
302
  8
0
 10
-145.74023998039439
 20
82.977945890466515
 30
0.0
 11
-146.95075100395451
 21
84.646676863943242
 31
0.0
1001
REVIT
1002
{
1070
     3
1000
211597
1002
}
  0
LINE
  5
303
  8
0
 10
-146.02305277836999
 20
85.020007819326636
 30
0.0
 11
-145.74023998039439
 21
82.977945890466515
 31
0.0
1001
REVIT
1002
{
1070
     3
1000
211597
1002
}
  0
LINE
  5
304
  8
0
 10
-154.60966475218831
 20
106.35706700776871
 30
0.0
 11
-146.02305277836999
 21
85.020007819326636
 31
0.0
1001
REVIT
1002
{
1070
     3
1000
211597
1002
}
  0
LINE
  5
305
  8
0
 10
-153.4965534741558
 20
106.8050132099016
 30
0.0
 11
-154.60966475218831
 21
106.35706700776871
 31
0.0
1001
REVIT
1002
{
1070
     3
1000
211597
1002
}
  0
LINE
  5
306
  8
0
 10
-155.5373629777728
 20
105.9837360523853
 30
0.0
 11
-156.65047425580491
 21
105.5357898502526
 31
0.0
1001
REVIT
1002
{
1070
     3
1000
211597
1002
}
  0
LINE
  5
307
  8
0
 10
-157.20890853268651
 20
106.11951328849869
 30
0.0
 11
-156.65047425580491
 21
105.5357898502526
 31
0.0
1001
REVIT
1002
{
1070
     3
1000
211597
1002
}
  0
LINE
  5
308
  8
0
 10
-153.49811563034751
 20
107.6128371100328
 30
0.0
 11
-153.4965534741558
 21
106.8050132099016
 31
0.0
1001
REVIT
1002
{
1070
     3
1000
211597
1002
}
  0
ARC
  5
309
  8
0
 10
-708.95393429821172
 20
-108.2658001505947
 30
0.0
 40
2.0004260768712872
 50
194.70525145964231
 51
278.70525145962381
1001
REVIT
1002
{
1070
     3
1000
773559
1002
}
  0
ARC
  5
30A
  8
0
 10
-711.03571468176835
 20
-100.3334874204684
 30
0.0
 40
2.000426076870601
 50
97.574892421263712
 51
194.70525145964231
1001
REVIT
1002
{
1070
     3
1000
773559
1002
}
  0
ARC
  5
30B
  8
0
 10
-520.82836685647453
 20
-40.377169076828316
 30
0.0
 40
2.6326198929475542
 50
292.23363150144479
 51
103.0072019846923
1001
REVIT
1002
{
1070
     3
1000
773559
1002
}
  0
ARC
  5
30C
  8
0
 10
-533.06229184335155
 20
-37.76504492124252
 30
0.0
 40
3.0010856034007412
 50
105.693596895263
 51
283.71690602399002
1001
REVIT
1002
{
1070
     3
1000
773559
1002
}
  0
LINE
  5
30D
  8
0
 10
-710.88883539964274
 20
-108.77360150615419
 30
0.0
 11
-712.97061578319858
 21
-100.8412887760277
 31
0.0
1001
REVIT
1002
{
1070
     3
1000
773559
1002
}
  0
LINE
  5
30E
  8
0
 10
-711.29941488226825
 20
-98.350518259518083
 30
0.0
 11
-565.56521073963688
 21
-60.087594516094143
 31
0.0
1001
REVIT
1002
{
1070
     3
1000
773559
1002
}
  0
LINE
  5
30F
  8
0
 10
-565.56521073963768
 20
-60.087594516094299
 30
0.0
 11
-565.35576381518513
 21
-60.02073032321865
 31
0.0
1001
REVIT
1002
{
1070
     3
1000
773559
1002
}
  0
LINE
  5
310
  8
0
 10
-565.3557638151791
 20
-60.020730323216341
 30
0.0
 11
-519.83222511172505
 21
-42.814050100824119
 31
0.0
1001
REVIT
1002
{
1070
     3
1000
773559
1002
}
  0
LINE
  5
311
  8
0
 10
-521.42089990701083
 20
-37.812097521341897
 30
0.0
 11
-532.35065999989808
 21
-40.68053714697767
 31
0.0
1001
REVIT
1002
{
1070
     3
1000
773559
1002
}
  0
LINE
  5
312
  8
0
 10
-533.87406406657817
 20
-34.875833842671597
 30
0.0
 11
-500.88569933397241
 21
-26.218266633428961
 31
0.0
1001
REVIT
1002
{
1070
     3
1000
773559
1002
}
  0
LINE
  5
313
  8
0
 10
-499.91312699045011
 20
-25.96302177670006
 30
0.0
 11
-487.34960432055999
 21
-22.66581250970329
 31
0.0
1001
REVIT
1002
{
1070
     3
1000
773559
1002
}
  0
LINE
  5
314
  8
0
 10
-696.26907257645007
 20
-106.9935866806143
 30
0.0
 11
-708.65116697031829
 21
-110.243181356682
 31
0.0
1001
REVIT
1002
{
1070
     3
1000
773559
1002
}
  0
ARC
  5
315
  8
0
 10
-187.006157061729
 20
88.689982366487484
 30
0.0
 40
2.0004260768712872
 50
195.921193196388
 51
279.92119319637118
1001
REVIT
1002
{
1070
     3
1000
773559
1002
}
  0
ARC
  5
316
  8
0
 10
-189.2557970521672
 20
96.576332265351056
 30
0.0
 40
2.0004260768706148
 50
98.790834158010796
 51
195.921193196388
1001
REVIT
1002
{
1070
     3
1000
773559
1002
}
  0
LINE
  5
317
  8
0
 10
-188.92984661164141
 20
88.141235608333417
 30
0.0
 11
-191.17948660207901
 21
96.027585507197216
 31
0.0
1001
REVIT
1002
{
1070
     3
1000
773559
1002
}
  0
LINE
  5
318
  8
0
 10
-189.56151765525391
 20
98.553259022181535
 30
0.0
 11
-44.672092218741078
 21
139.90013299299619
 31
0.0
1001
REVIT
1002
{
1070
     3
1000
773559
1002
}
  0
LINE
  5
319
  8
0
 10
-44.672092218741852
 20
139.90013299299599
 30
0.0
 11
-44.464111355878742
 21
139.9714267173639
 31
0.0
1001
REVIT
1002
{
1070
     3
1000
773559
1002
}
  0
LINE
  5
31A
  8
0
 10
-44.464111355871069
 20
139.971426717367
 30
0.0
 11
-1.1322961062186321
 21
157.40932574477799
 31
0.0
1001
REVIT
1002
{
1070
     3
1000
773559
1002
}
  0
LINE
  5
31B
  8
0
 10
-174.35114886979261
 20
90.231089655238165
 30
0.0
 11
-186.66149670818939
 21
86.719471333855424
 31
0.0
1001
REVIT
1002
{
1070
     3
1000
773559
1002
}
  0
LINE
  5
31C
  8
0
 10
-44.464111355871069
 20
139.971426717367
 30
0.0
 11
-1.1322961062186321
 21
157.40932574477799
 31
0.0
1001
REVIT
1002
{
1070
     3
1000
773559
1002
}
  0
LINE
  5
31D
  8
0
 10
-1.299920425255606
 20
162.40651516360811
 30
0.0
 11
-1.1322961062186889
 21
157.4093257447779
 31
0.0
1001
REVIT
1002
{
1070
     3
1000
773559
1002
}
  0
LINE
  5
31E
  8
0
 10
-185.9421042408502
 20
96.63789838287542
 30
0.0
 11
-155.0400411536138
 21
104.7479302153284
 31
0.0
1001
REVIT
1002
{
1070
     3
1000
773559
1002
}
  0
LINE
  5
31F
  8
0
 10
-154.06507472499641
 20
105.0038033830628
 30
0.0
 11
-139.37647830588239
 21
108.858723496221
 31
0.0
1001
REVIT
1002
{
1070
     3
1000
773559
1002
}
  0
LINE
  5
320
  8
0
 10
-173.4779211610936
 20
93.699036613092005
 30
0.0
 11
-184.41735222214561
 21
90.828058909029437
 31
0.0
1001
REVIT
1002
{
1070
     3
1000
773559
1002
}
  0
LINE
  5
321
  8
0
 10
-217.4516599088461
 20
71.470752969932761
 30
0.0
 11
-171.88784066035339
 21
88.692658161152181
 31
0.0
1001
REVIT
1002
{
1070
     3
1000
773559
1002
}
  0
LINE
  5
322
  8
0
 10
-217.66129215800021
 20
71.403829613683726
 30
0.0
 11
-217.4516599088461
 21
71.470752969932775
 31
0.0
1001
REVIT
1002
{
1070
     3
1000
773559
1002
}
  0
LINE
  5
323
  8
0
 10
-363.5244461437216
 20
33.10704972755186
 30
0.0
 11
-217.66129215800029
 21
71.403829613683641
 31
0.0
1001
REVIT
1002
{
1070
     3
1000
773559
1002
}
  0
LINE
  5
324
  8
0
 10
-363.11350336848272
 20
22.67474383509234
 30
0.0
 11
-365.19712577159328
 21
30.614075305177
 31
0.0
1001
REVIT
1002
{
1070
     3
1000
773559
1002
}
  0
LINE
  5
325
  8
0
 10
-355.59042439955999
 20
22.012837747154531
 30
0.0
 11
-360.8738549853478
 21
21.203863657765819
 31
0.0
1001
REVIT
1002
{
1070
     3
1000
773559
1002
}
  0
LINE
  5
326
  8
0
 10
-390.79588877811318
 20
5.95127009352555
 30
0.0
 11
-354.93261424113149
 21
19.506628799391809
 31
0.0
1001
REVIT
1002
{
1070
     3
1000
773559
1002
}
  0
LINE
  5
327
  8
0
 10
-537.01014091879449
 20
-32.421644875680791
 30
0.0
 11
-390.7958887781125
 21
5.9512700935257641
 31
0.0
1001
REVIT
1002
{
1070
     3
1000
773559
1002
}
  0
LINE
  5
328
  8
0
 10
-536.34533622380854
 20
-42.80259991656532
 30
0.0
 11
-538.43846116621739
 21
-34.86666961943321
 31
0.0
1001
REVIT
1002
{
1070
     3
1000
773559
1002
}
  0
LINE
  5
329
  8
0
 10
-521.56742131716453
 20
-40.788810473367697
 30
0.0
 11
-533.96047174663624
 21
-44.041280484886322
 31
0.0
1001
REVIT
1002
{
1070
     3
1000
773559
1002
}
  0
ARC
  5
32A
  8
0
 10
-185.12961373805811
 20
93.746130846694385
 30
0.0
 40
3.003741050829444
 50
105.693596895263
 51
283.71690602400338
1001
REVIT
1002
{
1070
     3
1000
773559
1002
}
  0
ARC
  5
32B
  8
0
 10
-172.8848638201585
 20
91.131695408030126
 30
0.0
 40
2.6349493112479041
 50
292.23363150144479
 51
103.0072019847123
1001
REVIT
1002
{
1070
     3
1000
773559
1002
}
  0
ARC
  5
32C
  8
0
 10
-363.26051261364961
 20
31.122325978077399
 30
0.0
 40
2.0021961117793392
 50
97.574892421257189
 51
194.70525145964231
1001
REVIT
1002
{
1070
     3
1000
773559
1002
}
  0
ARC
  5
32D
  8
0
 10
-361.17689021053837
 20
23.18299450799292
 30
0.0
 40
2.0021961117799791
 50
194.70525145964231
 51
278.70525145961727
1001
REVIT
1002
{
1070
     3
1000
773559
1002
}
  0
ARC
  5
32E
  8
0
 10
-355.42124611205207
 20
20.71780943198635
 30
0.0
 40
1.3060320172382529
 50
291.97084088019812
 51
97.442785854446427
1001
REVIT
1002
{
1070
     3
1000
773559
1002
}
  0
ARC
  5
32F
  8
0
 10
-536.50189024589486
 20
-34.358258033624367
 30
0.0
 40
2.0021961117790461
 50
104.7052514596238
 51
194.7100122096534
1001
REVIT
1002
{
1070
     3
1000
773559
1002
}
  0
ARC
  5
330
  8
0
 10
-534.46872241954088
 20
-42.104667326944018
 30
0.0
 40
2.0021961117791012
 50
200.40070197182871
 51
284.70525145976552
1001
REVIT
1002
{
1070
     3
1000
773559
1002
}
  0
LINE
  5
331
  8
0
 10
502.94470850818919
 20
-25.0133214296158
 30
0.0
 11
499.20306199190122
 21
-23.599079106970709
 31
0.0
1001
REVIT
1002
{
1070
     3
1000
211597
1002
}
  0
LINE
  5
332
  8
0
 10
493.14452727387982
 20
-46.69900674907683
 30
0.0
 11
501.27642062908632
 21
-25.184539280427991
 31
0.0
1001
REVIT
1002
{
1070
     3
1000
211597
1002
}
  0
LINE
  5
333
  8
0
 10
491.9697002980206
 20
-48.393049716889223
 30
0.0
 11
493.14452727387982
 21
-46.69900674907683
 31
0.0
1001
REVIT
1002
{
1070
     3
1000
211597
1002
}
  0
LINE
  5
334
  8
0
 10
492.20911564480821
 20
-46.345446168415677
 30
0.0
 11
491.9697002980206
 21
-48.393049716889223
 31
0.0
1001
REVIT
1002
{
1070
     3
1000
211597
1002
}
  0
LINE
  5
335
  8
0
 10
500.34100900001459
 20
-24.830978699766849
 30
0.0
 11
492.20911564480821
 21
-46.345446168415677
 31
0.0
1001
REVIT
1002
{
1070
     3
1000
211597
1002
}
  0
LINE
  5
336
  8
0
 10
499.21864269035979
 20
-24.40675424945734
 30
0.0
 11
500.34100900001459
 21
-24.830978699766838
 31
0.0
1001
REVIT
1002
{
1070
     3
1000
211597
1002
}
  0
LINE
  5
337
  8
0
 10
501.27642062908632
 20
-25.184539280427991
 30
0.0
 11
502.39878693874061
 21
-25.608763730737341
 31
0.0
1001
REVIT
1002
{
1070
     3
1000
211597
1002
}
  0
LINE
  5
338
  8
0
 10
502.94470850818919
 20
-25.0133214296158
 30
0.0
 11
502.39878693874061
 21
-25.608763730737341
 31
0.0
1001
REVIT
1002
{
1070
     3
1000
211597
1002
}
  0
LINE
  5
339
  8
0
 10
499.20306199190122
 20
-23.599079106970709
 30
0.0
 11
499.21864269035979
 21
-24.40675424945734
 31
0.0
1001
REVIT
1002
{
1070
     3
1000
211597
1002
}
  0
LINE
  5
33A
  8
0
 10
157.20890853269
 20
106.11951328849869
 30
0.0
 11
153.4981156303509
 21
107.6128371100328
 31
0.0
1001
REVIT
1002
{
1070
     3
1000
211597
1002
}
  0
LINE
  5
33B
  8
0
 10
146.95075100395789
 20
84.646676863943242
 30
0.0
 11
155.53736297777621
 21
105.9837360523853
 31
0.0
1001
REVIT
1002
{
1070
     3
1000
211597
1002
}
  0
LINE
  5
33C
  8
0
 10
145.7402399803978
 20
82.977945890466515
 30
0.0
 11
146.95075100395789
 21
84.646676863943242
 31
0.0
1001
REVIT
1002
{
1070
     3
1000
211597
1002
}
  0
LINE
  5
33D
  8
0
 10
146.02305277837351
 20
85.020007819326636
 30
0.0
 11
145.7402399803978
 21
82.977945890466515
 31
0.0
1001
REVIT
1002
{
1070
     3
1000
211597
1002
}
  0
LINE
  5
33E
  8
0
 10
154.60966475219169
 20
106.35706700776871
 30
0.0
 11
146.02305277837351
 21
85.020007819326636
 31
0.0
1001
REVIT
1002
{
1070
     3
1000
211597
1002
}
  0
LINE
  5
33F
  8
0
 10
153.49655347415921
 20
106.8050132099016
 30
0.0
 11
154.60966475219169
 21
106.35706700776871
 31
0.0
1001
REVIT
1002
{
1070
     3
1000
211597
1002
}
  0
LINE
  5
340
  8
0
 10
155.53736297777621
 20
105.9837360523853
 30
0.0
 11
156.65047425580829
 21
105.5357898502526
 31
0.0
1001
REVIT
1002
{
1070
     3
1000
211597
1002
}
  0
LINE
  5
341
  8
0
 10
157.20890853269
 20
106.11951328849869
 30
0.0
 11
156.65047425580829
 21
105.5357898502526
 31
0.0
1001
REVIT
1002
{
1070
     3
1000
211597
1002
}
  0
LINE
  5
342
  8
0
 10
153.4981156303509
 20
107.6128371100328
 30
0.0
 11
153.49655347415921
 21
106.8050132099016
 31
0.0
1001
REVIT
1002
{
1070
     3
1000
211597
1002
}
  0
ARC
  5
343
  8
0
 10
708.95393429821513
 20
-108.2658001505947
 30
0.0
 40
2.0004260768712872
 50
261.29474854037608
 51
345.29474854035772
1001
REVIT
1002
{
1070
     3
1000
773559
1002
}
  0
ARC
  5
344
  8
0
 10
711.03571468177165
 20
-100.3334874204684
 30
0.0
 40
2.000426076870601
 50
345.29474854035772
 51
82.425107578736203
1001
REVIT
1002
{
1070
     3
1000
773559
1002
}
  0
ARC
  5
345
  8
0
 10
520.82836685647794
 20
-40.377169076828316
 30
0.0
 40
2.6326198929475808
 50
76.992798015307699
 51
247.76636849855481
1001
REVIT
1002
{
1070
     3
1000
773559
1002
}
  0
ARC
  5
346
  8
0
 10
533.06229184335496
 20
-37.765044921242527
 30
0.0
 40
3.0010856034007412
 50
256.28309397600998
 51
74.306403104737015
1001
REVIT
1002
{
1070
     3
1000
773559
1002
}
  0
LINE
  5
347
  8
0
 10
710.88883539964615
 20
-108.77360150615419
 30
0.0
 11
712.97061578320188
 21
-100.8412887760277
 31
0.0
1001
REVIT
1002
{
1070
     3
1000
773559
1002
}
  0
LINE
  5
348
  8
0
 10
711.29941488227178
 20
-98.350518259518097
 30
0.0
 11
565.56521073964041
 21
-60.08759451609415
 31
0.0
1001
REVIT
1002
{
1070
     3
1000
773559
1002
}
  0
LINE
  5
349
  8
0
 10
565.56521073964097
 20
-60.087594516094313
 30
0.0
 11
565.35576381518854
 21
-60.020730323218658
 31
0.0
1001
REVIT
1002
{
1070
     3
1000
773559
1002
}
  0
LINE
  5
34A
  8
0
 10
565.3557638151824
 20
-60.020730323216362
 30
0.0
 11
519.83222511172858
 21
-42.81405010082414
 31
0.0
1001
REVIT
1002
{
1070
     3
1000
773559
1002
}
  0
LINE
  5
34B
  8
0
 10
521.42089990701425
 20
-37.812097521341911
 30
0.0
 11
532.35065999990138
 21
-40.680537146977677
 31
0.0
1001
REVIT
1002
{
1070
     3
1000
773559
1002
}
  0
LINE
  5
34C
  8
0
 10
533.87406406658147
 20
-34.875833842671611
 30
0.0
 11
500.88569933397559
 21
-26.218266633428961
 31
0.0
1001
REVIT
1002
{
1070
     3
1000
773559
1002
}
  0
LINE
  5
34D
  8
0
 10
499.91312699045352
 20
-25.96302177670006
 30
0.0
 11
487.3496043205634
 21
-22.665812509703301
 31
0.0
1001
REVIT
1002
{
1070
     3
1000
773559
1002
}
  0
LINE
  5
34E
  8
0
 10
696.26907257645337
 20
-106.9935866806143
 30
0.0
 11
708.6511669703217
 21
-110.243181356682
 31
0.0
1001
REVIT
1002
{
1070
     3
1000
773559
1002
}
  0
ARC
  5
34F
  8
0
 10
187.0061570617323
 20
88.689982366487456
 30
0.0
 40
2.0004260768712872
 50
260.07880680362882
 51
344.07880680361149
1001
REVIT
1002
{
1070
     3
1000
773559
1002
}
  0
ARC
  5
350
  8
0
 10
189.25579705217061
 20
96.576332265351056
 30
0.0
 40
2.0004260768706148
 50
344.07880680361149
 51
81.209165841989133
1001
REVIT
1002
{
1070
     3
1000
773559
1002
}
  0
LINE
  5
351
  8
0
 10
188.92984661164479
 20
88.141235608333403
 30
0.0
 11
191.17948660208239
 21
96.027585507197216
 31
0.0
1001
REVIT
1002
{
1070
     3
1000
773559
1002
}
  0
LINE
  5
352
  8
0
 10
189.56151765525729
 20
98.553259022181535
 30
0.0
 11
44.672092218744488
 21
139.90013299299619
 31
0.0
1001
REVIT
1002
{
1070
     3
1000
773559
1002
}
  0
LINE
  5
353
  8
0
 10
44.672092218745263
 20
139.90013299299599
 30
0.0
 11
44.464111355882153
 21
139.9714267173639
 31
0.0
1001
REVIT
1002
{
1070
     3
1000
773559
1002
}
  0
LINE
  5
354
  8
0
 10
44.464111355874479
 20
139.97142671736691
 30
0.0
 11
1.132296106222042
 21
157.40932574477799
 31
0.0
1001
REVIT
1002
{
1070
     3
1000
773559
1002
}
  0
LINE
  5
355
  8
0
 10
174.35114886979611
 20
90.231089655238165
 30
0.0
 11
186.6614967081928
 21
86.719471333855424
 31
0.0
1001
REVIT
1002
{
1070
     3
1000
773559
1002
}
  0
LINE
  5
356
  8
0
 10
44.464111355874479
 20
139.97142671736691
 30
0.0
 11
1.132296106222042
 21
157.40932574477799
 31
0.0
1001
REVIT
1002
{
1070
     3
1000
773559
1002
}
  0
LINE
  5
357
  8
0
 10
1.2999204252590171
 20
162.40651516360799
 30
0.0
 11
1.132296106222042
 21
157.4093257447779
 31
0.0
1001
REVIT
1002
{
1070
     3
1000
773559
1002
}
  0
LINE
  5
358
  8
0
 10
185.94210424085361
 20
96.637898382875377
 30
0.0
 11
155.0400411536171
 21
104.7479302153284
 31
0.0
1001
REVIT
1002
{
1070
     3
1000
773559
1002
}
  0
LINE
  5
359
  8
0
 10
154.0650747249997
 20
105.0038033830628
 30
0.0
 11
139.3764783058858
 21
108.858723496221
 31
0.0
1001
REVIT
1002
{
1070
     3
1000
773559
1002
}
  0
LINE
  5
35A
  8
0
 10
173.4779211610971
 20
93.699036613092005
 30
0.0
 11
184.41735222214899
 21
90.828058909029423
 31
0.0
1001
REVIT
1002
{
1070
     3
1000
773559
1002
}
  0
LINE
  5
35B
  8
0
 10
217.45165990884951
 20
71.470752969932747
 30
0.0
 11
171.8878406603568
 21
88.692658161152139
 31
0.0
1001
REVIT
1002
{
1070
     3
1000
773559
1002
}
  0
LINE
  5
35C
  8
0
 10
217.6612921580037
 20
71.403829613683712
 30
0.0
 11
217.45165990884951
 21
71.470752969932761
 31
0.0
1001
REVIT
1002
{
1070
     3
1000
773559
1002
}
  0
LINE
  5
35D
  8
0
 10
363.5244461437249
 20
33.10704972755186
 30
0.0
 11
217.6612921580037
 21
71.403829613683627
 31
0.0
1001
REVIT
1002
{
1070
     3
1000
773559
1002
}
  0
LINE
  5
35E
  8
0
 10
363.11350336848619
 20
22.674743835092318
 30
0.0
 11
365.19712577159669
 21
30.614075305176971
 31
0.0
1001
REVIT
1002
{
1070
     3
1000
773559
1002
}
  0
LINE
  5
35F
  8
0
 10
355.5904243995634
 20
22.01283774715451
 30
0.0
 11
360.87385498535122
 21
21.203863657765812
 31
0.0
1001
REVIT
1002
{
1070
     3
1000
773559
1002
}
  0
LINE
  5
360
  8
0
 10
390.79588877811659
 20
5.9512700935255429
 30
0.0
 11
354.93261424113501
 21
19.506628799391802
 31
0.0
1001
REVIT
1002
{
1070
     3
1000
773559
1002
}
  0
LINE
  5
361
  8
0
 10
537.01014091879802
 20
-32.421644875680791
 30
0.0
 11
390.79588877811591
 21
5.9512700935257561
 31
0.0
1001
REVIT
1002
{
1070
     3
1000
773559
1002
}
  0
LINE
  5
362
  8
0
 10
536.34533622381196
 20
-42.80259991656532
 30
0.0
 11
538.43846116622069
 21
-34.86666961943321
 31
0.0
1001
REVIT
1002
{
1070
     3
1000
773559
1002
}
  0
LINE
  5
363
  8
0
 10
521.56742131716794
 20
-40.788810473367697
 30
0.0
 11
533.96047174663966
 21
-44.041280484886322
 31
0.0
1001
REVIT
1002
{
1070
     3
1000
773559
1002
}
  0
ARC
  5
364
  8
0
 10
185.12961373806149
 20
93.746130846694385
 30
0.0
 40
3.003741050829444
 50
256.28309397599662
 51
74.306403104736916
1001
REVIT
1002
{
1070
     3
1000
773559
1002
}
  0
ARC
  5
365
  8
0
 10
172.88486382016191
 20
91.131695408030097
 30
0.0
 40
2.6349493112479041
 50
76.992798015287633
 51
247.76636849855501
1001
REVIT
1002
{
1070
     3
1000
773559
1002
}
  0
ARC
  5
366
  8
0
 10
363.26051261365302
 20
31.122325978077381
 30
0.0
 40
2.0021961117793392
 50
345.29474854035732
 51
82.425107578742811
1001
REVIT
1002
{
1070
     3
1000
773559
1002
}
  0
ARC
  5
367
  8
0
 10
361.17689021054179
 20
23.182994507992898
 30
0.0
 40
2.0021961117799778
 50
261.29474854037619
 51
345.29474854035732
1001
REVIT
1002
{
1070
     3
1000
773559
1002
}
  0
ARC
  5
368
  8
0
 10
355.4212461120556
 20
20.717809431986328
 30
0.0
 40
1.3060320172382529
 50
82.557214145553587
 51
248.0291591198019
1001
REVIT
1002
{
1070
     3
1000
773559
1002
}
  0
ARC
  5
369
  8
0
 10
536.50189024589838
 20
-34.358258033624367
 30
0.0
 40
2.0021961117790452
 50
345.28998779034617
 51
75.294748540376176
1001
REVIT
1002
{
1070
     3
1000
773559
1002
}
  0
ARC
  5
36A
  8
0
 10
534.46872241954429
 20
-42.104667326944018
 30
0.0
 40
2.0021961117790998
 50
255.29474854023451
 51
339.59929802817101
1001
REVIT
1002
{
1070
     3
1000
773559
1002
}
  0
LINE
  5
36B
  8
0
 10
0.0000000000000069
 20
177.71030392253479
 30
0.0
 11
133.96432665277459
 21
134.1826556004695
 31
0.0
1001
REVIT
1002
{
1070
     3
1000
224528
1002
}
  0
LINE
  5
36C
  8
0
 10
133.96432665277459
 20
134.1826556004695
 30
0.0
 11
137.92730022360189
 21
118.2880367624888
 31
0.0
1001
REVIT
1002
{
1070
     3
1000
224528
1002
}
  0
LINE
  5
36D
  8
0
 10
-0.0000000000000056
 20
177.71030392253479
 30
0.0
 11
-133.96432665277459
 21
134.1826556004695
 31
0.0
1001
REVIT
1002
{
1070
     3
1000
224528
1002
}
  0
LINE
  5
36E
  8
0
 10
-133.96432665277459
 20
134.1826556004695
 30
0.0
 11
-137.92730022360189
 21
118.2880367624888
 31
0.0
1001
REVIT
1002
{
1070
     3
1000
224528
1002
}
  0
LINE
  5
36F
  8
0
 10
0.0
 20
149.64386601453731
 30
0.0
 11
-23.492315519647651
 21
141.09336243139569
 31
0.0
1001
REVIT
1002
{
1070
     3
1000
735057
1002
}
  0
LINE
  5
370
  8
0
 10
-30.07016386514875
 20
138.69922142811609
 30
0.0
 11
-59.200635109512227
 21
128.0965969850202
 31
0.0
1001
REVIT
1002
{
1070
     3
1000
735057
1002
}
  0
LINE
  5
371
  8
0
 10
-65.778483455013514
 20
125.7024559817406
 30
0.0
 11
-84.572335870731806
 21
118.8620531152271
 31
0.0
1001
REVIT
1002
{
1070
     3
1000
735057
1002
}
  0
LINE
  5
372
  8
0
 10
-84.572335870731777
 20
118.8620531152272
 30
0.0
 11
-78.144459773866387
 21
126.5224975464169
 31
0.0
1001
REVIT
1002
{
1070
     3
1000
735057
1002
}
  0
LINE
  5
373
  8
0
 10
0.0
 20
149.64386601453731
 30
0.0
 11
23.492315519647629
 21
141.0933624313956
 31
0.0
1001
REVIT
1002
{
1070
     3
1000
735057
1002
}
  0
LINE
  5
374
  8
0
 10
65.778483455013472
 20
125.7024559817405
 30
0.0
 11
84.572335870731735
 21
118.862053115227
 31
0.0
1001
REVIT
1002
{
1070
     3
1000
735057
1002
}
  0
LINE
  5
375
  8
0
 10
84.572335870731735
 20
118.862053115227
 30
0.0
 11
78.144459773866359
 21
126.5224975464168
 31
0.0
1001
REVIT
1002
{
1070
     3
1000
735057
1002
}
  0
LINE
  5
376
  8
0
 10
-65.778483455013514
 20
125.7024559817406
 30
0.0
 11
-59.35060735814821
 21
133.3629004129302
 31
0.0
1001
REVIT
1002
{
1070
     3
1000
735057
1002
}
  0
LINE
  5
377
  8
0
 10
-59.350607358148217
 20
133.3629004129302
 30
0.0
 11
-59.200635109512227
 21
128.0965969850202
 31
0.0
1001
REVIT
1002
{
1070
     3
1000
735057
1002
}
  0
LINE
  5
378
  8
0
 10
-30.07016386514875
 20
138.69922142811609
 30
0.0
 11
-23.642287768283619
 21
146.35966585930549
 31
0.0
1001
REVIT
1002
{
1070
     3
1000
735057
1002
}
  0
LINE
  5
379
  8
0
 10
-23.642287768283619
 20
146.35966585930549
 30
0.0
 11
-23.49231551964764
 21
141.09336243139569
 31
0.0
1001
REVIT
1002
{
1070
     3
1000
735057
1002
}
  0
LINE
  5
37A
  8
0
 10
30.070163865148729
 20
138.699221428116
 30
0.0
 11
59.200635109512199
 21
128.09659698502011
 31
0.0
1001
REVIT
1002
{
1070
     3
1000
735057
1002
}
  0
LINE
  5
37B
  8
0
 10
65.778483455013472
 20
125.7024559817405
 30
0.0
 11
59.350607358148189
 21
133.36290041293009
 31
0.0
1001
REVIT
1002
{
1070
     3
1000
735057
1002
}
  0
LINE
  5
37C
  8
0
 10
59.350607358148189
 20
133.36290041293009
 30
0.0
 11
59.200635109512199
 21
128.09659698502011
 31
0.0
1001
REVIT
1002
{
1070
     3
1000
735057
1002
}
  0
LINE
  5
37D
  8
0
 10
30.070163865148729
 20
138.699221428116
 30
0.0
 11
23.642287768283609
 21
146.35966585930549
 31
0.0
1001
REVIT
1002
{
1070
     3
1000
735057
1002
}
  0
LINE
  5
37E
  8
0
 10
23.642287768283609
 20
146.35966585930549
 30
0.0
 11
23.492315519647619
 21
141.0933624313956
 31
0.0
1001
REVIT
1002
{
1070
     3
1000
735057
1002
}
  0
LINE
  5
37F
  8
0
 10
-529.72003662195596
 20
-69.442015259775559
 30
0.0
 11
-0.0000000000027187
 21
123.36031056477449
 31
0.0
  0
LINE
  5
380
  8
0
 10
-0.0000000000027187
 20
123.36031056477449
 30
0.0
 11
-5.1303021498820822
 21
137.4556998765654
 31
0.0
  0
LINE
  5
381
  8
0
 10
-5.1303021498820822
 20
137.4556998765654
 30
0.0
 11
-146.42844708435419
 21
86.027380963450696
 31
0.0
  0
LINE
  5
382
  8
0
 10
-147.3686682187035
 20
85.685168456919996
 30
0.0
 11
-494.37512644782799
 21
-40.614853436460088
 31
0.0
  0
LINE
  5
383
  8
0
 10
-495.31489025975623
 20
-40.956899491242091
 30
0.0
 11
-534.85033877183525
 21
-55.346625947984698
 31
0.0
  0
LINE
  5
384
  8
0
 10
-2.5651510749425679
 20
130.40800522067039
 30
0.0
 11
-492.04510741463889
 21
-47.74812915667431
 31
0.0
1001
REVIT
1002
{
1070
     3
1000
456193
1002
}
  0
LINE
  5
385
  8
0
 10
-492.3420124909423
 20
-47.856193766851163
 30
0.0
 11
-532.28518769689583
 21
-62.394320603879663
 31
0.0
1001
REVIT
1002
{
1070
     3
1000
456193
1002
}
  0
LINE
  5
386
  8
0
 10
-1.710100716629154
 20
128.0587736687047
 30
0.0
 11
-531.43013733858231
 21
-64.743552155845322
 31
0.0
1001
REVIT
1002
{
1070
     3
1000
456193
1002
}
  0
LINE
  5
387
  8
0
 10
-3.4202014332555049
 20
132.7572367726348
 30
0.0
 11
-492.60718961571911
 21
-45.292265915889601
 31
0.0
1001
REVIT
1002
{
1070
     3
1000
456193
1002
}
  0
LINE
  5
388
  8
0
 10
-493.5469534276474
 20
-45.634311970671568
 30
0.0
 11
-533.1402380552081
 21
-60.045089051915078
 31
0.0
1001
REVIT
1002
{
1070
     3
1000
456193
1002
}
  0
LINE
  5
389
  8
0
 10
-4.2752517915687234
 20
135.10646832459989
 30
0.0
 11
-145.82455357241841
 21
83.586735795271736
 31
0.0
1001
REVIT
1002
{
1070
     3
1000
456193
1002
}
  0
LINE
  5
38A
  8
0
 10
-146.10722757093311
 20
83.483850873811505
 30
0.0
 11
-493.49115803177358
 21
-42.953559676175047
 31
0.0
1001
REVIT
1002
{
1070
     3
1000
456193
1002
}
  0
LINE
  5
38B
  8
0
 10
-494.4309218437017
 20
-43.295605730956993
 30
0.0
 11
-533.99528841352128
 21
-57.695857499949959
 31
0.0
1001
REVIT
1002
{
1070
     3
1000
456193
1002
}
  0
LINE
  5
38C
  8
0
 10
-0.8550503583159361
 20
125.7095421167396
 30
0.0
 11
-530.57508698026902
 21
-67.092783707810412
 31
0.0
1001
REVIT
1002
{
1070
     3
1000
456193
1002
}
  0
LINE
  5
38D
  8
0
 10
534.63962253424404
 20
-55.269931509625017
 30
0.0
 11
495.31489025975918
 21
-40.956899491242631
 31
0.0
  0
LINE
  5
38E
  8
0
 10
494.37512644783089
 20
-40.614853436460614
 30
0.0
 11
147.36866821870811
 21
85.685168456923705
 31
0.0
  0
LINE
  5
38F
  8
0
 10
146.42844708435911
 20
86.027380963454334
 30
0.0
 11
5.1303021498850399
 21
137.45569987657171
 31
0.0
  0
LINE
  5
390
  8
0
 10
5.130302149885039
 20
137.45569987657171
 30
0.0
 11
0.0000000000055027
 21
123.3603105647809
 31
0.0
  0
LINE
  5
391
  8
0
 10
0.0000000000055036
 20
123.3603105647809
 30
0.0
 11
529.50932038436451
 21
-69.365320821415821
 31
0.0
  0
LINE
  5
392
  8
0
 10
2.5651510749454389
 20
130.4080052206767
 30
0.0
 11
492.0451074146419
 21
-47.748129156674899
 31
0.0
1001
REVIT
1002
{
1070
     3
1000
456193
1002
}
  0
LINE
  5
393
  8
0
 10
492.34201249094502
 20
-47.856193766851639
 30
0.0
 11
532.0744714593045
 21
-62.317626165519947
 31
0.0
1001
REVIT
1002
{
1070
     3
1000
456193
1002
}
  0
LINE
  5
394
  8
0
 10
1.7101007166319959
 20
128.0587736687111
 30
0.0
 11
531.21942110099087
 21
-64.666857717485584
 31
0.0
1001
REVIT
1002
{
1070
     3
1000
456193
1002
}
  0
LINE
  5
395
  8
0
 10
3.4202014332584052
 20
132.75723677264111
 30
0.0
 11
492.60718961572218
 21
-45.292265915890169
 31
0.0
1001
REVIT
1002
{
1070
     3
1000
456193
1002
}
  0
LINE
  5
396
  8
0
 10
493.54695342765058
 20
-45.634311970672186
 30
0.0
 11
532.92952181761666
 21
-59.968394613555382
 31
0.0
1001
REVIT
1002
{
1070
     3
1000
456193
1002
}
  0
LINE
  5
397
  8
0
 10
4.2752517915716526
 20
135.1064683246062
 30
0.0
 11
145.82455357242219
 21
83.586735795275743
 31
0.0
1001
REVIT
1002
{
1070
     3
1000
456193
1002
}
  0
LINE
  5
398
  8
0
 10
146.1072275709387
 20
83.483850873814845
 30
0.0
 11
493.49115803177648
 21
-42.953559676175608
 31
0.0
1001
REVIT
1002
{
1070
     3
1000
456193
1002
}
  0
LINE
  5
399
  8
0
 10
494.43092184370482
 20
-43.295605730957639
 30
0.0
 11
533.78457217592995
 21
-57.619163061590292
 31
0.0
1001
REVIT
1002
{
1070
     3
1000
456193
1002
}
  0
LINE
  5
39A
  8
0
 10
0.8550503583187495
 20
125.70954211674599
 30
0.0
 11
530.36437074267758
 21
-67.016089269450674
 31
0.0
1001
REVIT
1002
{
1070
     3
1000
456193
1002
}
  0
LINE
  5
39B
  8
0
  6
DASH
 10
0.0
 20
144.64386601453739
 30
0.0
 11
-148.29615172843631
 21
90.668480929162214
 31
0.0
1001
REVIT
1002
{
1070
     3
1000
217411
1002
}
  0
LINE
  5
39C
  8
0
  6
DASH
 10
-149.23637286278529
 20
90.326268422631173
 30
0.0
 11
-152.2738242114263
 21
89.220726543694155
 31
0.0
1001
REVIT
1002
{
1070
     3
1000
217411
1002
}
  0
LINE
  5
39D
  8
0
  6
DASH
 10
538.12857768950391
 20
-51.218918472450483
 30
0.0
 11
497.0828270918737
 21
-36.2794870117988
 31
0.0
1001
REVIT
1002
{
1070
     3
1000
217411
1002
}
  0
LINE
  5
39E
  8
0
  6
DASH
 10
496.14306327994558
 20
-35.937440957016427
 30
0.0
 11
149.23637286278651
 21
90.326268422630847
 31
0.0
1001
REVIT
1002
{
1070
     3
1000
217411
1002
}
  0
LINE
  5
39F
  8
0
  6
DASH
 10
148.29615172843759
 20
90.668480929161859
 30
0.0
 11
0.00000000000216
 21
144.6438660145372
 31
0.0
1001
REVIT
1002
{
1070
     3
1000
217411
1002
}
  0
LINE
  5
3A0
  8
0
  6
DASH
 10
-5.8143424366106133
 20
139.3350851183518
 30
0.0
 11
-147.1755289420237
 21
87.883820949828362
 31
0.0
1001
REVIT
1002
{
1070
     3
1000
217411
1002
}
  0
LINE
  5
3A1
  8
0
  6
DASH
 10
-148.11575007637271
 20
87.541608443297307
 30
0.0
 11
-495.0823011806774
 21
-38.743888444672571
 31
0.0
1001
REVIT
1002
{
1070
     3
1000
217411
1002
}
  0
LINE
  5
3A2
  8
0
  6
DASH
 10
-496.02206499260552
 20
-39.085934499454943
 30
0.0
 11
-529.17852865272459
 21
-51.15390034526726
 31
0.0
1001
REVIT
1002
{
1070
     3
1000
217411
1002
}
  0
VIEWPORT
  5
2D8
 67
     1
  8
0
  6
CONTINUOUS
 10
128.5
 20
97.5
 30
0.0
 40
582.84205479452055
 41
222.18000000000001
 68
     1
 69
     1
1001
ACAD
1000
MVIEW
1002
{
1070
    16
1010
0.0
1020
0.0
1030
0.0
1010
0.0
1020
0.0
1030
1.0
1040
0.0
1040
222.18000000000001
1040
128.5
1040
97.5
1040
50.0
1040
0.0
1040
0.0
1070
     0
1070
   100
1070
     1
1070
     1
1070
     0
1070
     0
1070
     0
1070
     0
1040
0.0
1040
0.0
1040
0.0
1040
10.0
1040
10.0
1040
10.0
1040
10.0
1070
     0
1002
{
1002
}
1002
}
  0
VIEWPORT
  5
2DC
 67
     1
  8
0
  6
CONTINUOUS
 10
128.5
 20
97.5
 30
0.0
 40
205.59999999999999
 41
156.0
 68
     2
 69
     2
1001
ACAD
1000
MVIEW
1002
{
1070
    16
1010
0.0
1020
0.0
1030
0.0
1010
0.0
1020
0.0
1030
1.0
1040
0.0
1040
1092.3490346125261
1040
0.0000000000017053
1040
101.57160856237429
1040
50.0
1040
0.0
1040
0.0
1070
     0
1070
  1000
1070
     1
1070
     1
1070
     0
1070
     0
1070
     0
1070
     0
1040
0.0
1040
0.0
1040
0.0
1040
1.0
1040
1.0
1040
0.0
1040
0.0
1070
     0
1002
{
1002
}
1002
}
  0
ENDSEC
  0
EOF
