  0
SECTION
  2
HEADER
  9
$ACADVER
  1
AC1009
  9
$INSBASE
 10
0.0
 20
0.0
 30
0.0
  9
$EXTMIN
 10
-713.47856364069435
 20
-141.2635891837887
 30
0.0
  9
$EXTMAX
 10
713.47856364069764
 20
330.53321759312013
 30
0.0
  9
$LIMMIN
 10
0.0
 20
0.0
  9
$LIMMAX
 10
12.0
 20
9.0
  9
$ORTHOMODE
 70
     0
  9
$REGENMODE
 70
     1
  9
$FILLMODE
 70
     1
  9
$QTEXTMODE
 70
     0
  9
$MIRRTEXT
 70
     0
  9
$DRAGMODE
 70
     2
  9
$LTSCALE
 40
1.0
  9
$OSMODE
 70
     0
  9
$ATTMODE
 70
     1
  9
$TEXTSIZE
 40
0.2
  9
$TRACEWID
 40
0.05
  9
$TEXTSTYLE
  7
STANDARD
  9
$CLAYER
  8
0
  9
$CELTYPE
  6
BYLAYER
  9
$CECOLOR
 62
   256
  9
$DIMSCALE
 40
1.0
  9
$DIMASZ
 40
0.18
  9
$DIMEXO
 40
0.0625
  9
$DIMDLI
 40
0.38
  9
$DIMRND
 40
0.0
  9
$DIMDLE
 40
0.0
  9
$DIMEXE
 40
0.18
  9
$DIMTP
 40
0.0
  9
$DIMTM
 40
0.0
  9
$DIMTXT
 40
0.18
  9
$DIMCEN
 40
0.09
  9
$DIMTSZ
 40
0.0
  9
$DIMTOL
 70
     0
  9
$DIMLIM
 70
     0
  9
$DIMTIH
 70
     1
  9
$DIMTOH
 70
     1
  9
$DIMSE1
 70
     0
  9
$DIMSE2
 70
     0
  9
$DIMTAD
 70
     0
  9
$DIMZIN
 70
     0
  9
$DIMBLK
  1

  9
$DIMASO
 70
     1
  9
$DIMSHO
 70
     1
  9
$DIMPOST
  1

  9
$DIMAPOST
  1

  9
$DIMALT
 70
     0
  9
$DIMALTD
 70
     2
  9
$DIMALTF
 40
25.399999999999999
  9
$DIMLFAC
 40
1.0
  9
$DIMTOFL
 70
     0
  9
$DIMTVP
 40
0.0
  9
$DIMTIX
 70
     0
  9
$DIMSOXD
 70
     0
  9
$DIMSAH
 70
     0
  9
$DIMBLK1
  1

  9
$DIMBLK2
  1

  9
$DIMSTYLE
  2
STANDARD
  9
$DIMCLRD
 70
     0
  9
$DIMCLRE
 70
     0
  9
$DIMCLRT
 70
     0
  9
$DIMTFAC
 40
1.0
  9
$DIMGAP
 40
0.09
  9
$LUNITS
 70
     2
  9
$LUPREC
 70
     4
  9
$SKETCHINC
 40
0.1
  9
$FILLETRAD
 40
0.0
  9
$AUNITS
 70
     0
  9
$AUPREC
 70
     0
  9
$MENU
  1
.
  9
$ELEVATION
 40
0.0
  9
$PELEVATION
 40
0.0
  9
$THICKNESS
 40
0.0
  9
$LIMCHECK
 70
     0
  9
$BLIPMODE
 70
     0
  9
$CHAMFERA
 40
0.0
  9
$CHAMFERB
 40
0.0
  9
$SKPOLY
 70
     0
  9
$TDCREATE
 40
2458206.6263425932
  9
$TDUPDATE
 40
2458206.6479531019
  9
$TDINDWG
 40
0.0001004051
  9
$TDUSRTIMER
 40
0.0001004051
  9
$USRTIMER
 70
     1
  9
$ANGBASE
 50
0.0
  9
$ANGDIR
 70
     0
  9
$PDMODE
 70
     0
  9
$PDSIZE
 40
0.0
  9
$PLINEWID
 40
0.0
  9
$COORDS
 70
     2
  9
$SPLFRAME
 70
     0
  9
$SPLINETYPE
 70
     6
  9
$SPLINESEGS
 70
     8
  9
$ATTDIA
 70
     1
  9
$ATTREQ
 70
     0
  9
$HANDLING
 70
     1
  9
$HANDSEED
  5
458
  9
$SURFTAB1
 70
     6
  9
$SURFTAB2
 70
     6
  9
$SURFTYPE
 70
     6
  9
$SURFU
 70
     6
  9
$SURFV
 70
     6
  9
$UCSNAME
  2

  9
$UCSORG
 10
0.0
 20
0.0
 30
0.0
  9
$UCSXDIR
 10
1.0
 20
0.0
 30
0.0
  9
$UCSYDIR
 10
0.0
 20
1.0
 30
0.0
  9
$PUCSNAME
  2

  9
$PUCSORG
 10
0.0
 20
0.0
 30
0.0
  9
$PUCSXDIR
 10
1.0
 20
0.0
 30
0.0
  9
$PUCSYDIR
 10
0.0
 20
1.0
 30
0.0
  9
$USERI1
 70
     0
  9
$USERI2
 70
     0
  9
$USERI3
 70
     0
  9
$USERI4
 70
     0
  9
$USERI5
 70
     0
  9
$USERR1
 40
0.0
  9
$USERR2
 40
0.0
  9
$USERR3
 40
0.0
  9
$USERR4
 40
0.0
  9
$USERR5
 40
0.0
  9
$WORLDVIEW
 70
     1
  9
$SHADEDGE
 70
     3
  9
$SHADEDIF
 70
    70
  9
$TILEMODE
 70
     1
  9
$MAXACTVP
 70
    64
  9
$PLIMCHECK
 70
     0
  9
$PEXTMIN
 10
25.699999999999989
 20
19.5
 30
0.0
  9
$PEXTMAX
 10
231.30000000000001
 20
175.5
 30
0.0
  9
$PLIMMIN
 10
-20.0
 20
-7.5
  9
$PLIMMAX
 10
277.0
 20
202.5
  9
$UNITMODE
 70
     0
  9
$VISRETAIN
 70
     1
  9
$PLINEGEN
 70
     0
  9
$PSLTSCALE
 70
     1
  0
ENDSEC
  0
SECTION
  2
TABLES
  0
TABLE
  2
VPORT
 70
     1
  0
VPORT
  2
*ACTIVE
 70
     0
 10
0.0
 20
0.0
 11
1.0
 21
1.0
 12
0.0000000000017053
 22
115.4906349443184
 13
0.0
 23
0.0
 14
1.0
 24
1.0
 15
0.0
 25
0.0
 16
0.0
 26
0.0
 36
1.0
 17
0.0
 27
0.0
 37
0.0
 40
513.50844825621436
 41
2.7949852507374628
 42
50.0
 43
0.0
 44
0.0
 50
0.0
 51
0.0
 71
     0
 72
  1000
 73
     1
 74
     1
 75
     0
 76
     0
 77
     0
 78
     0
  0
ENDTAB
  0
TABLE
  2
LTYPE
 70
     2
  0
LTYPE
  2
CONTINUOUS
 70
     0
  3
Solid line
 72
    65
 73
     0
 40
0.0
  0
LTYPE
  2
DASH
 70
     0
  3

 72
    65
 73
     2
 40
6.3499999999999996
 49
3.1749999999999998
 49
-3.1749999999999998
  0
ENDTAB
  0
TABLE
  2
LAYER
 70
     6
  0
LAYER
  2
0
 70
     0
 62
     7
  6
CONTINUOUS
  0
ENDTAB
  0
TABLE
  2
STYLE
 70
     8
  0
STYLE
  2
STANDARD
 70
     0
 40
0.0
 41
1.0
 50
0.0
 71
     0
 42
0.2
  3
txt
  4

  0
STYLE
  2
ARIAL
 70
     0
 40
12.5
 41
1.0
 50
0.0
 71
     0
 42
0.2
  3
txt
  4

  0
ENDTAB
  0
TABLE
  2
VIEW
 70
     1
  0
ENDTAB
  0
TABLE
  2
UCS
 70
     0
  0
ENDTAB
  0
TABLE
  2
APPID
 70
     6
  0
APPID
  2
ACAD
 70
     0
  0
APPID
  2
ACADANNOTATIVE
 70
     0
  0
APPID
  2
REVIT
 70
     0
  0
APPID
  2
ACAD_PSEXT
 70
     0
  0
APPID
  2
ACAD_NAV_VCDISPLAY
 70
     0
  0
APPID
  2
ACAD_MLEADERVER
 70
     0
  0
ENDTAB
  0
TABLE
  2
DIMSTYLE
 70
     2
  0
DIMSTYLE
  2
STANDARD
 70
     0
  3

  4

  5

  6

  7

 40
1.0
 41
0.18
 42
0.0625
 43
0.38
 44
0.18
 45
0.0
 46
0.0
 47
0.0
 48
0.0
140
0.18
141
0.09
142
0.0
143
25.399999999999999
144
1.0
145
0.0
146
1.0
147
0.09
 71
     0
 72
     0
 73
     1
 74
     1
 75
     0
 76
     0
 77
     0
 78
     0
170
     0
171
     2
172
     0
173
     0
174
     0
175
     0
176
     0
177
     0
178
     0
  0
ENDTAB
  0
ENDSEC
  0
SECTION
  2
BLOCKS
  0
BLOCK
  8
0
  2
$MODEL_SPACE
 70
     0
 10
0.0
 20
0.0
 30
0.0
  3
$MODEL_SPACE
  1

  0
ENDBLK
  5
72
  8
0
  0
BLOCK
 67
     1
  8
0
  2
$PAPER_SPACE
 70
     0
 10
0.0
 20
0.0
 30
0.0
  3
$PAPER_SPACE
  1

  0
ENDBLK
  5
76
 67
     1
  8
0
  0
BLOCK
  8
0
  2
*U19
 70
     1
 10
0.0
 20
0.0
 30
0.0
  3
*U19
  1

  0
SOLID
  5
36C
  8
0
  6
CONTINUOUS
 10
198.7279316067515
 20
76.428764924181664
 30
0.0
 11
197.9553891208142
 21
76.306406214919562
 31
0.0
 12
199.5004740926889
 22
76.306406214919562
 32
0.0
 13
199.5004740926889
 23
76.306406214919562
 33
0.0
210
0.0
220
0.0
230
1.0
  0
SOLID
  5
36D
  8
0
  6
CONTINUOUS
 10
197.9553891208142
 20
76.306406214919562
 30
0.0
 11
197.25846847602031
 21
75.951307410119043
 31
0.0
 12
200.19739473748271
 22
75.951307410119043
 32
0.0
 13
200.19739473748271
 23
75.951307410119043
 33
0.0
210
0.0
220
0.0
230
1.0
  0
SOLID
  5
36E
  8
0
  6
CONTINUOUS
 10
-197.9553891208142
 20
76.306406214919562
 30
0.0
 11
-199.5004740926889
 21
76.306406214919562
 31
0.0
 12
-200.19739473748271
 22
75.951307410119043
 32
0.0
 13
-200.19739473748271
 23
75.951307410119043
 33
0.0
210
0.0
220
0.0
230
-1.0
  0
SOLID
  5
36F
  8
0
  6
CONTINUOUS
 10
197.25846847602031
 20
75.951307410119043
 30
0.0
 11
196.7053891208142
 21
75.398228054912863
 31
0.0
 12
200.75047409268899
 22
75.398228054912863
 32
0.0
 13
200.75047409268899
 23
75.398228054912863
 33
0.0
  0
SOLID
  5
370
  8
0
  6
CONTINUOUS
 10
-197.25846847602031
 20
75.951307410119043
 30
0.0
 11
-200.19739473748271
 21
75.951307410119043
 31
0.0
 12
-200.75047409268899
 22
75.398228054912863
 32
0.0
 13
-200.75047409268899
 23
75.398228054912863
 33
0.0
210
0.0
220
0.0
230
-1.0
  0
SOLID
  5
371
  8
0
  6
CONTINUOUS
 10
196.7053891208142
 20
75.398228054912863
 30
0.0
 11
196.35029031601371
 21
74.701307410119043
 31
0.0
 12
201.1055728974894
 22
74.701307410119043
 32
0.0
 13
201.1055728974894
 23
74.701307410119043
 33
0.0
210
0.0
220
0.0
230
1.0
  0
SOLID
  5
372
  8
0
  6
CONTINUOUS
 10
-196.7053891208142
 20
75.398228054912863
 30
0.0
 11
-200.75047409268899
 21
75.398228054912863
 31
0.0
 12
-201.1055728974894
 22
74.701307410119043
 32
0.0
 13
-201.1055728974894
 23
74.701307410119043
 33
0.0
210
0.0
220
0.0
230
-1.0
  0
SOLID
  5
373
  8
0
  6
CONTINUOUS
 10
196.35029031601371
 20
74.701307410119043
 30
0.0
 11
196.2279316067515
 21
73.928764924181664
 31
0.0
 12
201.22793160675161
 22
73.928764924181664
 32
0.0
 13
201.22793160675161
 23
73.928764924181664
 33
0.0
210
0.0
220
0.0
230
1.0
  0
SOLID
  5
374
  8
0
  6
CONTINUOUS
 10
-196.35029031601371
 20
74.701307410119043
 30
0.0
 11
-201.1055728974894
 21
74.701307410119043
 31
0.0
 12
-201.22793160675161
 22
73.928764924181664
 32
0.0
 13
-201.22793160675161
 23
73.928764924181664
 33
0.0
210
0.0
220
0.0
230
-1.0
  0
SOLID
  5
375
  8
0
  6
CONTINUOUS
 10
196.2279316067515
 20
73.928764924181664
 30
0.0
 11
196.35029031601371
 21
73.156222438244313
 31
0.0
 12
201.1055728974894
 22
73.156222438244313
 32
0.0
 13
201.1055728974894
 23
73.156222438244313
 33
0.0
210
0.0
220
0.0
230
1.0
  0
SOLID
  5
376
  8
0
  6
CONTINUOUS
 10
-196.2279316067515
 20
73.928764924181664
 30
0.0
 11
-201.22793160675161
 21
73.928764924181664
 31
0.0
 12
-201.1055728974894
 22
73.156222438244313
 32
0.0
 13
-201.1055728974894
 23
73.156222438244313
 33
0.0
210
0.0
220
0.0
230
-1.0
  0
SOLID
  5
377
  8
0
  6
CONTINUOUS
 10
196.35029031601371
 20
73.156222438244313
 30
0.0
 11
196.7053891208142
 21
72.459301793450493
 31
0.0
 12
200.75047409268899
 22
72.459301793450493
 32
0.0
 13
200.75047409268899
 23
72.459301793450493
 33
0.0
210
0.0
220
0.0
230
1.0
  0
SOLID
  5
378
  8
0
  6
CONTINUOUS
 10
-196.35029031601371
 20
73.156222438244313
 30
0.0
 11
-201.1055728974894
 21
73.156222438244313
 31
0.0
 12
-200.75047409268899
 22
72.459301793450493
 32
0.0
 13
-200.75047409268899
 23
72.459301793450493
 33
0.0
210
0.0
220
0.0
230
-1.0
  0
SOLID
  5
379
  8
0
  6
CONTINUOUS
 10
196.7053891208142
 20
72.459301793450493
 30
0.0
 11
197.25846847602031
 21
71.906222438244313
 31
0.0
 12
200.19739473748271
 22
71.906222438244313
 32
0.0
 13
200.19739473748271
 23
71.906222438244313
 33
0.0
210
0.0
220
0.0
230
1.0
  0
SOLID
  5
37A
  8
0
  6
CONTINUOUS
 10
-196.7053891208142
 20
72.459301793450493
 30
0.0
 11
-200.75047409268899
 21
72.459301793450493
 31
0.0
 12
-200.19739473748271
 22
71.906222438244313
 32
0.0
 13
-200.19739473748271
 23
71.906222438244313
 33
0.0
210
0.0
220
0.0
230
-1.0
  0
SOLID
  5
37B
  8
0
  6
CONTINUOUS
 10
-197.9553891208142
 20
71.551123633443794
 30
0.0
 11
-199.5004740926889
 21
71.551123633443794
 31
0.0
 12
-198.7279316067515
 22
71.428764924181664
 32
0.0
 13
-198.7279316067515
 23
71.428764924181664
 33
0.0
210
0.0
220
0.0
230
-1.0
  0
SOLID
  5
37C
  8
0
  6
CONTINUOUS
 10
197.25846847602031
 20
71.906222438244313
 30
0.0
 11
197.9553891208142
 21
71.551123633443794
 31
0.0
 12
199.5004740926889
 22
71.551123633443794
 32
0.0
 13
199.5004740926889
 23
71.551123633443794
 33
0.0
210
0.0
220
0.0
230
1.0
  0
SOLID
  5
37D
  8
0
  6
CONTINUOUS
 10
-197.25846847602031
 20
71.906222438244313
 30
0.0
 11
-200.19739473748271
 21
71.906222438244313
 31
0.0
 12
-199.5004740926889
 22
71.551123633443794
 32
0.0
 13
-199.5004740926889
 23
71.551123633443794
 33
0.0
210
0.0
220
0.0
230
-1.0
  0
LINE
  5
37E
  8
0
  6
CONTINUOUS
 10
198.7279316067515
 20
76.428764924181664
 30
0.0
 11
197.9553891208142
 21
76.306406214919562
 31
0.0
  0
LINE
  5
37F
  8
0
  6
CONTINUOUS
 10
199.5004740926889
 20
76.306406214919562
 30
0.0
 11
198.7279316067515
 21
76.428764924181664
 31
0.0
  0
LINE
  5
380
  8
0
  6
CONTINUOUS
 10
197.9553891208142
 20
76.306406214919562
 30
0.0
 11
197.25846847602031
 21
75.951307410119043
 31
0.0
  0
LINE
  5
381
  8
0
  6
CONTINUOUS
 10
199.5004740926889
 20
76.306406214919562
 30
0.0
 11
200.19739473748271
 21
75.951307410119043
 31
0.0
  0
LINE
  5
382
  8
0
  6
CONTINUOUS
 10
197.25846847602031
 20
75.951307410119043
 30
0.0
 11
196.7053891208142
 21
75.398228054912863
 31
0.0
  0
LINE
  5
383
  8
0
  6
CONTINUOUS
 10
200.19739473748271
 20
75.951307410119043
 30
0.0
 11
200.75047409268899
 21
75.398228054912863
 31
0.0
  0
LINE
  5
384
  8
0
  6
CONTINUOUS
 10
196.7053891208142
 20
75.398228054912863
 30
0.0
 11
196.35029031601371
 21
74.701307410119043
 31
0.0
  0
LINE
  5
385
  8
0
  6
CONTINUOUS
 10
200.75047409268899
 20
75.398228054912863
 30
0.0
 11
201.1055728974894
 21
74.701307410119043
 31
0.0
  0
LINE
  5
386
  8
0
  6
CONTINUOUS
 10
196.35029031601371
 20
74.701307410119043
 30
0.0
 11
196.2279316067515
 21
73.928764924181664
 31
0.0
  0
LINE
  5
387
  8
0
  6
CONTINUOUS
 10
201.1055728974894
 20
74.701307410119043
 30
0.0
 11
201.22793160675161
 21
73.928764924181664
 31
0.0
  0
LINE
  5
388
  8
0
  6
CONTINUOUS
 10
196.2279316067515
 20
73.928764924181664
 30
0.0
 11
196.35029031601371
 21
73.156222438244313
 31
0.0
  0
LINE
  5
389
  8
0
  6
CONTINUOUS
 10
201.22793160675161
 20
73.928764924181664
 30
0.0
 11
201.1055728974894
 21
73.156222438244313
 31
0.0
  0
LINE
  5
38A
  8
0
  6
CONTINUOUS
 10
196.35029031601371
 20
73.156222438244313
 30
0.0
 11
196.7053891208142
 21
72.459301793450493
 31
0.0
  0
LINE
  5
38B
  8
0
  6
CONTINUOUS
 10
201.1055728974894
 20
73.156222438244313
 30
0.0
 11
200.75047409268899
 21
72.459301793450493
 31
0.0
  0
LINE
  5
38C
  8
0
  6
CONTINUOUS
 10
196.7053891208142
 20
72.459301793450493
 30
0.0
 11
197.25846847602031
 21
71.906222438244313
 31
0.0
  0
LINE
  5
38D
  8
0
  6
CONTINUOUS
 10
200.75047409268899
 20
72.459301793450493
 30
0.0
 11
200.19739473748271
 21
71.906222438244313
 31
0.0
  0
LINE
  5
38E
  8
0
  6
CONTINUOUS
 10
199.5004740926889
 20
71.551123633443794
 30
0.0
 11
198.7279316067515
 21
71.428764924181664
 31
0.0
  0
LINE
  5
38F
  8
0
  6
CONTINUOUS
 10
198.7279316067515
 20
71.428764924181664
 30
0.0
 11
197.9553891208142
 21
71.551123633443794
 31
0.0
  0
LINE
  5
390
  8
0
  6
CONTINUOUS
 10
197.25846847602031
 20
71.906222438244313
 30
0.0
 11
197.9553891208142
 21
71.551123633443794
 31
0.0
  0
LINE
  5
391
  8
0
  6
CONTINUOUS
 10
200.19739473748271
 20
71.906222438244313
 30
0.0
 11
199.5004740926889
 21
71.551123633443794
 31
0.0
  0
ENDBLK
  5
393
  8
0
  0
BLOCK
  8
0
  2
*U20
 70
     1
 10
0.0
 20
0.0
 30
0.0
  3
*U20
  1

  0
TEXT
  5
395
  8
0
 10
320.62572742737927
 20
120.9035291981921
 30
0.0
 40
12.5
  1
Plywood underlay 15mm
  7
ARIAL
  0
TEXT
  5
396
  8
0
 10
321.66597299354572
 20
101.2831561220965
 30
0.0
 40
12.5
  1
thickness minimum
  7
ARIAL
  0
ENDBLK
  5
398
  8
0
  0
BLOCK
  8
0
  2
*U21
 70
     1
 10
0.0
 20
0.0
 30
0.0
  3
*U21
  1

  0
SOLID
  5
39A
  8
0
  6
CONTINUOUS
 10
65.109298718157589
 20
131.8865755341422
 30
0.0
 11
64.336756232220225
 21
131.76421682488009
 31
0.0
 12
65.881841204094954
 22
131.76421682488009
 32
0.0
 13
65.881841204094954
 23
131.76421682488009
 33
0.0
210
0.0
220
0.0
230
1.0
  0
SOLID
  5
39B
  8
0
  6
CONTINUOUS
 10
64.336756232220225
 20
131.76421682488009
 30
0.0
 11
63.639835587426411
 21
131.4091180200796
 31
0.0
 12
66.578761848888774
 22
131.4091180200796
 32
0.0
 13
66.578761848888774
 23
131.4091180200796
 33
0.0
210
0.0
220
0.0
230
1.0
  0
SOLID
  5
39C
  8
0
  6
CONTINUOUS
 10
-64.336756232220225
 20
131.76421682488009
 30
0.0
 11
-65.881841204094954
 21
131.76421682488009
 31
0.0
 12
-66.578761848888774
 22
131.4091180200796
 32
0.0
 13
-66.578761848888774
 23
131.4091180200796
 33
0.0
210
0.0
220
0.0
230
-1.0
  0
SOLID
  5
39D
  8
0
  6
CONTINUOUS
 10
63.639835587426411
 20
131.4091180200796
 30
0.0
 11
63.086756232220218
 21
130.85603866487341
 31
0.0
 12
67.131841204094954
 22
130.85603866487341
 32
0.0
 13
67.131841204094954
 23
130.85603866487341
 33
0.0
210
0.0
220
0.0
230
1.0
  0
SOLID
  5
39E
  8
0
  6
CONTINUOUS
 10
-63.639835587426411
 20
131.4091180200796
 30
0.0
 11
-66.578761848888774
 21
131.4091180200796
 31
0.0
 12
-67.131841204094954
 22
130.85603866487341
 32
0.0
 13
-67.131841204094954
 23
130.85603866487341
 33
0.0
210
0.0
220
0.0
230
-1.0
  0
SOLID
  5
39F
  8
0
  6
CONTINUOUS
 10
63.086756232220218
 20
130.85603866487341
 30
0.0
 11
62.731657427419712
 21
130.1591180200796
 31
0.0
 12
67.486940008895473
 22
130.1591180200796
 32
0.0
 13
67.486940008895473
 23
130.1591180200796
 33
0.0
210
0.0
220
0.0
230
1.0
  0
SOLID
  5
3A0
  8
0
  6
CONTINUOUS
 10
-63.086756232220218
 20
130.85603866487341
 30
0.0
 11
-67.131841204094954
 21
130.85603866487341
 31
0.0
 12
-67.486940008895473
 22
130.1591180200796
 32
0.0
 13
-67.486940008895473
 23
130.1591180200796
 33
0.0
210
0.0
220
0.0
230
-1.0
  0
SOLID
  5
3A1
  8
0
  6
CONTINUOUS
 10
62.731657427419712
 20
130.1591180200796
 30
0.0
 11
62.609298718157589
 21
129.3865755341422
 31
0.0
 12
67.609298718157589
 22
129.3865755341422
 32
0.0
 13
67.609298718157589
 23
129.3865755341422
 33
0.0
210
0.0
220
0.0
230
1.0
  0
SOLID
  5
3A2
  8
0
  6
CONTINUOUS
 10
-62.731657427419712
 20
130.1591180200796
 30
0.0
 11
-67.486940008895473
 21
130.1591180200796
 31
0.0
 12
-67.609298718157589
 22
129.3865755341422
 32
0.0
 13
-67.609298718157589
 23
129.3865755341422
 33
0.0
210
0.0
220
0.0
230
-1.0
  0
SOLID
  5
3A3
  8
0
  6
CONTINUOUS
 10
62.609298718157589
 20
129.3865755341422
 30
0.0
 11
62.731657427419712
 21
128.61403304820479
 31
0.0
 12
67.486940008895459
 22
128.61403304820479
 32
0.0
 13
67.486940008895459
 23
128.61403304820479
 33
0.0
  0
SOLID
  5
3A4
  8
0
  6
CONTINUOUS
 10
-62.609298718157589
 20
129.3865755341422
 30
0.0
 11
-67.609298718157589
 21
129.3865755341422
 31
0.0
 12
-67.486940008895459
 22
128.61403304820479
 32
0.0
 13
-67.486940008895459
 23
128.61403304820479
 33
0.0
210
0.0
220
0.0
230
-1.0
  0
SOLID
  5
3A5
  8
0
  6
CONTINUOUS
 10
62.731657427419712
 20
128.61403304820479
 30
0.0
 11
63.086756232220218
 21
127.917112403411
 31
0.0
 12
67.131841204094926
 22
127.917112403411
 32
0.0
 13
67.131841204094926
 23
127.917112403411
 33
0.0
210
0.0
220
0.0
230
1.0
  0
SOLID
  5
3A6
  8
0
  6
CONTINUOUS
 10
-62.731657427419712
 20
128.61403304820479
 30
0.0
 11
-67.486940008895459
 21
128.61403304820479
 31
0.0
 12
-67.131841204094926
 22
127.917112403411
 32
0.0
 13
-67.131841204094926
 23
127.917112403411
 33
0.0
210
0.0
220
0.0
230
-1.0
  0
SOLID
  5
3A7
  8
0
  6
CONTINUOUS
 10
63.086756232220218
 20
127.917112403411
 30
0.0
 11
63.639835587426411
 21
127.3640330482049
 31
0.0
 12
66.57876184888876
 22
127.3640330482049
 32
0.0
 13
66.57876184888876
 23
127.3640330482049
 33
0.0
210
0.0
220
0.0
230
1.0
  0
SOLID
  5
3A8
  8
0
  6
CONTINUOUS
 10
-63.086756232220218
 20
127.917112403411
 30
0.0
 11
-67.131841204094926
 21
127.917112403411
 31
0.0
 12
-66.57876184888876
 22
127.3640330482049
 32
0.0
 13
-66.57876184888876
 23
127.3640330482049
 33
0.0
210
0.0
220
0.0
230
-1.0
  0
SOLID
  5
3A9
  8
0
  6
CONTINUOUS
 10
-64.336756232220225
 20
127.0089342434044
 30
0.0
 11
-65.881841204094954
 21
127.0089342434044
 31
0.0
 12
-65.109298718157589
 22
126.8865755341422
 32
0.0
 13
-65.109298718157589
 23
126.8865755341422
 33
0.0
210
0.0
220
0.0
230
-1.0
  0
SOLID
  5
3AA
  8
0
  6
CONTINUOUS
 10
63.639835587426411
 20
127.3640330482049
 30
0.0
 11
64.336756232220225
 21
127.0089342434044
 31
0.0
 12
65.881841204094954
 22
127.0089342434044
 32
0.0
 13
65.881841204094954
 23
127.0089342434044
 33
0.0
210
0.0
220
0.0
230
1.0
  0
SOLID
  5
3AB
  8
0
  6
CONTINUOUS
 10
-63.639835587426411
 20
127.3640330482049
 30
0.0
 11
-66.57876184888876
 21
127.3640330482049
 31
0.0
 12
-65.881841204094954
 22
127.0089342434044
 32
0.0
 13
-65.881841204094954
 23
127.0089342434044
 33
0.0
210
0.0
220
0.0
230
-1.0
  0
LINE
  5
3AC
  8
0
  6
CONTINUOUS
 10
65.109298718157589
 20
131.8865755341422
 30
0.0
 11
64.336756232220225
 21
131.76421682488009
 31
0.0
  0
LINE
  5
3AD
  8
0
  6
CONTINUOUS
 10
65.881841204094954
 20
131.76421682488009
 30
0.0
 11
65.109298718157589
 21
131.8865755341422
 31
0.0
  0
LINE
  5
3AE
  8
0
  6
CONTINUOUS
 10
64.336756232220225
 20
131.76421682488009
 30
0.0
 11
63.639835587426411
 21
131.4091180200796
 31
0.0
  0
LINE
  5
3AF
  8
0
  6
CONTINUOUS
 10
65.881841204094954
 20
131.76421682488009
 30
0.0
 11
66.578761848888774
 21
131.4091180200796
 31
0.0
  0
LINE
  5
3B0
  8
0
  6
CONTINUOUS
 10
63.639835587426411
 20
131.4091180200796
 30
0.0
 11
63.086756232220218
 21
130.85603866487341
 31
0.0
  0
LINE
  5
3B1
  8
0
  6
CONTINUOUS
 10
66.578761848888774
 20
131.4091180200796
 30
0.0
 11
67.131841204094954
 21
130.85603866487341
 31
0.0
  0
LINE
  5
3B2
  8
0
  6
CONTINUOUS
 10
63.086756232220218
 20
130.85603866487341
 30
0.0
 11
62.731657427419712
 21
130.1591180200796
 31
0.0
  0
LINE
  5
3B3
  8
0
  6
CONTINUOUS
 10
67.131841204094954
 20
130.85603866487341
 30
0.0
 11
67.486940008895473
 21
130.1591180200796
 31
0.0
  0
LINE
  5
3B4
  8
0
  6
CONTINUOUS
 10
62.731657427419712
 20
130.1591180200796
 30
0.0
 11
62.609298718157589
 21
129.3865755341422
 31
0.0
  0
LINE
  5
3B5
  8
0
  6
CONTINUOUS
 10
67.486940008895473
 20
130.1591180200796
 30
0.0
 11
67.609298718157589
 21
129.3865755341422
 31
0.0
  0
LINE
  5
3B6
  8
0
  6
CONTINUOUS
 10
62.609298718157589
 20
129.3865755341422
 30
0.0
 11
62.731657427419712
 21
128.61403304820479
 31
0.0
  0
LINE
  5
3B7
  8
0
  6
CONTINUOUS
 10
67.609298718157589
 20
129.3865755341422
 30
0.0
 11
67.486940008895459
 21
128.61403304820479
 31
0.0
  0
LINE
  5
3B8
  8
0
  6
CONTINUOUS
 10
62.731657427419712
 20
128.61403304820479
 30
0.0
 11
63.086756232220218
 21
127.917112403411
 31
0.0
  0
LINE
  5
3B9
  8
0
  6
CONTINUOUS
 10
67.486940008895459
 20
128.61403304820479
 30
0.0
 11
67.131841204094926
 21
127.917112403411
 31
0.0
  0
LINE
  5
3BA
  8
0
  6
CONTINUOUS
 10
63.086756232220218
 20
127.917112403411
 30
0.0
 11
63.639835587426411
 21
127.3640330482049
 31
0.0
  0
LINE
  5
3BB
  8
0
  6
CONTINUOUS
 10
67.131841204094926
 20
127.917112403411
 30
0.0
 11
66.57876184888876
 21
127.3640330482049
 31
0.0
  0
LINE
  5
3BC
  8
0
  6
CONTINUOUS
 10
65.881841204094954
 20
127.0089342434044
 30
0.0
 11
65.109298718157589
 21
126.8865755341422
 31
0.0
  0
LINE
  5
3BD
  8
0
  6
CONTINUOUS
 10
65.109298718157589
 20
126.8865755341422
 30
0.0
 11
64.336756232220225
 21
127.0089342434044
 31
0.0
  0
LINE
  5
3BE
  8
0
  6
CONTINUOUS
 10
63.639835587426411
 20
127.3640330482049
 30
0.0
 11
64.336756232220225
 21
127.0089342434044
 31
0.0
  0
LINE
  5
3BF
  8
0
  6
CONTINUOUS
 10
66.57876184888876
 20
127.3640330482049
 30
0.0
 11
65.881841204094954
 21
127.0089342434044
 31
0.0
  0
ENDBLK
  5
3C1
  8
0
  0
BLOCK
  8
0
  2
*U22
 70
     1
 10
0.0
 20
0.0
 30
0.0
  3
*U22
  1

  0
TEXT
  5
3C3
  8
0
 10
321.24816944647893
 20
271.3679446061218
 30
0.0
 40
12.5
  1
904 CF Hip Under Channel
  7
ARIAL
  0
ENDBLK
  5
3C5
  8
0
  0
BLOCK
  8
0
  2
*U23
 70
     1
 10
0.0
 20
0.0
 30
0.0
  3
*U23
  1

  0
SOLID
  5
3C7
  8
0
  6
CONTINUOUS
 10
16.44966719662046
 20
176.0933046100858
 30
0.0
 11
15.67712471068309
 21
175.97094590082369
 31
0.0
 12
17.222209682557828
 22
175.97094590082369
 32
0.0
 13
17.222209682557828
 23
175.97094590082369
 33
0.0
210
0.0
220
0.0
230
1.0
  0
SOLID
  5
3C8
  8
0
  6
CONTINUOUS
 10
15.67712471068309
 20
175.97094590082369
 30
0.0
 11
14.98020406588928
 21
175.6158470960232
 31
0.0
 12
17.919130327351638
 22
175.6158470960232
 32
0.0
 13
17.919130327351638
 23
175.6158470960232
 33
0.0
210
0.0
220
0.0
230
1.0
  0
SOLID
  5
3C9
  8
0
  6
CONTINUOUS
 10
-15.67712471068309
 20
175.97094590082369
 30
0.0
 11
-17.222209682557828
 21
175.97094590082369
 31
0.0
 12
-17.919130327351638
 22
175.6158470960232
 32
0.0
 13
-17.919130327351638
 23
175.6158470960232
 33
0.0
210
0.0
220
0.0
230
-1.0
  0
SOLID
  5
3CA
  8
0
  6
CONTINUOUS
 10
14.98020406588928
 20
175.6158470960232
 30
0.0
 11
14.42712471068309
 21
175.06276774081701
 31
0.0
 12
18.472209682557828
 22
175.06276774081701
 32
0.0
 13
18.472209682557828
 23
175.06276774081701
 33
0.0
210
0.0
220
0.0
230
1.0
  0
SOLID
  5
3CB
  8
0
  6
CONTINUOUS
 10
-14.98020406588928
 20
175.6158470960232
 30
0.0
 11
-17.919130327351638
 21
175.6158470960232
 31
0.0
 12
-18.472209682557828
 22
175.06276774081701
 32
0.0
 13
-18.472209682557828
 23
175.06276774081701
 33
0.0
210
0.0
220
0.0
230
-1.0
  0
SOLID
  5
3CC
  8
0
  6
CONTINUOUS
 10
14.42712471068309
 20
175.06276774081701
 30
0.0
 11
14.07202590588258
 21
174.3658470960232
 31
0.0
 12
18.827308487358341
 22
174.3658470960232
 32
0.0
 13
18.827308487358341
 23
174.3658470960232
 33
0.0
  0
SOLID
  5
3CD
  8
0
  6
CONTINUOUS
 10
-14.42712471068309
 20
175.06276774081701
 30
0.0
 11
-18.472209682557828
 21
175.06276774081701
 31
0.0
 12
-18.827308487358341
 22
174.3658470960232
 32
0.0
 13
-18.827308487358341
 23
174.3658470960232
 33
0.0
210
0.0
220
0.0
230
-1.0
  0
SOLID
  5
3CE
  8
0
  6
CONTINUOUS
 10
14.07202590588258
 20
174.3658470960232
 30
0.0
 11
13.94966719662046
 21
173.5933046100858
 31
0.0
 12
18.94966719662045
 22
173.5933046100858
 32
0.0
 13
18.94966719662045
 23
173.5933046100858
 33
0.0
210
0.0
220
0.0
230
1.0
  0
SOLID
  5
3CF
  8
0
  6
CONTINUOUS
 10
-14.07202590588258
 20
174.3658470960232
 30
0.0
 11
-18.827308487358341
 21
174.3658470960232
 31
0.0
 12
-18.94966719662045
 22
173.5933046100858
 32
0.0
 13
-18.94966719662045
 23
173.5933046100858
 33
0.0
210
0.0
220
0.0
230
-1.0
  0
SOLID
  5
3D0
  8
0
  6
CONTINUOUS
 10
13.94966719662046
 20
173.5933046100858
 30
0.0
 11
14.07202590588258
 21
172.8207621241485
 31
0.0
 12
18.827308487358341
 22
172.8207621241485
 32
0.0
 13
18.827308487358341
 23
172.8207621241485
 33
0.0
210
0.0
220
0.0
230
1.0
  0
SOLID
  5
3D1
  8
0
  6
CONTINUOUS
 10
-13.94966719662046
 20
173.5933046100858
 30
0.0
 11
-18.94966719662045
 21
173.5933046100858
 31
0.0
 12
-18.827308487358341
 22
172.8207621241485
 32
0.0
 13
-18.827308487358341
 23
172.8207621241485
 33
0.0
210
0.0
220
0.0
230
-1.0
  0
SOLID
  5
3D2
  8
0
  6
CONTINUOUS
 10
14.07202590588258
 20
172.8207621241485
 30
0.0
 11
14.42712471068309
 21
172.12384147935461
 31
0.0
 12
18.472209682557821
 22
172.12384147935461
 32
0.0
 13
18.472209682557821
 23
172.12384147935461
 33
0.0
210
0.0
220
0.0
230
1.0
  0
SOLID
  5
3D3
  8
0
  6
CONTINUOUS
 10
-14.07202590588258
 20
172.8207621241485
 30
0.0
 11
-18.827308487358341
 21
172.8207621241485
 31
0.0
 12
-18.472209682557821
 22
172.12384147935461
 32
0.0
 13
-18.472209682557821
 23
172.12384147935461
 33
0.0
210
0.0
220
0.0
230
-1.0
  0
SOLID
  5
3D4
  8
0
  6
CONTINUOUS
 10
14.42712471068309
 20
172.12384147935461
 30
0.0
 11
14.98020406588928
 21
171.5707621241485
 31
0.0
 12
17.919130327351638
 22
171.5707621241485
 32
0.0
 13
17.919130327351638
 23
171.5707621241485
 33
0.0
  0
SOLID
  5
3D5
  8
0
  6
CONTINUOUS
 10
-14.42712471068309
 20
172.12384147935461
 30
0.0
 11
-18.472209682557821
 21
172.12384147935461
 31
0.0
 12
-17.919130327351638
 22
171.5707621241485
 32
0.0
 13
-17.919130327351638
 23
171.5707621241485
 33
0.0
210
0.0
220
0.0
230
-1.0
  0
SOLID
  5
3D6
  8
0
  6
CONTINUOUS
 10
-15.67712471068309
 20
171.21566331934801
 30
0.0
 11
-17.222209682557821
 21
171.21566331934801
 31
0.0
 12
-16.44966719662046
 22
171.0933046100858
 32
0.0
 13
-16.44966719662046
 23
171.0933046100858
 33
0.0
210
0.0
220
0.0
230
-1.0
  0
SOLID
  5
3D7
  8
0
  6
CONTINUOUS
 10
14.98020406588928
 20
171.5707621241485
 30
0.0
 11
15.67712471068309
 21
171.21566331934801
 31
0.0
 12
17.222209682557821
 22
171.21566331934801
 32
0.0
 13
17.222209682557821
 23
171.21566331934801
 33
0.0
210
0.0
220
0.0
230
1.0
  0
SOLID
  5
3D8
  8
0
  6
CONTINUOUS
 10
-14.98020406588928
 20
171.5707621241485
 30
0.0
 11
-17.919130327351638
 21
171.5707621241485
 31
0.0
 12
-17.222209682557821
 22
171.21566331934801
 32
0.0
 13
-17.222209682557821
 23
171.21566331934801
 33
0.0
210
0.0
220
0.0
230
-1.0
  0
LINE
  5
3D9
  8
0
  6
CONTINUOUS
 10
16.44966719662046
 20
176.0933046100858
 30
0.0
 11
15.67712471068309
 21
175.97094590082369
 31
0.0
  0
LINE
  5
3DA
  8
0
  6
CONTINUOUS
 10
17.222209682557828
 20
175.97094590082369
 30
0.0
 11
16.44966719662046
 21
176.0933046100858
 31
0.0
  0
LINE
  5
3DB
  8
0
  6
CONTINUOUS
 10
15.67712471068309
 20
175.97094590082369
 30
0.0
 11
14.98020406588928
 21
175.6158470960232
 31
0.0
  0
LINE
  5
3DC
  8
0
  6
CONTINUOUS
 10
17.222209682557828
 20
175.97094590082369
 30
0.0
 11
17.919130327351638
 21
175.6158470960232
 31
0.0
  0
LINE
  5
3DD
  8
0
  6
CONTINUOUS
 10
14.98020406588928
 20
175.6158470960232
 30
0.0
 11
14.42712471068309
 21
175.06276774081701
 31
0.0
  0
LINE
  5
3DE
  8
0
  6
CONTINUOUS
 10
17.919130327351638
 20
175.6158470960232
 30
0.0
 11
18.472209682557828
 21
175.06276774081701
 31
0.0
  0
LINE
  5
3DF
  8
0
  6
CONTINUOUS
 10
14.42712471068309
 20
175.06276774081701
 30
0.0
 11
14.07202590588258
 21
174.3658470960232
 31
0.0
  0
LINE
  5
3E0
  8
0
  6
CONTINUOUS
 10
18.472209682557828
 20
175.06276774081701
 30
0.0
 11
18.827308487358341
 21
174.3658470960232
 31
0.0
  0
LINE
  5
3E1
  8
0
  6
CONTINUOUS
 10
14.07202590588258
 20
174.3658470960232
 30
0.0
 11
13.94966719662046
 21
173.5933046100858
 31
0.0
  0
LINE
  5
3E2
  8
0
  6
CONTINUOUS
 10
18.827308487358341
 20
174.3658470960232
 30
0.0
 11
18.94966719662045
 21
173.5933046100858
 31
0.0
  0
LINE
  5
3E3
  8
0
  6
CONTINUOUS
 10
13.94966719662046
 20
173.5933046100858
 30
0.0
 11
14.07202590588258
 21
172.8207621241485
 31
0.0
  0
LINE
  5
3E4
  8
0
  6
CONTINUOUS
 10
18.94966719662045
 20
173.5933046100858
 30
0.0
 11
18.827308487358341
 21
172.8207621241485
 31
0.0
  0
LINE
  5
3E5
  8
0
  6
CONTINUOUS
 10
14.07202590588258
 20
172.8207621241485
 30
0.0
 11
14.42712471068309
 21
172.12384147935461
 31
0.0
  0
LINE
  5
3E6
  8
0
  6
CONTINUOUS
 10
18.827308487358341
 20
172.8207621241485
 30
0.0
 11
18.472209682557821
 21
172.12384147935461
 31
0.0
  0
LINE
  5
3E7
  8
0
  6
CONTINUOUS
 10
14.42712471068309
 20
172.12384147935461
 30
0.0
 11
14.98020406588928
 21
171.5707621241485
 31
0.0
  0
LINE
  5
3E8
  8
0
  6
CONTINUOUS
 10
18.472209682557821
 20
172.12384147935461
 30
0.0
 11
17.919130327351638
 21
171.5707621241485
 31
0.0
  0
LINE
  5
3E9
  8
0
  6
CONTINUOUS
 10
17.222209682557821
 20
171.21566331934801
 30
0.0
 11
16.44966719662046
 21
171.0933046100858
 31
0.0
  0
LINE
  5
3EA
  8
0
  6
CONTINUOUS
 10
16.44966719662046
 20
171.0933046100858
 30
0.0
 11
15.67712471068309
 21
171.21566331934801
 31
0.0
  0
LINE
  5
3EB
  8
0
  6
CONTINUOUS
 10
14.98020406588928
 20
171.5707621241485
 30
0.0
 11
15.67712471068309
 21
171.21566331934801
 31
0.0
  0
LINE
  5
3EC
  8
0
  6
CONTINUOUS
 10
17.919130327351638
 20
171.5707621241485
 30
0.0
 11
17.222209682557821
 21
171.21566331934801
 31
0.0
  0
ENDBLK
  5
3EE
  8
0
  0
BLOCK
  8
0
  2
*U24
 70
     1
 10
0.0
 20
0.0
 30
0.0
  3
*U24
  1

  0
TEXT
  5
3F0
  8
0
 10
320.60014761837522
 20
314.72489562859067
 30
0.0
 40
12.5
  1
Ridge Trim
  7
ARIAL
  0
ENDBLK
  5
3F2
  8
0
  0
BLOCK
  8
0
  2
*U25
 70
     1
 10
0.0
 20
0.0
 30
0.0
  3
*U25
  1

  0
SOLID
  5
3F4
  8
0
  6
CONTINUOUS
 10
136.51523182739081
 20
116.1263320545804
 30
0.0
 11
135.7426893414534
 21
116.0039733453183
 31
0.0
 12
137.2877743133281
 22
116.0039733453183
 32
0.0
 13
137.2877743133281
 23
116.0039733453183
 33
0.0
210
0.0
220
0.0
230
1.0
  0
SOLID
  5
3F5
  8
0
  6
CONTINUOUS
 10
135.7426893414534
 20
116.0039733453183
 30
0.0
 11
135.04576869665959
 21
115.6488745405177
 31
0.0
 12
137.98469495812191
 22
115.6488745405177
 32
0.0
 13
137.98469495812191
 23
115.6488745405177
 33
0.0
210
0.0
220
0.0
230
1.0
  0
SOLID
  5
3F6
  8
0
  6
CONTINUOUS
 10
-135.7426893414534
 20
116.0039733453183
 30
0.0
 11
-137.2877743133281
 21
116.0039733453183
 31
0.0
 12
-137.98469495812191
 22
115.6488745405177
 32
0.0
 13
-137.98469495812191
 23
115.6488745405177
 33
0.0
210
0.0
220
0.0
230
-1.0
  0
SOLID
  5
3F7
  8
0
  6
CONTINUOUS
 10
135.04576869665959
 20
115.6488745405177
 30
0.0
 11
134.4926893414534
 21
115.0957951853116
 31
0.0
 12
138.5377743133281
 22
115.0957951853116
 32
0.0
 13
138.5377743133281
 23
115.0957951853116
 33
0.0
  0
SOLID
  5
3F8
  8
0
  6
CONTINUOUS
 10
-135.04576869665959
 20
115.6488745405177
 30
0.0
 11
-137.98469495812191
 21
115.6488745405177
 31
0.0
 12
-138.5377743133281
 22
115.0957951853116
 32
0.0
 13
-138.5377743133281
 23
115.0957951853116
 33
0.0
210
0.0
220
0.0
230
-1.0
  0
SOLID
  5
3F9
  8
0
  6
CONTINUOUS
 10
134.4926893414534
 20
115.0957951853116
 30
0.0
 11
134.13759053665291
 21
114.3988745405177
 31
0.0
 12
138.8928731181287
 22
114.3988745405177
 32
0.0
 13
138.8928731181287
 23
114.3988745405177
 33
0.0
  0
SOLID
  5
3FA
  8
0
  6
CONTINUOUS
 10
-134.4926893414534
 20
115.0957951853116
 30
0.0
 11
-138.5377743133281
 21
115.0957951853116
 31
0.0
 12
-138.8928731181287
 22
114.3988745405177
 32
0.0
 13
-138.8928731181287
 23
114.3988745405177
 33
0.0
210
0.0
220
0.0
230
-1.0
  0
SOLID
  5
3FB
  8
0
  6
CONTINUOUS
 10
134.13759053665291
 20
114.3988745405177
 30
0.0
 11
134.01523182739081
 21
113.6263320545804
 31
0.0
 12
139.01523182739069
 22
113.6263320545804
 32
0.0
 13
139.01523182739069
 23
113.6263320545804
 33
0.0
210
0.0
220
0.0
230
1.0
  0
SOLID
  5
3FC
  8
0
  6
CONTINUOUS
 10
-134.13759053665291
 20
114.3988745405177
 30
0.0
 11
-138.8928731181287
 21
114.3988745405177
 31
0.0
 12
-139.01523182739069
 22
113.6263320545804
 32
0.0
 13
-139.01523182739069
 23
113.6263320545804
 33
0.0
210
0.0
220
0.0
230
-1.0
  0
SOLID
  5
3FD
  8
0
  6
CONTINUOUS
 10
134.01523182739081
 20
113.6263320545804
 30
0.0
 11
134.13759053665291
 21
112.85378956864299
 31
0.0
 12
138.89287311812859
 22
112.85378956864299
 32
0.0
 13
138.89287311812859
 23
112.85378956864299
 33
0.0
210
0.0
220
0.0
230
1.0
  0
SOLID
  5
3FE
  8
0
  6
CONTINUOUS
 10
-134.01523182739081
 20
113.6263320545804
 30
0.0
 11
-139.01523182739069
 21
113.6263320545804
 31
0.0
 12
-138.89287311812859
 22
112.85378956864299
 32
0.0
 13
-138.89287311812859
 23
112.85378956864299
 33
0.0
210
0.0
220
0.0
230
-1.0
  0
SOLID
  5
3FF
  8
0
  6
CONTINUOUS
 10
134.13759053665291
 20
112.85378956864299
 30
0.0
 11
134.4926893414534
 21
112.1568689238492
 31
0.0
 12
138.5377743133281
 22
112.1568689238492
 32
0.0
 13
138.5377743133281
 23
112.1568689238492
 33
0.0
210
0.0
220
0.0
230
1.0
  0
SOLID
  5
400
  8
0
  6
CONTINUOUS
 10
-134.13759053665291
 20
112.85378956864299
 30
0.0
 11
-138.89287311812859
 21
112.85378956864299
 31
0.0
 12
-138.5377743133281
 22
112.1568689238492
 32
0.0
 13
-138.5377743133281
 23
112.1568689238492
 33
0.0
210
0.0
220
0.0
230
-1.0
  0
SOLID
  5
401
  8
0
  6
CONTINUOUS
 10
134.4926893414534
 20
112.1568689238492
 30
0.0
 11
135.04576869665959
 21
111.60378956864299
 31
0.0
 12
137.98469495812191
 22
111.60378956864299
 32
0.0
 13
137.98469495812191
 23
111.60378956864299
 33
0.0
210
0.0
220
0.0
230
1.0
  0
SOLID
  5
402
  8
0
  6
CONTINUOUS
 10
-134.4926893414534
 20
112.1568689238492
 30
0.0
 11
-138.5377743133281
 21
112.1568689238492
 31
0.0
 12
-137.98469495812191
 22
111.60378956864299
 32
0.0
 13
-137.98469495812191
 23
111.60378956864299
 33
0.0
210
0.0
220
0.0
230
-1.0
  0
SOLID
  5
403
  8
0
  6
CONTINUOUS
 10
-135.7426893414534
 20
111.2486907638425
 30
0.0
 11
-137.2877743133281
 21
111.2486907638425
 31
0.0
 12
-136.51523182739081
 22
111.1263320545804
 32
0.0
 13
-136.51523182739081
 23
111.1263320545804
 33
0.0
210
0.0
220
0.0
230
-1.0
  0
SOLID
  5
404
  8
0
  6
CONTINUOUS
 10
135.04576869665959
 20
111.60378956864299
 30
0.0
 11
135.7426893414534
 21
111.2486907638425
 31
0.0
 12
137.2877743133281
 22
111.2486907638425
 32
0.0
 13
137.2877743133281
 23
111.2486907638425
 33
0.0
210
0.0
220
0.0
230
1.0
  0
SOLID
  5
405
  8
0
  6
CONTINUOUS
 10
-135.04576869665959
 20
111.60378956864299
 30
0.0
 11
-137.98469495812191
 21
111.60378956864299
 31
0.0
 12
-137.2877743133281
 22
111.2486907638425
 32
0.0
 13
-137.2877743133281
 23
111.2486907638425
 33
0.0
210
0.0
220
0.0
230
-1.0
  0
LINE
  5
406
  8
0
  6
CONTINUOUS
 10
136.51523182739081
 20
116.1263320545804
 30
0.0
 11
135.7426893414534
 21
116.0039733453183
 31
0.0
  0
LINE
  5
407
  8
0
  6
CONTINUOUS
 10
137.2877743133281
 20
116.0039733453183
 30
0.0
 11
136.51523182739081
 21
116.1263320545804
 31
0.0
  0
LINE
  5
408
  8
0
  6
CONTINUOUS
 10
135.7426893414534
 20
116.0039733453183
 30
0.0
 11
135.04576869665959
 21
115.6488745405177
 31
0.0
  0
LINE
  5
409
  8
0
  6
CONTINUOUS
 10
137.2877743133281
 20
116.0039733453183
 30
0.0
 11
137.98469495812191
 21
115.6488745405177
 31
0.0
  0
LINE
  5
40A
  8
0
  6
CONTINUOUS
 10
135.04576869665959
 20
115.6488745405177
 30
0.0
 11
134.4926893414534
 21
115.0957951853116
 31
0.0
  0
LINE
  5
40B
  8
0
  6
CONTINUOUS
 10
137.98469495812191
 20
115.6488745405177
 30
0.0
 11
138.5377743133281
 21
115.0957951853116
 31
0.0
  0
LINE
  5
40C
  8
0
  6
CONTINUOUS
 10
134.4926893414534
 20
115.0957951853116
 30
0.0
 11
134.13759053665291
 21
114.3988745405177
 31
0.0
  0
LINE
  5
40D
  8
0
  6
CONTINUOUS
 10
138.5377743133281
 20
115.0957951853116
 30
0.0
 11
138.8928731181287
 21
114.3988745405177
 31
0.0
  0
LINE
  5
40E
  8
0
  6
CONTINUOUS
 10
134.13759053665291
 20
114.3988745405177
 30
0.0
 11
134.01523182739081
 21
113.6263320545804
 31
0.0
  0
LINE
  5
40F
  8
0
  6
CONTINUOUS
 10
138.8928731181287
 20
114.3988745405177
 30
0.0
 11
139.01523182739069
 21
113.6263320545804
 31
0.0
  0
LINE
  5
410
  8
0
  6
CONTINUOUS
 10
134.01523182739081
 20
113.6263320545804
 30
0.0
 11
134.13759053665291
 21
112.85378956864299
 31
0.0
  0
LINE
  5
411
  8
0
  6
CONTINUOUS
 10
139.01523182739069
 20
113.6263320545804
 30
0.0
 11
138.89287311812859
 21
112.85378956864299
 31
0.0
  0
LINE
  5
412
  8
0
  6
CONTINUOUS
 10
134.13759053665291
 20
112.85378956864299
 30
0.0
 11
134.4926893414534
 21
112.1568689238492
 31
0.0
  0
LINE
  5
413
  8
0
  6
CONTINUOUS
 10
138.89287311812859
 20
112.85378956864299
 30
0.0
 11
138.5377743133281
 21
112.1568689238492
 31
0.0
  0
LINE
  5
414
  8
0
  6
CONTINUOUS
 10
134.4926893414534
 20
112.1568689238492
 30
0.0
 11
135.04576869665959
 21
111.60378956864299
 31
0.0
  0
LINE
  5
415
  8
0
  6
CONTINUOUS
 10
138.5377743133281
 20
112.1568689238492
 30
0.0
 11
137.98469495812191
 21
111.60378956864299
 31
0.0
  0
LINE
  5
416
  8
0
  6
CONTINUOUS
 10
137.2877743133281
 20
111.2486907638425
 30
0.0
 11
136.51523182739081
 21
111.1263320545804
 31
0.0
  0
LINE
  5
417
  8
0
  6
CONTINUOUS
 10
136.51523182739081
 20
111.1263320545804
 30
0.0
 11
135.7426893414534
 21
111.2486907638425
 31
0.0
  0
LINE
  5
418
  8
0
  6
CONTINUOUS
 10
135.04576869665959
 20
111.60378956864299
 30
0.0
 11
135.7426893414534
 21
111.2486907638425
 31
0.0
  0
LINE
  5
419
  8
0
  6
CONTINUOUS
 10
137.98469495812191
 20
111.60378956864299
 30
0.0
 11
137.2877743133281
 21
111.2486907638425
 31
0.0
  0
ENDBLK
  5
41B
  8
0
  0
BLOCK
  8
0
  2
*U26
 70
     1
 10
0.0
 20
0.0
 30
0.0
  3
*U26
  1

  0
TEXT
  5
41D
  8
0
 10
321.10321719545573
 20
220.36870691362239
 30
0.0
 40
12.5
  1
CF Shingle Panel
  7
ARIAL
  0
ENDBLK
  5
41F
  8
0
  0
BLOCK
  8
0
  2
*U27
 70
     1
 10
0.0
 20
0.0
 30
0.0
  3
*U27
  1

  0
SOLID
  5
421
  8
0
  6
CONTINUOUS
 10
158.46241865199389
 20
109.51371616466849
 30
0.0
 11
157.68987616605651
 21
109.39135745540641
 31
0.0
 12
159.23496113793129
 22
109.39135745540641
 32
0.0
 13
159.23496113793129
 23
109.39135745540641
 33
0.0
210
0.0
220
0.0
230
1.0
  0
SOLID
  5
422
  8
0
  6
CONTINUOUS
 10
157.68987616605651
 20
109.39135745540641
 30
0.0
 11
156.9929555212627
 21
109.0362586506059
 31
0.0
 12
159.9318817827251
 22
109.0362586506059
 32
0.0
 13
159.9318817827251
 23
109.0362586506059
 33
0.0
210
0.0
220
0.0
230
1.0
  0
SOLID
  5
423
  8
0
  6
CONTINUOUS
 10
-157.68987616605651
 20
109.39135745540641
 30
0.0
 11
-159.23496113793129
 21
109.39135745540641
 31
0.0
 12
-159.9318817827251
 22
109.0362586506059
 32
0.0
 13
-159.9318817827251
 23
109.0362586506059
 33
0.0
210
0.0
220
0.0
230
-1.0
  0
SOLID
  5
424
  8
0
  6
CONTINUOUS
 10
156.9929555212627
 20
109.0362586506059
 30
0.0
 11
156.43987616605651
 21
108.48317929539969
 31
0.0
 12
160.48496113793129
 22
108.48317929539969
 32
0.0
 13
160.48496113793129
 23
108.48317929539969
 33
0.0
210
0.0
220
0.0
230
1.0
  0
SOLID
  5
425
  8
0
  6
CONTINUOUS
 10
-156.9929555212627
 20
109.0362586506059
 30
0.0
 11
-159.9318817827251
 21
109.0362586506059
 31
0.0
 12
-160.48496113793129
 22
108.48317929539969
 32
0.0
 13
-160.48496113793129
 23
108.48317929539969
 33
0.0
210
0.0
220
0.0
230
-1.0
  0
SOLID
  5
426
  8
0
  6
CONTINUOUS
 10
156.43987616605651
 20
108.48317929539969
 30
0.0
 11
156.08477736125599
 21
107.7862586506059
 31
0.0
 12
160.84005994273181
 22
107.7862586506059
 32
0.0
 13
160.84005994273181
 23
107.7862586506059
 33
0.0
210
0.0
220
0.0
230
1.0
  0
SOLID
  5
427
  8
0
  6
CONTINUOUS
 10
-156.43987616605651
 20
108.48317929539969
 30
0.0
 11
-160.48496113793129
 21
108.48317929539969
 31
0.0
 12
-160.84005994273181
 22
107.7862586506059
 32
0.0
 13
-160.84005994273181
 23
107.7862586506059
 33
0.0
210
0.0
220
0.0
230
-1.0
  0
SOLID
  5
428
  8
0
  6
CONTINUOUS
 10
156.08477736125599
 20
107.7862586506059
 30
0.0
 11
155.96241865199389
 21
107.01371616466849
 31
0.0
 12
160.96241865199389
 22
107.01371616466849
 32
0.0
 13
160.96241865199389
 23
107.01371616466849
 33
0.0
210
0.0
220
0.0
230
1.0
  0
SOLID
  5
429
  8
0
  6
CONTINUOUS
 10
-156.08477736125599
 20
107.7862586506059
 30
0.0
 11
-160.84005994273181
 21
107.7862586506059
 31
0.0
 12
-160.96241865199389
 22
107.01371616466849
 32
0.0
 13
-160.96241865199389
 23
107.01371616466849
 33
0.0
210
0.0
220
0.0
230
-1.0
  0
SOLID
  5
42A
  8
0
  6
CONTINUOUS
 10
155.96241865199389
 20
107.01371616466849
 30
0.0
 11
156.08477736125599
 21
106.2411736787312
 31
0.0
 12
160.84005994273181
 22
106.2411736787312
 32
0.0
 13
160.84005994273181
 23
106.2411736787312
 33
0.0
210
0.0
220
0.0
230
1.0
  0
SOLID
  5
42B
  8
0
  6
CONTINUOUS
 10
-155.96241865199389
 20
107.01371616466849
 30
0.0
 11
-160.96241865199389
 21
107.01371616466849
 31
0.0
 12
-160.84005994273181
 22
106.2411736787312
 32
0.0
 13
-160.84005994273181
 23
106.2411736787312
 33
0.0
210
0.0
220
0.0
230
-1.0
  0
SOLID
  5
42C
  8
0
  6
CONTINUOUS
 10
156.08477736125599
 20
106.2411736787312
 30
0.0
 11
156.43987616605651
 21
105.5442530339373
 31
0.0
 12
160.48496113793129
 22
105.5442530339373
 32
0.0
 13
160.48496113793129
 23
105.5442530339373
 33
0.0
210
0.0
220
0.0
230
1.0
  0
SOLID
  5
42D
  8
0
  6
CONTINUOUS
 10
-156.08477736125599
 20
106.2411736787312
 30
0.0
 11
-160.84005994273181
 21
106.2411736787312
 31
0.0
 12
-160.48496113793129
 22
105.5442530339373
 32
0.0
 13
-160.48496113793129
 23
105.5442530339373
 33
0.0
210
0.0
220
0.0
230
-1.0
  0
SOLID
  5
42E
  8
0
  6
CONTINUOUS
 10
156.43987616605651
 20
105.5442530339373
 30
0.0
 11
156.9929555212627
 21
104.9911736787311
 31
0.0
 12
159.9318817827251
 22
104.9911736787311
 32
0.0
 13
159.9318817827251
 23
104.9911736787311
 33
0.0
210
0.0
220
0.0
230
1.0
  0
SOLID
  5
42F
  8
0
  6
CONTINUOUS
 10
-156.43987616605651
 20
105.5442530339373
 30
0.0
 11
-160.48496113793129
 21
105.5442530339373
 31
0.0
 12
-159.9318817827251
 22
104.9911736787311
 32
0.0
 13
-159.9318817827251
 23
104.9911736787311
 33
0.0
210
0.0
220
0.0
230
-1.0
  0
SOLID
  5
430
  8
0
  6
CONTINUOUS
 10
-157.68987616605651
 20
104.6360748739306
 30
0.0
 11
-159.23496113793129
 21
104.6360748739306
 31
0.0
 12
-158.46241865199389
 22
104.51371616466849
 32
0.0
 13
-158.46241865199389
 23
104.51371616466849
 33
0.0
210
0.0
220
0.0
230
-1.0
  0
SOLID
  5
431
  8
0
  6
CONTINUOUS
 10
156.9929555212627
 20
104.9911736787311
 30
0.0
 11
157.68987616605651
 21
104.6360748739306
 31
0.0
 12
159.23496113793129
 22
104.6360748739306
 32
0.0
 13
159.23496113793129
 23
104.6360748739306
 33
0.0
210
0.0
220
0.0
230
1.0
  0
SOLID
  5
432
  8
0
  6
CONTINUOUS
 10
-156.9929555212627
 20
104.9911736787311
 30
0.0
 11
-159.9318817827251
 21
104.9911736787311
 31
0.0
 12
-159.23496113793129
 22
104.6360748739306
 32
0.0
 13
-159.23496113793129
 23
104.6360748739306
 33
0.0
210
0.0
220
0.0
230
-1.0
  0
LINE
  5
433
  8
0
  6
CONTINUOUS
 10
158.46241865199389
 20
109.51371616466849
 30
0.0
 11
157.68987616605651
 21
109.39135745540641
 31
0.0
  0
LINE
  5
434
  8
0
  6
CONTINUOUS
 10
159.23496113793129
 20
109.39135745540641
 30
0.0
 11
158.46241865199389
 21
109.51371616466849
 31
0.0
  0
LINE
  5
435
  8
0
  6
CONTINUOUS
 10
157.68987616605651
 20
109.39135745540641
 30
0.0
 11
156.9929555212627
 21
109.0362586506059
 31
0.0
  0
LINE
  5
436
  8
0
  6
CONTINUOUS
 10
159.23496113793129
 20
109.39135745540641
 30
0.0
 11
159.9318817827251
 21
109.0362586506059
 31
0.0
  0
LINE
  5
437
  8
0
  6
CONTINUOUS
 10
156.9929555212627
 20
109.0362586506059
 30
0.0
 11
156.43987616605651
 21
108.48317929539969
 31
0.0
  0
LINE
  5
438
  8
0
  6
CONTINUOUS
 10
159.9318817827251
 20
109.0362586506059
 30
0.0
 11
160.48496113793129
 21
108.48317929539969
 31
0.0
  0
LINE
  5
439
  8
0
  6
CONTINUOUS
 10
156.43987616605651
 20
108.48317929539969
 30
0.0
 11
156.08477736125599
 21
107.7862586506059
 31
0.0
  0
LINE
  5
43A
  8
0
  6
CONTINUOUS
 10
160.48496113793129
 20
108.48317929539969
 30
0.0
 11
160.84005994273181
 21
107.7862586506059
 31
0.0
  0
LINE
  5
43B
  8
0
  6
CONTINUOUS
 10
156.08477736125599
 20
107.7862586506059
 30
0.0
 11
155.96241865199389
 21
107.01371616466849
 31
0.0
  0
LINE
  5
43C
  8
0
  6
CONTINUOUS
 10
160.84005994273181
 20
107.7862586506059
 30
0.0
 11
160.96241865199389
 21
107.01371616466849
 31
0.0
  0
LINE
  5
43D
  8
0
  6
CONTINUOUS
 10
155.96241865199389
 20
107.01371616466849
 30
0.0
 11
156.08477736125599
 21
106.2411736787312
 31
0.0
  0
LINE
  5
43E
  8
0
  6
CONTINUOUS
 10
160.96241865199389
 20
107.01371616466849
 30
0.0
 11
160.84005994273181
 21
106.2411736787312
 31
0.0
  0
LINE
  5
43F
  8
0
  6
CONTINUOUS
 10
156.08477736125599
 20
106.2411736787312
 30
0.0
 11
156.43987616605651
 21
105.5442530339373
 31
0.0
  0
LINE
  5
440
  8
0
  6
CONTINUOUS
 10
160.84005994273181
 20
106.2411736787312
 30
0.0
 11
160.48496113793129
 21
105.5442530339373
 31
0.0
  0
LINE
  5
441
  8
0
  6
CONTINUOUS
 10
156.43987616605651
 20
105.5442530339373
 30
0.0
 11
156.9929555212627
 21
104.9911736787311
 31
0.0
  0
LINE
  5
442
  8
0
  6
CONTINUOUS
 10
160.48496113793129
 20
105.5442530339373
 30
0.0
 11
159.9318817827251
 21
104.9911736787311
 31
0.0
  0
LINE
  5
443
  8
0
  6
CONTINUOUS
 10
159.23496113793129
 20
104.6360748739306
 30
0.0
 11
158.46241865199389
 21
104.51371616466849
 31
0.0
  0
LINE
  5
444
  8
0
  6
CONTINUOUS
 10
158.46241865199389
 20
104.51371616466849
 30
0.0
 11
157.68987616605651
 21
104.6360748739306
 31
0.0
  0
LINE
  5
445
  8
0
  6
CONTINUOUS
 10
156.9929555212627
 20
104.9911736787311
 30
0.0
 11
157.68987616605651
 21
104.6360748739306
 31
0.0
  0
LINE
  5
446
  8
0
  6
CONTINUOUS
 10
159.9318817827251
 20
104.9911736787311
 30
0.0
 11
159.23496113793129
 21
104.6360748739306
 31
0.0
  0
ENDBLK
  5
448
  8
0
  0
BLOCK
  8
0
  2
*U28
 70
     1
 10
0.0
 20
0.0
 30
0.0
  3
*U28
  1

  0
TEXT
  5
44A
  8
0
 10
321.06901308298268
 20
178.4491752794884
 30
0.0
 40
12.5
  1
Nails/Staples inside bitumen
  7
ARIAL
  0
TEXT
  5
44B
  8
0
 10
322.23715769416958
 20
158.8288022033928
 30
0.0
 40
12.5
  1
foam
  7
ARIAL
  0
ENDBLK
  5
44D
  8
0
  0
ENDSEC
  0
SECTION
  2
ENTITIES
  0
CIRCLE
  5
178
  8
0
 10
198.7279316067515
 20
73.928764924181664
 30
0.0
 40
2.5
1001
REVIT
1002
{
1070
     1
1000
576854
1002
}
1002
{
1070
     5
1000
233013
1002
}
1002
{
1070
     2
1000
-2005028
1002
}
  0
INSERT
  5
179
  8
0
  6
CONTINUOUS
  2
*U19
 10
0.0
 20
0.0
 30
0.0
1001
REVIT
1002
{
1070
     1
1000
576854
1002
}
1002
{
1070
     5
1000
233013
1002
}
1002
{
1070
     2
1000
-2005028
1002
}
1001
ACAD
1002
{
1000
R14_HATCH_DATA
1000
179
1011
1.0
1021
0.0
1031
0.0
1021
0.0
1031
0.0
1011
0.0
1021
0.0
1031
0.0
1021
1.0
1031
0.0
1011
0.0
1021
0.0
1031
0.0
1021
0.0
1031
1.0
1040
0.0
1010
0.0
1020
0.0
1030
1.0
1000
SOLID
1070
     1
1070
     0
1071
        1
1071
        0
1071
        1
1070
     2
1040
198.7279316067515
1040
73.928764924181664
1040
2.5
1040
0.0
1040
6.2831853071795862
1070
     1
1071
        0
1070
     0
1070
     1
1071
        1
1040
0.0
1040
0.0
1040
0.0
1002
}
  0
LINE
  5
17A
  8
0
 10
254.3242591641436
 20
116.5810050540329
 30
0.0
 11
319.60654744709387
 21
116.58704712145099
 31
0.0
1001
REVIT
1002
{
1070
     1
1000
576854
1002
}
1002
{
1070
     5
1000
233013
1002
}
1002
{
1070
     2
1000
-2005028
1002
}
  0
LINE
  5
17B
  8
0
 10
198.7279316067515
 20
73.928764924181664
 30
0.0
 11
254.3242591641436
 21
116.5810050540329
 31
0.0
1001
REVIT
1002
{
1070
     1
1000
576854
1002
}
1002
{
1070
     5
1000
233013
1002
}
1002
{
1070
     2
1000
-2005028
1002
}
  0
INSERT
  5
17D
  8
0
  2
*U20
 10
0.0
 20
0.0
 30
0.0
  0
CIRCLE
  5
17E
  8
0
 10
65.109298718157589
 20
129.3865755341422
 30
0.0
 40
2.4999999999999938
1001
REVIT
1002
{
1070
     1
1000
576858
1002
}
1002
{
1070
     5
1000
233013
1002
}
1002
{
1070
     2
1000
-2005028
1002
}
  0
INSERT
  5
17F
  8
0
  6
CONTINUOUS
  2
*U21
 10
0.0
 20
0.0
 30
0.0
1001
REVIT
1002
{
1070
     1
1000
576858
1002
}
1002
{
1070
     5
1000
233013
1002
}
1002
{
1070
     2
1000
-2005028
1002
}
1001
ACAD
1002
{
1000
R14_HATCH_DATA
1000
17F
1011
1.0
1021
0.0
1031
0.0
1021
0.0
1031
0.0
1011
0.0
1021
0.0
1031
0.0
1021
1.0
1031
0.0
1011
0.0
1021
0.0
1031
0.0
1021
0.0
1031
1.0
1040
0.0
1010
0.0
1020
0.0
1030
1.0
1000
SOLID
1070
     1
1070
     0
1071
        1
1071
        0
1071
        1
1070
     2
1040
65.109298718157589
1040
129.3865755341422
1040
2.4999999999999938
1040
0.0
1040
6.2831853071795862
1070
     1
1071
        0
1070
     0
1070
     1
1071
        1
1040
0.0
1040
0.0
1040
0.0
1002
}
  0
LINE
  5
180
  8
0
 10
184.7825816944864
 20
277.14991259615181
 30
0.0
 11
319.60654744709387
 21
277.15595466357001
 31
0.0
1001
REVIT
1002
{
1070
     1
1000
576858
1002
}
1002
{
1070
     5
1000
233013
1002
}
1002
{
1070
     2
1000
-2005028
1002
}
  0
LINE
  5
181
  8
0
 10
65.109298718157589
 20
129.3865755341422
 30
0.0
 11
184.7825816944864
 21
277.14991259615181
 31
0.0
1001
REVIT
1002
{
1070
     1
1000
576858
1002
}
1002
{
1070
     5
1000
233013
1002
}
1002
{
1070
     2
1000
-2005028
1002
}
  0
INSERT
  5
182
  8
0
  2
*U22
 10
0.0
 20
0.0
 30
0.0
  0
CIRCLE
  5
183
  8
0
 10
16.44966719662046
 20
173.5933046100858
 30
0.0
 40
2.4999999999999969
1001
REVIT
1002
{
1070
     1
1000
576996
1002
}
1002
{
1070
     5
1000
233013
1002
}
1002
{
1070
     2
1000
-2005028
1002
}
  0
INSERT
  5
184
  8
0
  6
CONTINUOUS
  2
*U23
 10
0.0
 20
0.0
 30
0.0
1001
REVIT
1002
{
1070
     1
1000
576996
1002
}
1002
{
1070
     5
1000
233013
1002
}
1002
{
1070
     2
1000
-2005028
1002
}
1001
ACAD
1002
{
1000
R14_HATCH_DATA
1000
184
1011
1.0
1021
0.0
1031
0.0
1021
0.0
1031
0.0
1011
0.0
1021
0.0
1031
0.0
1021
1.0
1031
0.0
1011
0.0
1021
0.0
1031
0.0
1021
0.0
1031
1.0
1040
0.0
1010
0.0
1020
0.0
1030
1.0
1000
SOLID
1070
     1
1070
     0
1071
        1
1071
        0
1071
        1
1070
     2
1040
16.44966719662046
1040
173.5933046100858
1040
2.4999999999999969
1040
0.0
1040
6.2831853071795862
1070
     1
1071
        0
1070
     0
1070
     1
1071
        1
1040
0.0
1040
0.0
1040
0.0
1002
}
  0
LINE
  5
185
  8
0
 10
153.9392967566481
 20
320.5068636186208
 30
0.0
 11
319.60654744709387
 21
320.51290568603889
 31
0.0
1001
REVIT
1002
{
1070
     1
1000
576996
1002
}
1002
{
1070
     5
1000
233013
1002
}
1002
{
1070
     2
1000
-2005028
1002
}
  0
LINE
  5
186
  8
0
 10
16.44966719662046
 20
173.5933046100858
 30
0.0
 11
153.9392967566481
 21
320.5068636186208
 31
0.0
1001
REVIT
1002
{
1070
     1
1000
576996
1002
}
1002
{
1070
     5
1000
233013
1002
}
1002
{
1070
     2
1000
-2005028
1002
}
  0
INSERT
  5
187
  8
0
  2
*U24
 10
0.0
 20
0.0
 30
0.0
  0
CIRCLE
  5
188
  8
0
 10
136.51523182739081
 20
113.6263320545804
 30
0.0
 40
2.5000000000000022
1001
REVIT
1002
{
1070
     1
1000
576997
1002
}
1002
{
1070
     5
1000
233013
1002
}
1002
{
1070
     2
1000
-2005028
1002
}
  0
INSERT
  5
189
  8
0
  6
CONTINUOUS
  2
*U25
 10
0.0
 20
0.0
 30
0.0
1001
REVIT
1002
{
1070
     1
1000
576997
1002
}
1002
{
1070
     5
1000
233013
1002
}
1002
{
1070
     2
1000
-2005028
1002
}
1001
ACAD
1002
{
1000
R14_HATCH_DATA
1000
189
1011
1.0
1021
0.0
1031
0.0
1021
0.0
1031
0.0
1011
0.0
1021
0.0
1031
0.0
1021
1.0
1031
0.0
1011
0.0
1021
0.0
1031
0.0
1021
0.0
1031
1.0
1040
0.0
1010
0.0
1020
0.0
1030
1.0
1000
SOLID
1070
     1
1070
     0
1071
        1
1071
        0
1071
        1
1070
     2
1040
136.51523182739081
1040
113.6263320545804
1040
2.5000000000000022
1040
0.0
1040
6.2831853071795862
1070
     1
1071
        0
1070
     0
1070
     1
1071
        1
1040
0.0
1040
0.0
1040
0.0
1002
}
  0
LINE
  5
18A
  8
0
 10
223.98967586872649
 20
226.1506749036524
 30
0.0
 11
319.60654744709387
 21
226.15671697107049
 31
0.0
1001
REVIT
1002
{
1070
     1
1000
576997
1002
}
1002
{
1070
     5
1000
233013
1002
}
1002
{
1070
     2
1000
-2005028
1002
}
  0
LINE
  5
18B
  8
0
 10
136.51523182739081
 20
113.6263320545804
 30
0.0
 11
223.98967586872649
 21
226.1506749036524
 31
0.0
1001
REVIT
1002
{
1070
     1
1000
576997
1002
}
1002
{
1070
     5
1000
233013
1002
}
1002
{
1070
     2
1000
-2005028
1002
}
  0
INSERT
  5
18C
  8
0
  2
*U26
 10
0.0
 20
0.0
 30
0.0
  0
CIRCLE
  5
18D
  8
0
 10
158.46241865199389
 20
107.01371616466849
 30
0.0
 40
2.500000000000012
1001
REVIT
1002
{
1070
     1
1000
576998
1002
}
1002
{
1070
     5
1000
233011
1002
}
1002
{
1070
     2
1000
-2005028
1002
}
  0
INSERT
  5
18E
  8
0
  6
CONTINUOUS
  2
*U27
 10
0.0
 20
0.0
 30
0.0
1001
REVIT
1002
{
1070
     1
1000
576998
1002
}
1002
{
1070
     5
1000
233011
1002
}
1002
{
1070
     2
1000
-2005028
1002
}
1001
ACAD
1002
{
1000
R14_HATCH_DATA
1000
18E
1011
1.0
1021
0.0
1031
0.0
1021
0.0
1031
0.0
1011
0.0
1021
0.0
1031
0.0
1021
1.0
1031
0.0
1011
0.0
1021
0.0
1031
0.0
1021
0.0
1031
1.0
1040
0.0
1010
0.0
1020
0.0
1030
1.0
1000
SOLID
1070
     1
1070
     0
1071
        1
1071
        0
1071
        1
1070
     2
1040
158.46241865199389
1040
107.01371616466849
1040
2.500000000000012
1040
0.0
1040
6.2831853071795862
1070
     1
1071
        0
1070
     0
1070
     1
1071
        1
1040
0.0
1040
0.0
1040
0.0
1002
}
  0
LINE
  5
18F
  8
0
 10
245.1797708059338
 20
174.1266511353293
 30
0.0
 11
320.03277989669459
 21
174.13269320274739
 31
0.0
1001
REVIT
1002
{
1070
     1
1000
576998
1002
}
1002
{
1070
     5
1000
233011
1002
}
1002
{
1070
     2
1000
-2005028
1002
}
  0
LINE
  5
190
  8
0
 10
158.46241865199389
 20
107.01371616466849
 30
0.0
 11
245.1797708059338
 21
174.1266511353293
 31
0.0
1001
REVIT
1002
{
1070
     1
1000
576998
1002
}
1002
{
1070
     5
1000
233011
1002
}
1002
{
1070
     2
1000
-2005028
1002
}
  0
INSERT
  5
191
  8
0
  2
*U28
 10
0.0
 20
0.0
 30
0.0
  0
LINE
  5
1F5
  8
0
 10
529.1785286527238
 20
-141.2635891837887
 30
0.0
 11
529.1785286527238
 21
-64.817582325388841
 31
0.0
  0
LINE
  5
1F6
  8
0
 10
529.1785286527238
 20
18.736410816211251
 30
0.0
 11
529.1785286527238
 21
-57.709596042188643
 31
0.0
  0
LINE
  5
1F7
  8
0
 10
529.1785286527238
 20
18.736410816211251
 30
0.0
 11
529.1785286527238
 21
-57.709596042188643
 31
0.0
  0
LINE
  5
1F8
  8
0
 10
529.1785286527238
 20
-57.709596042188643
 30
0.0
 11
539.48614781360448
 21
-59.527107407119431
 31
0.0
  0
LINE
  5
1F9
  8
0
 10
539.48614781360448
 20
-59.527107407119431
 30
0.0
 11
518.87090949184278
 21
-63.000070960458054
 31
0.0
  0
LINE
  5
1FA
  8
0
 10
518.87090949184278
 20
-63.000070960458054
 30
0.0
 11
529.1785286527238
 21
-64.817582325388841
 31
0.0
  0
LINE
  5
1FB
  8
0
 10
529.1785286527238
 20
-64.817582325388841
 30
0.0
 11
529.1785286527238
 21
-141.2635891837887
 31
0.0
  0
LINE
  5
1FC
  8
0
 10
-529.17852865272346
 20
-141.2635891837887
 30
0.0
 11
-529.17852865272346
 21
-64.817582325388841
 31
0.0
  0
LINE
  5
1FD
  8
0
 10
-529.17852865272346
 20
18.736410816211251
 30
0.0
 11
-529.17852865272346
 21
-57.709596042188643
 31
0.0
  0
LINE
  5
1FE
  8
0
 10
-529.17852865272346
 20
-141.2635891837887
 30
0.0
 11
-529.17852865272346
 21
-64.817582325388841
 31
0.0
  0
LINE
  5
1FF
  8
0
 10
-529.17852865272346
 20
-64.817582325388841
 30
0.0
 11
-518.87090949184267
 21
-63.000070960458061
 31
0.0
  0
LINE
  5
200
  8
0
 10
-518.87090949184267
 20
-63.000070960458061
 30
0.0
 11
-539.48614781360425
 21
-59.527107407119431
 31
0.0
  0
LINE
  5
201
  8
0
 10
-539.48614781360425
 20
-59.527107407119431
 30
0.0
 11
-529.17852865272346
 21
-57.709596042188643
 31
0.0
  0
LINE
  5
202
  8
0
 10
-529.17852865272346
 20
-57.709596042188643
 30
0.0
 11
-529.17852865272346
 21
18.736410816211251
 31
0.0
  0
LINE
  5
203
  8
0
 10
-502.94470850818578
 20
-25.01332142961579
 30
0.0
 11
-499.20306199189781
 21
-23.599079106970709
 31
0.0
1001
REVIT
1002
{
1070
     3
1000
211597
1002
}
  0
LINE
  5
204
  8
0
 10
-493.14452727387641
 20
-46.699006749076837
 30
0.0
 11
-501.27642062908279
 21
-25.184539280427991
 31
0.0
1001
REVIT
1002
{
1070
     3
1000
211597
1002
}
  0
LINE
  5
205
  8
0
 10
-491.96970029801719
 20
-48.393049716889237
 30
0.0
 11
-493.14452727387641
 21
-46.699006749076837
 31
0.0
1001
REVIT
1002
{
1070
     3
1000
211597
1002
}
  0
LINE
  5
206
  8
0
 10
-492.20911564480468
 20
-46.345446168415698
 30
0.0
 11
-491.96970029801719
 21
-48.393049716889237
 31
0.0
1001
REVIT
1002
{
1070
     3
1000
211597
1002
}
  0
LINE
  5
207
  8
0
 10
-500.34100900001113
 20
-24.830978699766849
 30
0.0
 11
-492.20911564480468
 21
-46.345446168415698
 31
0.0
1001
REVIT
1002
{
1070
     3
1000
211597
1002
}
  0
LINE
  5
208
  8
0
 10
-499.21864269035638
 20
-24.40675424945734
 30
0.0
 11
-500.34100900001113
 21
-24.830978699766849
 31
0.0
1001
REVIT
1002
{
1070
     3
1000
211597
1002
}
  0
LINE
  5
209
  8
0
 10
-501.27642062908279
 20
-25.184539280427991
 30
0.0
 11
-502.39878693873709
 21
-25.608763730737341
 31
0.0
1001
REVIT
1002
{
1070
     3
1000
211597
1002
}
  0
LINE
  5
20A
  8
0
 10
-502.94470850818578
 20
-25.01332142961579
 30
0.0
 11
-502.39878693873709
 21
-25.608763730737341
 31
0.0
1001
REVIT
1002
{
1070
     3
1000
211597
1002
}
  0
LINE
  5
20B
  8
0
 10
-499.20306199189781
 20
-23.599079106970709
 30
0.0
 11
-499.21864269035638
 21
-24.40675424945734
 31
0.0
1001
REVIT
1002
{
1070
     3
1000
211597
1002
}
  0
LINE
  5
20C
  8
0
 10
-157.20890853268651
 20
106.11951328849869
 30
0.0
 11
-153.49811563034751
 21
107.6128371100328
 31
0.0
1001
REVIT
1002
{
1070
     3
1000
211597
1002
}
  0
LINE
  5
20D
  8
0
 10
-146.95075100395451
 20
84.646676863943242
 30
0.0
 11
-155.5373629777728
 21
105.9837360523853
 31
0.0
1001
REVIT
1002
{
1070
     3
1000
211597
1002
}
  0
LINE
  5
20E
  8
0
 10
-145.74023998039439
 20
82.977945890466515
 30
0.0
 11
-146.95075100395451
 21
84.646676863943242
 31
0.0
1001
REVIT
1002
{
1070
     3
1000
211597
1002
}
  0
LINE
  5
20F
  8
0
 10
-146.02305277836999
 20
85.020007819326636
 30
0.0
 11
-145.74023998039439
 21
82.977945890466515
 31
0.0
1001
REVIT
1002
{
1070
     3
1000
211597
1002
}
  0
LINE
  5
210
  8
0
 10
-154.60966475218831
 20
106.35706700776871
 30
0.0
 11
-146.02305277836999
 21
85.020007819326636
 31
0.0
1001
REVIT
1002
{
1070
     3
1000
211597
1002
}
  0
LINE
  5
211
  8
0
 10
-153.4965534741558
 20
106.8050132099016
 30
0.0
 11
-154.60966475218831
 21
106.35706700776871
 31
0.0
1001
REVIT
1002
{
1070
     3
1000
211597
1002
}
  0
LINE
  5
212
  8
0
 10
-155.5373629777728
 20
105.9837360523853
 30
0.0
 11
-156.65047425580491
 21
105.5357898502526
 31
0.0
1001
REVIT
1002
{
1070
     3
1000
211597
1002
}
  0
LINE
  5
213
  8
0
 10
-157.20890853268651
 20
106.11951328849869
 30
0.0
 11
-156.65047425580491
 21
105.5357898502526
 31
0.0
1001
REVIT
1002
{
1070
     3
1000
211597
1002
}
  0
LINE
  5
214
  8
0
 10
-153.49811563034751
 20
107.6128371100328
 30
0.0
 11
-153.4965534741558
 21
106.8050132099016
 31
0.0
1001
REVIT
1002
{
1070
     3
1000
211597
1002
}
  0
ARC
  5
215
  8
0
 10
-708.95393429821172
 20
-108.2658001505947
 30
0.0
 40
2.0004260768712872
 50
194.70525145964231
 51
278.70525145962381
1001
REVIT
1002
{
1070
     3
1000
578788
1002
}
  0
ARC
  5
216
  8
0
 10
-711.03571468176835
 20
-100.3334874204684
 30
0.0
 40
2.000426076870601
 50
97.574892421263712
 51
194.70525145964231
1001
REVIT
1002
{
1070
     3
1000
578788
1002
}
  0
ARC
  5
217
  8
0
 10
-520.82836685647453
 20
-40.377169076828316
 30
0.0
 40
2.6326198929475542
 50
292.23363150144479
 51
103.0072019846923
1001
REVIT
1002
{
1070
     3
1000
578788
1002
}
  0
ARC
  5
218
  8
0
 10
-533.06229184335155
 20
-37.76504492124252
 30
0.0
 40
3.0010856034007412
 50
105.693596895263
 51
283.71690602399002
1001
REVIT
1002
{
1070
     3
1000
578788
1002
}
  0
LINE
  5
219
  8
0
 10
-710.88883539964274
 20
-108.77360150615419
 30
0.0
 11
-712.97061578319858
 21
-100.8412887760277
 31
0.0
1001
REVIT
1002
{
1070
     3
1000
578788
1002
}
  0
LINE
  5
21A
  8
0
 10
-711.29941488226825
 20
-98.350518259518083
 30
0.0
 11
-565.56521073963688
 21
-60.087594516094143
 31
0.0
1001
REVIT
1002
{
1070
     3
1000
578788
1002
}
  0
LINE
  5
21B
  8
0
 10
-565.56521073963768
 20
-60.087594516094299
 30
0.0
 11
-565.35576381518513
 21
-60.02073032321865
 31
0.0
1001
REVIT
1002
{
1070
     3
1000
578788
1002
}
  0
LINE
  5
21C
  8
0
 10
-565.3557638151791
 20
-60.020730323216341
 30
0.0
 11
-519.83222511172505
 21
-42.814050100824119
 31
0.0
1001
REVIT
1002
{
1070
     3
1000
578788
1002
}
  0
LINE
  5
21D
  8
0
 10
-521.42089990701083
 20
-37.812097521341897
 30
0.0
 11
-532.35065999989808
 21
-40.68053714697767
 31
0.0
1001
REVIT
1002
{
1070
     3
1000
578788
1002
}
  0
LINE
  5
21E
  8
0
 10
-533.87406406657817
 20
-34.875833842671597
 30
0.0
 11
-500.88569933397241
 21
-26.218266633428961
 31
0.0
1001
REVIT
1002
{
1070
     3
1000
578788
1002
}
  0
LINE
  5
21F
  8
0
 10
-499.91312699045011
 20
-25.96302177670006
 30
0.0
 11
-487.34960432055999
 21
-22.66581250970329
 31
0.0
1001
REVIT
1002
{
1070
     3
1000
578788
1002
}
  0
LINE
  5
220
  8
0
 10
-696.26907257645007
 20
-106.9935866806143
 30
0.0
 11
-708.65116697031829
 21
-110.243181356682
 31
0.0
1001
REVIT
1002
{
1070
     3
1000
578788
1002
}
  0
ARC
  5
221
  8
0
 10
-187.006157061729
 20
88.689982366487484
 30
0.0
 40
2.0004260768712872
 50
195.921193196388
 51
279.92119319637118
1001
REVIT
1002
{
1070
     3
1000
578788
1002
}
  0
ARC
  5
222
  8
0
 10
-189.2557970521672
 20
96.576332265351056
 30
0.0
 40
2.0004260768706148
 50
98.790834158010796
 51
195.921193196388
1001
REVIT
1002
{
1070
     3
1000
578788
1002
}
  0
LINE
  5
223
  8
0
 10
-188.92984661164141
 20
88.141235608333417
 30
0.0
 11
-191.17948660207901
 21
96.027585507197216
 31
0.0
1001
REVIT
1002
{
1070
     3
1000
578788
1002
}
  0
LINE
  5
224
  8
0
 10
-189.56151765525391
 20
98.553259022181535
 30
0.0
 11
-44.672092218741078
 21
139.90013299299619
 31
0.0
1001
REVIT
1002
{
1070
     3
1000
578788
1002
}
  0
LINE
  5
225
  8
0
 10
-44.672092218741852
 20
139.90013299299599
 30
0.0
 11
-44.464111355878742
 21
139.9714267173639
 31
0.0
1001
REVIT
1002
{
1070
     3
1000
578788
1002
}
  0
LINE
  5
226
  8
0
 10
-44.464111355871069
 20
139.971426717367
 30
0.0
 11
-1.1322961062186321
 21
157.40932574477799
 31
0.0
1001
REVIT
1002
{
1070
     3
1000
578788
1002
}
  0
LINE
  5
227
  8
0
 10
-174.35114886979261
 20
90.231089655238165
 30
0.0
 11
-186.66149670818939
 21
86.719471333855424
 31
0.0
1001
REVIT
1002
{
1070
     3
1000
578788
1002
}
  0
LINE
  5
228
  8
0
 10
-44.464111355871069
 20
139.971426717367
 30
0.0
 11
-1.1322961062186321
 21
157.40932574477799
 31
0.0
1001
REVIT
1002
{
1070
     3
1000
578788
1002
}
  0
LINE
  5
229
  8
0
 10
-1.299920425255606
 20
162.40651516360811
 30
0.0
 11
-1.1322961062186889
 21
157.4093257447779
 31
0.0
1001
REVIT
1002
{
1070
     3
1000
578788
1002
}
  0
LINE
  5
22A
  8
0
 10
-185.9421042408502
 20
96.63789838287542
 30
0.0
 11
-155.0400411536136
 21
104.74793021532849
 31
0.0
1001
REVIT
1002
{
1070
     3
1000
578788
1002
}
  0
LINE
  5
22B
  8
0
 10
-154.06507472499629
 20
105.0038033830629
 30
0.0
 11
-139.37647830588239
 21
108.858723496221
 31
0.0
1001
REVIT
1002
{
1070
     3
1000
578788
1002
}
  0
LINE
  5
22C
  8
0
 10
-173.4779211610936
 20
93.699036613092005
 30
0.0
 11
-184.41735222214561
 21
90.828058909029437
 31
0.0
1001
REVIT
1002
{
1070
     3
1000
578788
1002
}
  0
LINE
  5
22D
  8
0
 10
-217.4516599088461
 20
71.470752969932761
 30
0.0
 11
-171.88784066035339
 21
88.692658161152181
 31
0.0
1001
REVIT
1002
{
1070
     3
1000
578788
1002
}
  0
LINE
  5
22E
  8
0
 10
-217.66129215800021
 20
71.403829613683726
 30
0.0
 11
-217.4516599088461
 21
71.470752969932775
 31
0.0
1001
REVIT
1002
{
1070
     3
1000
578788
1002
}
  0
LINE
  5
22F
  8
0
 10
-363.5244461437216
 20
33.10704972755186
 30
0.0
 11
-217.66129215800029
 21
71.403829613683641
 31
0.0
1001
REVIT
1002
{
1070
     3
1000
578788
1002
}
  0
LINE
  5
230
  8
0
 10
-363.11350336848272
 20
22.67474383509234
 30
0.0
 11
-365.19712577159328
 21
30.614075305177
 31
0.0
1001
REVIT
1002
{
1070
     3
1000
578788
1002
}
  0
LINE
  5
231
  8
0
 10
-355.59042439955999
 20
22.012837747154531
 30
0.0
 11
-360.8738549853478
 21
21.203863657765819
 31
0.0
1001
REVIT
1002
{
1070
     3
1000
578788
1002
}
  0
LINE
  5
232
  8
0
 10
-390.79588877811318
 20
5.95127009352555
 30
0.0
 11
-354.93261424113149
 21
19.506628799391809
 31
0.0
1001
REVIT
1002
{
1070
     3
1000
578788
1002
}
  0
LINE
  5
233
  8
0
 10
-537.01014091879449
 20
-32.421644875680791
 30
0.0
 11
-390.7958887781125
 21
5.9512700935257641
 31
0.0
1001
REVIT
1002
{
1070
     3
1000
578788
1002
}
  0
LINE
  5
234
  8
0
 10
-536.34533622380854
 20
-42.80259991656532
 30
0.0
 11
-538.43846116621739
 21
-34.86666961943321
 31
0.0
1001
REVIT
1002
{
1070
     3
1000
578788
1002
}
  0
LINE
  5
235
  8
0
 10
-521.56742131716453
 20
-40.788810473367697
 30
0.0
 11
-533.96047174663624
 21
-44.041280484886322
 31
0.0
1001
REVIT
1002
{
1070
     3
1000
578788
1002
}
  0
ARC
  5
236
  8
0
 10
-185.12961373805811
 20
93.746130846694385
 30
0.0
 40
3.003741050829444
 50
105.693596895263
 51
283.71690602400338
1001
REVIT
1002
{
1070
     3
1000
578788
1002
}
  0
ARC
  5
237
  8
0
 10
-172.8848638201585
 20
91.131695408030126
 30
0.0
 40
2.6349493112479041
 50
292.23363150144479
 51
103.0072019847123
1001
REVIT
1002
{
1070
     3
1000
578788
1002
}
  0
ARC
  5
238
  8
0
 10
-363.26051261364961
 20
31.122325978077399
 30
0.0
 40
2.0021961117793392
 50
97.574892421257189
 51
194.70525145964231
1001
REVIT
1002
{
1070
     3
1000
578788
1002
}
  0
ARC
  5
239
  8
0
 10
-361.17689021053837
 20
23.18299450799292
 30
0.0
 40
2.0021961117799791
 50
194.70525145964231
 51
278.70525145961727
1001
REVIT
1002
{
1070
     3
1000
578788
1002
}
  0
ARC
  5
23A
  8
0
 10
-355.42124611205207
 20
20.71780943198635
 30
0.0
 40
1.3060320172382529
 50
291.97084088019812
 51
97.442785854446427
1001
REVIT
1002
{
1070
     3
1000
578788
1002
}
  0
ARC
  5
23B
  8
0
 10
-536.50189024589486
 20
-34.358258033624367
 30
0.0
 40
2.0021961117790461
 50
104.7052514596238
 51
194.7100122096534
1001
REVIT
1002
{
1070
     3
1000
578788
1002
}
  0
ARC
  5
23C
  8
0
 10
-534.46872241954088
 20
-42.104667326944018
 30
0.0
 40
2.0021961117791012
 50
200.40070197182871
 51
284.70525145976552
1001
REVIT
1002
{
1070
     3
1000
578788
1002
}
  0
LINE
  5
23D
  8
0
 10
502.94470850818919
 20
-25.0133214296158
 30
0.0
 11
499.20306199190122
 21
-23.599079106970709
 31
0.0
1001
REVIT
1002
{
1070
     3
1000
211597
1002
}
  0
LINE
  5
23E
  8
0
 10
493.14452727387982
 20
-46.69900674907683
 30
0.0
 11
501.27642062908632
 21
-25.184539280427991
 31
0.0
1001
REVIT
1002
{
1070
     3
1000
211597
1002
}
  0
LINE
  5
23F
  8
0
 10
491.9697002980206
 20
-48.393049716889223
 30
0.0
 11
493.14452727387982
 21
-46.69900674907683
 31
0.0
1001
REVIT
1002
{
1070
     3
1000
211597
1002
}
  0
LINE
  5
240
  8
0
 10
492.20911564480821
 20
-46.345446168415677
 30
0.0
 11
491.9697002980206
 21
-48.393049716889223
 31
0.0
1001
REVIT
1002
{
1070
     3
1000
211597
1002
}
  0
LINE
  5
241
  8
0
 10
500.34100900001459
 20
-24.830978699766849
 30
0.0
 11
492.20911564480821
 21
-46.345446168415677
 31
0.0
1001
REVIT
1002
{
1070
     3
1000
211597
1002
}
  0
LINE
  5
242
  8
0
 10
499.21864269035979
 20
-24.40675424945734
 30
0.0
 11
500.34100900001459
 21
-24.830978699766838
 31
0.0
1001
REVIT
1002
{
1070
     3
1000
211597
1002
}
  0
LINE
  5
243
  8
0
 10
501.27642062908632
 20
-25.184539280427991
 30
0.0
 11
502.39878693874061
 21
-25.608763730737341
 31
0.0
1001
REVIT
1002
{
1070
     3
1000
211597
1002
}
  0
LINE
  5
244
  8
0
 10
502.94470850818919
 20
-25.0133214296158
 30
0.0
 11
502.39878693874061
 21
-25.608763730737341
 31
0.0
1001
REVIT
1002
{
1070
     3
1000
211597
1002
}
  0
LINE
  5
245
  8
0
 10
499.20306199190122
 20
-23.599079106970709
 30
0.0
 11
499.21864269035979
 21
-24.40675424945734
 31
0.0
1001
REVIT
1002
{
1070
     3
1000
211597
1002
}
  0
LINE
  5
246
  8
0
 10
157.20890853269
 20
106.11951328849869
 30
0.0
 11
153.4981156303509
 21
107.6128371100328
 31
0.0
1001
REVIT
1002
{
1070
     3
1000
211597
1002
}
  0
LINE
  5
247
  8
0
 10
146.95075100395789
 20
84.646676863943242
 30
0.0
 11
155.53736297777621
 21
105.9837360523853
 31
0.0
1001
REVIT
1002
{
1070
     3
1000
211597
1002
}
  0
LINE
  5
248
  8
0
 10
145.7402399803978
 20
82.977945890466515
 30
0.0
 11
146.95075100395789
 21
84.646676863943242
 31
0.0
1001
REVIT
1002
{
1070
     3
1000
211597
1002
}
  0
LINE
  5
249
  8
0
 10
146.02305277837351
 20
85.020007819326636
 30
0.0
 11
145.7402399803978
 21
82.977945890466515
 31
0.0
1001
REVIT
1002
{
1070
     3
1000
211597
1002
}
  0
LINE
  5
24A
  8
0
 10
154.60966475219169
 20
106.35706700776871
 30
0.0
 11
146.02305277837351
 21
85.020007819326636
 31
0.0
1001
REVIT
1002
{
1070
     3
1000
211597
1002
}
  0
LINE
  5
24B
  8
0
 10
153.49655347415921
 20
106.8050132099016
 30
0.0
 11
154.60966475219169
 21
106.35706700776871
 31
0.0
1001
REVIT
1002
{
1070
     3
1000
211597
1002
}
  0
LINE
  5
24C
  8
0
 10
155.53736297777621
 20
105.9837360523853
 30
0.0
 11
156.65047425580829
 21
105.5357898502526
 31
0.0
1001
REVIT
1002
{
1070
     3
1000
211597
1002
}
  0
LINE
  5
24D
  8
0
 10
157.20890853269
 20
106.11951328849869
 30
0.0
 11
156.65047425580829
 21
105.5357898502526
 31
0.0
1001
REVIT
1002
{
1070
     3
1000
211597
1002
}
  0
LINE
  5
24E
  8
0
 10
153.4981156303509
 20
107.6128371100328
 30
0.0
 11
153.49655347415921
 21
106.8050132099016
 31
0.0
1001
REVIT
1002
{
1070
     3
1000
211597
1002
}
  0
ARC
  5
24F
  8
0
 10
708.95393429821513
 20
-108.2658001505947
 30
0.0
 40
2.0004260768712872
 50
261.29474854037608
 51
345.29474854035772
1001
REVIT
1002
{
1070
     3
1000
578788
1002
}
  0
ARC
  5
250
  8
0
 10
711.03571468177165
 20
-100.3334874204684
 30
0.0
 40
2.000426076870601
 50
345.29474854035772
 51
82.425107578736203
1001
REVIT
1002
{
1070
     3
1000
578788
1002
}
  0
ARC
  5
251
  8
0
 10
520.82836685647794
 20
-40.377169076828316
 30
0.0
 40
2.6326198929475808
 50
76.992798015307699
 51
247.76636849855481
1001
REVIT
1002
{
1070
     3
1000
578788
1002
}
  0
ARC
  5
252
  8
0
 10
533.06229184335496
 20
-37.765044921242527
 30
0.0
 40
3.0010856034007412
 50
256.28309397600998
 51
74.306403104737015
1001
REVIT
1002
{
1070
     3
1000
578788
1002
}
  0
LINE
  5
253
  8
0
 10
710.88883539964615
 20
-108.77360150615419
 30
0.0
 11
712.97061578320188
 21
-100.8412887760277
 31
0.0
1001
REVIT
1002
{
1070
     3
1000
578788
1002
}
  0
LINE
  5
254
  8
0
 10
711.29941488227178
 20
-98.350518259518097
 30
0.0
 11
565.56521073964041
 21
-60.08759451609415
 31
0.0
1001
REVIT
1002
{
1070
     3
1000
578788
1002
}
  0
LINE
  5
255
  8
0
 10
565.56521073964097
 20
-60.087594516094313
 30
0.0
 11
565.35576381518854
 21
-60.020730323218658
 31
0.0
1001
REVIT
1002
{
1070
     3
1000
578788
1002
}
  0
LINE
  5
256
  8
0
 10
565.3557638151824
 20
-60.020730323216362
 30
0.0
 11
519.83222511172858
 21
-42.81405010082414
 31
0.0
1001
REVIT
1002
{
1070
     3
1000
578788
1002
}
  0
LINE
  5
257
  8
0
 10
521.42089990701425
 20
-37.812097521341911
 30
0.0
 11
532.35065999990138
 21
-40.680537146977677
 31
0.0
1001
REVIT
1002
{
1070
     3
1000
578788
1002
}
  0
LINE
  5
258
  8
0
 10
533.87406406658147
 20
-34.875833842671611
 30
0.0
 11
500.88569933397582
 21
-26.218266633428971
 31
0.0
1001
REVIT
1002
{
1070
     3
1000
578788
1002
}
  0
LINE
  5
259
  8
0
 10
499.91312699045358
 20
-25.963021776700081
 30
0.0
 11
487.3496043205634
 21
-22.665812509703301
 31
0.0
1001
REVIT
1002
{
1070
     3
1000
578788
1002
}
  0
LINE
  5
25A
  8
0
 10
696.26907257645337
 20
-106.9935866806143
 30
0.0
 11
708.6511669703217
 21
-110.243181356682
 31
0.0
1001
REVIT
1002
{
1070
     3
1000
578788
1002
}
  0
ARC
  5
25B
  8
0
 10
187.0061570617323
 20
88.689982366487456
 30
0.0
 40
2.0004260768712872
 50
260.07880680362882
 51
344.07880680361149
1001
REVIT
1002
{
1070
     3
1000
578788
1002
}
  0
ARC
  5
25C
  8
0
 10
189.25579705217061
 20
96.576332265351056
 30
0.0
 40
2.0004260768706148
 50
344.07880680361149
 51
81.209165841989133
1001
REVIT
1002
{
1070
     3
1000
578788
1002
}
  0
LINE
  5
25D
  8
0
 10
188.92984661164479
 20
88.141235608333403
 30
0.0
 11
191.17948660208239
 21
96.027585507197216
 31
0.0
1001
REVIT
1002
{
1070
     3
1000
578788
1002
}
  0
LINE
  5
25E
  8
0
 10
189.56151765525729
 20
98.553259022181535
 30
0.0
 11
44.672092218744488
 21
139.90013299299619
 31
0.0
1001
REVIT
1002
{
1070
     3
1000
578788
1002
}
  0
LINE
  5
25F
  8
0
 10
44.672092218745263
 20
139.90013299299599
 30
0.0
 11
44.464111355882153
 21
139.9714267173639
 31
0.0
1001
REVIT
1002
{
1070
     3
1000
578788
1002
}
  0
LINE
  5
260
  8
0
 10
44.464111355874479
 20
139.97142671736691
 30
0.0
 11
1.132296106222042
 21
157.40932574477799
 31
0.0
1001
REVIT
1002
{
1070
     3
1000
578788
1002
}
  0
LINE
  5
261
  8
0
 10
174.35114886979611
 20
90.231089655238165
 30
0.0
 11
186.6614967081928
 21
86.719471333855424
 31
0.0
1001
REVIT
1002
{
1070
     3
1000
578788
1002
}
  0
LINE
  5
262
  8
0
 10
44.464111355874479
 20
139.97142671736691
 30
0.0
 11
1.132296106222042
 21
157.40932574477799
 31
0.0
1001
REVIT
1002
{
1070
     3
1000
578788
1002
}
  0
LINE
  5
263
  8
0
 10
1.2999204252590171
 20
162.40651516360799
 30
0.0
 11
1.132296106222042
 21
157.4093257447779
 31
0.0
1001
REVIT
1002
{
1070
     3
1000
578788
1002
}
  0
LINE
  5
264
  8
0
 10
185.94210424085361
 20
96.637898382875377
 30
0.0
 11
155.04004115361721
 21
104.7479302153284
 31
0.0
1001
REVIT
1002
{
1070
     3
1000
578788
1002
}
  0
LINE
  5
265
  8
0
 10
154.0650747249999
 20
105.0038033830628
 30
0.0
 11
139.3764783058858
 21
108.858723496221
 31
0.0
1001
REVIT
1002
{
1070
     3
1000
578788
1002
}
  0
LINE
  5
266
  8
0
 10
173.4779211610971
 20
93.699036613092005
 30
0.0
 11
184.41735222214899
 21
90.828058909029423
 31
0.0
1001
REVIT
1002
{
1070
     3
1000
578788
1002
}
  0
LINE
  5
267
  8
0
 10
217.45165990884951
 20
71.470752969932747
 30
0.0
 11
171.8878406603568
 21
88.692658161152139
 31
0.0
1001
REVIT
1002
{
1070
     3
1000
578788
1002
}
  0
LINE
  5
268
  8
0
 10
217.6612921580037
 20
71.403829613683712
 30
0.0
 11
217.45165990884951
 21
71.470752969932761
 31
0.0
1001
REVIT
1002
{
1070
     3
1000
578788
1002
}
  0
LINE
  5
269
  8
0
 10
363.5244461437249
 20
33.10704972755186
 30
0.0
 11
217.6612921580037
 21
71.403829613683627
 31
0.0
1001
REVIT
1002
{
1070
     3
1000
578788
1002
}
  0
LINE
  5
26A
  8
0
 10
363.11350336848619
 20
22.674743835092318
 30
0.0
 11
365.19712577159669
 21
30.614075305176971
 31
0.0
1001
REVIT
1002
{
1070
     3
1000
578788
1002
}
  0
LINE
  5
26B
  8
0
 10
355.5904243995634
 20
22.01283774715451
 30
0.0
 11
360.87385498535122
 21
21.203863657765812
 31
0.0
1001
REVIT
1002
{
1070
     3
1000
578788
1002
}
  0
LINE
  5
26C
  8
0
 10
390.79588877811659
 20
5.9512700935255429
 30
0.0
 11
354.93261424113501
 21
19.506628799391802
 31
0.0
1001
REVIT
1002
{
1070
     3
1000
578788
1002
}
  0
LINE
  5
26D
  8
0
 10
537.01014091879802
 20
-32.421644875680791
 30
0.0
 11
390.79588877811591
 21
5.9512700935257561
 31
0.0
1001
REVIT
1002
{
1070
     3
1000
578788
1002
}
  0
LINE
  5
26E
  8
0
 10
536.34533622381196
 20
-42.80259991656532
 30
0.0
 11
538.43846116622069
 21
-34.86666961943321
 31
0.0
1001
REVIT
1002
{
1070
     3
1000
578788
1002
}
  0
LINE
  5
26F
  8
0
 10
521.56742131716794
 20
-40.788810473367697
 30
0.0
 11
533.96047174663966
 21
-44.041280484886322
 31
0.0
1001
REVIT
1002
{
1070
     3
1000
578788
1002
}
  0
ARC
  5
270
  8
0
 10
185.12961373806149
 20
93.746130846694385
 30
0.0
 40
3.003741050829444
 50
256.28309397599662
 51
74.306403104736916
1001
REVIT
1002
{
1070
     3
1000
578788
1002
}
  0
ARC
  5
271
  8
0
 10
172.88486382016191
 20
91.131695408030097
 30
0.0
 40
2.6349493112479041
 50
76.992798015287633
 51
247.76636849855501
1001
REVIT
1002
{
1070
     3
1000
578788
1002
}
  0
ARC
  5
272
  8
0
 10
363.26051261365302
 20
31.122325978077381
 30
0.0
 40
2.0021961117793392
 50
345.29474854035732
 51
82.425107578742811
1001
REVIT
1002
{
1070
     3
1000
578788
1002
}
  0
ARC
  5
273
  8
0
 10
361.17689021054179
 20
23.182994507992898
 30
0.0
 40
2.0021961117799778
 50
261.29474854037619
 51
345.29474854035732
1001
REVIT
1002
{
1070
     3
1000
578788
1002
}
  0
ARC
  5
274
  8
0
 10
355.4212461120556
 20
20.717809431986328
 30
0.0
 40
1.3060320172382529
 50
82.557214145553587
 51
248.0291591198019
1001
REVIT
1002
{
1070
     3
1000
578788
1002
}
  0
ARC
  5
275
  8
0
 10
536.50189024589838
 20
-34.358258033624367
 30
0.0
 40
2.0021961117790452
 50
345.28998779034617
 51
75.294748540376176
1001
REVIT
1002
{
1070
     3
1000
578788
1002
}
  0
ARC
  5
276
  8
0
 10
534.46872241954429
 20
-42.104667326944018
 30
0.0
 40
2.0021961117790998
 50
255.29474854023451
 51
339.59929802817101
1001
REVIT
1002
{
1070
     3
1000
578788
1002
}
  0
LINE
  5
277
  8
0
 10
0.0000000000000069
 20
177.71030392253479
 30
0.0
 11
133.96432665277459
 21
134.1826556004695
 31
0.0
1001
REVIT
1002
{
1070
     3
1000
224528
1002
}
  0
LINE
  5
278
  8
0
 10
133.96432665277459
 20
134.1826556004695
 30
0.0
 11
137.92730022360189
 21
118.2880367624888
 31
0.0
1001
REVIT
1002
{
1070
     3
1000
224528
1002
}
  0
LINE
  5
279
  8
0
 10
-0.0000000000000056
 20
177.71030392253479
 30
0.0
 11
-133.96432665277459
 21
134.1826556004695
 31
0.0
1001
REVIT
1002
{
1070
     3
1000
224528
1002
}
  0
LINE
  5
27A
  8
0
 10
-133.96432665277459
 20
134.1826556004695
 30
0.0
 11
-137.92730022360189
 21
118.2880367624888
 31
0.0
1001
REVIT
1002
{
1070
     3
1000
224528
1002
}
  0
LINE
  5
27B
  8
0
 10
0.0
 20
149.64386601453731
 30
0.0
 11
-23.492315519647651
 21
141.09336243139569
 31
0.0
1001
REVIT
1002
{
1070
     3
1000
578786
1002
}
  0
LINE
  5
27C
  8
0
 10
-30.07016386514875
 20
138.69922142811609
 30
0.0
 11
-59.200635109512227
 21
128.0965969850202
 31
0.0
1001
REVIT
1002
{
1070
     3
1000
578786
1002
}
  0
LINE
  5
27D
  8
0
 10
-65.778483455013514
 20
125.7024559817406
 30
0.0
 11
-84.572335870731806
 21
118.8620531152271
 31
0.0
1001
REVIT
1002
{
1070
     3
1000
578786
1002
}
  0
LINE
  5
27E
  8
0
 10
-84.572335870731777
 20
118.8620531152272
 30
0.0
 11
-78.144459773866387
 21
126.5224975464169
 31
0.0
1001
REVIT
1002
{
1070
     3
1000
578786
1002
}
  0
LINE
  5
27F
  8
0
 10
0.0
 20
149.64386601453731
 30
0.0
 11
23.492315519647629
 21
141.0933624313956
 31
0.0
1001
REVIT
1002
{
1070
     3
1000
578786
1002
}
  0
LINE
  5
280
  8
0
 10
65.778483455013472
 20
125.7024559817405
 30
0.0
 11
84.572335870731735
 21
118.862053115227
 31
0.0
1001
REVIT
1002
{
1070
     3
1000
578786
1002
}
  0
LINE
  5
281
  8
0
 10
84.572335870731735
 20
118.862053115227
 30
0.0
 11
78.144459773866359
 21
126.5224975464168
 31
0.0
1001
REVIT
1002
{
1070
     3
1000
578786
1002
}
  0
LINE
  5
282
  8
0
 10
-65.778483455013514
 20
125.7024559817406
 30
0.0
 11
-59.35060735814821
 21
133.3629004129302
 31
0.0
1001
REVIT
1002
{
1070
     3
1000
578786
1002
}
  0
LINE
  5
283
  8
0
 10
-59.350607358148217
 20
133.3629004129302
 30
0.0
 11
-59.200635109512227
 21
128.0965969850202
 31
0.0
1001
REVIT
1002
{
1070
     3
1000
578786
1002
}
  0
LINE
  5
284
  8
0
 10
-30.07016386514875
 20
138.69922142811609
 30
0.0
 11
-23.642287768283619
 21
146.35966585930549
 31
0.0
1001
REVIT
1002
{
1070
     3
1000
578786
1002
}
  0
LINE
  5
285
  8
0
 10
-23.642287768283619
 20
146.35966585930549
 30
0.0
 11
-23.49231551964764
 21
141.09336243139569
 31
0.0
1001
REVIT
1002
{
1070
     3
1000
578786
1002
}
  0
LINE
  5
286
  8
0
 10
30.070163865148729
 20
138.699221428116
 30
0.0
 11
59.200635109512199
 21
128.09659698502011
 31
0.0
1001
REVIT
1002
{
1070
     3
1000
578786
1002
}
  0
LINE
  5
287
  8
0
 10
65.778483455013472
 20
125.7024559817405
 30
0.0
 11
59.350607358148189
 21
133.36290041293009
 31
0.0
1001
REVIT
1002
{
1070
     3
1000
578786
1002
}
  0
LINE
  5
288
  8
0
 10
59.350607358148189
 20
133.36290041293009
 30
0.0
 11
59.200635109512199
 21
128.09659698502011
 31
0.0
1001
REVIT
1002
{
1070
     3
1000
578786
1002
}
  0
LINE
  5
289
  8
0
 10
30.070163865148729
 20
138.699221428116
 30
0.0
 11
23.642287768283609
 21
146.35966585930549
 31
0.0
1001
REVIT
1002
{
1070
     3
1000
578786
1002
}
  0
LINE
  5
28A
  8
0
 10
23.642287768283609
 20
146.35966585930549
 30
0.0
 11
23.492315519647619
 21
141.0933624313956
 31
0.0
1001
REVIT
1002
{
1070
     3
1000
578786
1002
}
  0
LINE
  5
28B
  8
0
 10
-529.72003662195596
 20
-69.442015259775559
 30
0.0
 11
-0.0000000000027187
 21
123.36031056477449
 31
0.0
  0
LINE
  5
28C
  8
0
 10
-0.0000000000027187
 20
123.36031056477449
 30
0.0
 11
-5.1303021498820822
 21
137.4556998765654
 31
0.0
  0
LINE
  5
28D
  8
0
 10
-5.1303021498820822
 20
137.4556998765654
 30
0.0
 11
-146.42844708435391
 21
86.02738096345081
 31
0.0
  0
LINE
  5
28E
  8
0
 10
-147.36866821870319
 20
85.68516845692011
 30
0.0
 11
-494.37512644782782
 21
-40.614853436460038
 31
0.0
  0
LINE
  5
28F
  8
0
 10
-495.31489025975611
 20
-40.956899491242041
 30
0.0
 11
-534.85033877183525
 21
-55.346625947984698
 31
0.0
  0
LINE
  5
290
  8
0
 10
-2.5651510749425679
 20
130.40800522067039
 30
0.0
 11
-492.04510741463861
 21
-47.748129156674253
 31
0.0
1001
REVIT
1002
{
1070
     3
1000
456193
1002
}
  0
LINE
  5
291
  8
0
 10
-492.34201249094212
 20
-47.856193766851128
 30
0.0
 11
-532.28518769689583
 21
-62.394320603879663
 31
0.0
1001
REVIT
1002
{
1070
     3
1000
456193
1002
}
  0
LINE
  5
292
  8
0
 10
-1.710100716629154
 20
128.0587736687047
 30
0.0
 11
-531.43013733858231
 21
-64.743552155845322
 31
0.0
1001
REVIT
1002
{
1070
     3
1000
456193
1002
}
  0
LINE
  5
293
  8
0
 10
-3.4202014332555049
 20
132.7572367726348
 30
0.0
 11
-492.60718961571888
 21
-45.292265915889509
 31
0.0
1001
REVIT
1002
{
1070
     3
1000
456193
1002
}
  0
LINE
  5
294
  8
0
 10
-493.54695342764722
 20
-45.634311970671519
 30
0.0
 11
-533.1402380552081
 21
-60.045089051915078
 31
0.0
1001
REVIT
1002
{
1070
     3
1000
456193
1002
}
  0
LINE
  5
295
  8
0
 10
-4.2752517915687234
 20
135.10646832459989
 30
0.0
 11
-145.82455357241821
 21
83.586735795271807
 31
0.0
1001
REVIT
1002
{
1070
     3
1000
456193
1002
}
  0
LINE
  5
296
  8
0
 10
-146.10722757093271
 20
83.483850873811633
 30
0.0
 11
-493.4911580317733
 21
-42.953559676174983
 31
0.0
1001
REVIT
1002
{
1070
     3
1000
456193
1002
}
  0
LINE
  5
297
  8
0
 10
-494.4309218437017
 20
-43.295605730956993
 30
0.0
 11
-533.99528841352128
 21
-57.695857499949959
 31
0.0
1001
REVIT
1002
{
1070
     3
1000
456193
1002
}
  0
LINE
  5
298
  8
0
 10
-0.8550503583159361
 20
125.7095421167396
 30
0.0
 11
-530.57508698026902
 21
-67.092783707810412
 31
0.0
1001
REVIT
1002
{
1070
     3
1000
456193
1002
}
  0
LINE
  5
299
  8
0
 10
534.63962253424404
 20
-55.269931509625017
 30
0.0
 11
495.31489025975941
 21
-40.956899491242687
 31
0.0
  0
LINE
  5
29A
  8
0
 10
494.37512644783118
 20
-40.614853436460713
 30
0.0
 11
147.36866821870831
 21
85.685168456923634
 31
0.0
  0
LINE
  5
29B
  8
0
 10
146.42844708435899
 20
86.027380963454377
 30
0.0
 11
5.1303021498850399
 21
137.45569987657171
 31
0.0
  0
LINE
  5
29C
  8
0
 10
5.130302149885039
 20
137.45569987657171
 30
0.0
 11
0.0000000000055027
 21
123.3603105647809
 31
0.0
  0
LINE
  5
29D
  8
0
 10
0.0000000000055036
 20
123.3603105647809
 30
0.0
 11
529.50932038436451
 21
-69.365320821415821
 31
0.0
  0
LINE
  5
29E
  8
0
 10
2.5651510749454389
 20
130.4080052206767
 30
0.0
 11
492.04510741464202
 21
-47.748129156674963
 31
0.0
1001
REVIT
1002
{
1070
     3
1000
456193
1002
}
  0
LINE
  5
29F
  8
0
 10
492.34201249094502
 20
-47.856193766851611
 30
0.0
 11
532.0744714593045
 21
-62.317626165519947
 31
0.0
1001
REVIT
1002
{
1070
     3
1000
456193
1002
}
  0
LINE
  5
2A0
  8
0
 10
1.7101007166319959
 20
128.0587736687111
 30
0.0
 11
531.21942110099087
 21
-64.666857717485584
 31
0.0
1001
REVIT
1002
{
1070
     3
1000
456193
1002
}
  0
LINE
  5
2A1
  8
0
 10
3.4202014332584052
 20
132.75723677264111
 30
0.0
 11
492.60718961572229
 21
-45.292265915890191
 31
0.0
1001
REVIT
1002
{
1070
     3
1000
456193
1002
}
  0
LINE
  5
2A2
  8
0
 10
493.54695342765058
 20
-45.634311970672186
 30
0.0
 11
532.92952181761666
 21
-59.968394613555382
 31
0.0
1001
REVIT
1002
{
1070
     3
1000
456193
1002
}
  0
LINE
  5
2A3
  8
0
 10
4.2752517915716526
 20
135.1064683246062
 30
0.0
 11
145.8245535724223
 21
83.5867357952757
 31
0.0
1001
REVIT
1002
{
1070
     3
1000
456193
1002
}
  0
LINE
  5
2A4
  8
0
 10
146.1072275709387
 20
83.483850873814873
 30
0.0
 11
493.49115803177659
 21
-42.953559676175637
 31
0.0
1001
REVIT
1002
{
1070
     3
1000
456193
1002
}
  0
LINE
  5
2A5
  8
0
 10
494.43092184370482
 20
-43.295605730957639
 30
0.0
 11
533.78457217592995
 21
-57.619163061590292
 31
0.0
1001
REVIT
1002
{
1070
     3
1000
456193
1002
}
  0
LINE
  5
2A6
  8
0
 10
0.8550503583187495
 20
125.70954211674599
 30
0.0
 11
530.36437074267758
 21
-67.016089269450674
 31
0.0
1001
REVIT
1002
{
1070
     3
1000
456193
1002
}
  0
LINE
  5
2A7
  8
0
  6
DASH
 10
0.0
 20
144.64386601453739
 30
0.0
 11
-148.29615172843631
 21
90.668480929162214
 31
0.0
1001
REVIT
1002
{
1070
     3
1000
217411
1002
}
  0
LINE
  5
2A8
  8
0
  6
DASH
 10
-149.2363728627854
 20
90.326268422631159
 30
0.0
 11
-152.2738242114263
 21
89.220726543694155
 31
0.0
1001
REVIT
1002
{
1070
     3
1000
217411
1002
}
  0
LINE
  5
2A9
  8
0
  6
DASH
 10
538.12857768950391
 20
-51.218918472450483
 30
0.0
 11
497.08282709187358
 21
-36.27948701179875
 31
0.0
1001
REVIT
1002
{
1070
     3
1000
217411
1002
}
  0
LINE
  5
2AA
  8
0
  6
DASH
 10
496.14306327994558
 20
-35.937440957016427
 30
0.0
 11
149.2363728627866
 21
90.32626842263079
 31
0.0
1001
REVIT
1002
{
1070
     3
1000
217411
1002
}
  0
LINE
  5
2AB
  8
0
  6
DASH
 10
148.29615172843751
 20
90.668480929161873
 30
0.0
 11
0.00000000000216
 21
144.6438660145372
 31
0.0
1001
REVIT
1002
{
1070
     3
1000
217411
1002
}
  0
LINE
  5
2AC
  8
0
  6
DASH
 10
-5.8143424366106133
 20
139.3350851183518
 30
0.0
 11
-147.17552894202359
 21
87.88382094982839
 31
0.0
1001
REVIT
1002
{
1070
     3
1000
217411
1002
}
  0
LINE
  5
2AD
  8
0
  6
DASH
 10
-148.11575007637259
 20
87.541608443297349
 30
0.0
 11
-495.0823011806774
 21
-38.743888444672571
 31
0.0
1001
REVIT
1002
{
1070
     3
1000
217411
1002
}
  0
LINE
  5
2AE
  8
0
  6
DASH
 10
-496.02206499260552
 20
-39.085934499454943
 30
0.0
 11
-529.17852865272459
 21
-51.15390034526726
 31
0.0
1001
REVIT
1002
{
1070
     3
1000
217411
1002
}
  0
VIEWPORT
  5
1E4
 67
     1
  8
0
 10
128.5
 20
97.5
 30
0.0
 40
620.98982300884961
 41
222.18000000000001
 68
     1
 69
     1
1001
ACAD
1000
MVIEW
1002
{
1070
    16
1010
0.0
1020
0.0
1030
0.0
1010
0.0
1020
0.0
1030
1.0
1040
0.0
1040
222.18000000000001
1040
128.5
1040
97.5
1040
50.0
1040
0.0
1040
0.0
1070
     0
1070
   100
1070
     1
1070
     1
1070
     0
1070
     0
1070
     0
1070
     0
1040
0.0
1040
0.0
1040
0.0
1040
10.0
1040
10.0
1040
10.0
1040
10.0
1070
     0
1002
{
1002
}
1002
}
  0
VIEWPORT
  5
1E8
 67
     1
  8
0
 10
128.5
 20
97.5
 30
0.0
 40
205.59999999999999
 41
156.0
 68
     2
 69
     2
1001
ACAD
1000
MVIEW
1002
{
1070
    16
1010
0.0
1020
0.0
1030
0.0
1010
0.0
1020
0.0
1030
1.0
1040
0.0
1040
1099.439526777395
1040
0.0000000000017053
1040
92.980653222401003
1040
50.0
1040
0.0
1040
0.0
1070
     0
1070
  1000
1070
     1
1070
     1
1070
     0
1070
     0
1070
     0
1070
     0
1040
0.0
1040
0.0
1040
0.0
1040
1.0
1040
1.0
1040
0.0
1040
0.0
1070
     0
1002
{
1002
}
1002
}
  0
ENDSEC
  0
EOF
