  0
SECTION
  2
HEADER
  9
$ACADVER
  1
AC1009
  9
$INSBASE
 10
0.0
 20
0.0
 30
0.0
  9
$EXTMIN
 10
-605.20235097354339
 20
-224.4675550490681
 30
0.0
  9
$EXTMAX
 10
605.20003174437534
 20
362.98052110660268
 30
0.0
  9
$LIMMIN
 10
0.0
 20
0.0
  9
$LIMMAX
 10
12.0
 20
9.0
  9
$ORTHOMODE
 70
     0
  9
$REGENMODE
 70
     1
  9
$FILLMODE
 70
     1
  9
$QTEXTMODE
 70
     0
  9
$MIRRTEXT
 70
     0
  9
$DRAGMODE
 70
     2
  9
$LTSCALE
 40
1.0
  9
$OSMODE
 70
     0
  9
$ATTMODE
 70
     1
  9
$TEXTSIZE
 40
0.2
  9
$TRACEWID
 40
0.05
  9
$TEXTSTYLE
  7
STANDARD
  9
$CLAYER
  8
0
  9
$CELTYPE
  6
BYLAYER
  9
$CECOLOR
 62
   256
  9
$DIMSCALE
 40
1.0
  9
$DIMASZ
 40
0.18
  9
$DIMEXO
 40
0.0625
  9
$DIMDLI
 40
0.38
  9
$DIMRND
 40
0.0
  9
$DIMDLE
 40
0.0
  9
$DIMEXE
 40
0.18
  9
$DIMTP
 40
0.0
  9
$DIMTM
 40
0.0
  9
$DIMTXT
 40
0.18
  9
$DIMCEN
 40
0.09
  9
$DIMTSZ
 40
0.0
  9
$DIMTOL
 70
     0
  9
$DIMLIM
 70
     0
  9
$DIMTIH
 70
     1
  9
$DIMTOH
 70
     1
  9
$DIMSE1
 70
     0
  9
$DIMSE2
 70
     0
  9
$DIMTAD
 70
     0
  9
$DIMZIN
 70
     0
  9
$DIMBLK
  1

  9
$DIMASO
 70
     1
  9
$DIMSHO
 70
     1
  9
$DIMPOST
  1

  9
$DIMAPOST
  1

  9
$DIMALT
 70
     0
  9
$DIMALTD
 70
     2
  9
$DIMALTF
 40
25.399999999999999
  9
$DIMLFAC
 40
1.0
  9
$DIMTOFL
 70
     0
  9
$DIMTVP
 40
0.0
  9
$DIMTIX
 70
     0
  9
$DIMSOXD
 70
     0
  9
$DIMSAH
 70
     0
  9
$DIMBLK1
  1

  9
$DIMBLK2
  1

  9
$DIMSTYLE
  2
STANDARD
  9
$DIMCLRD
 70
     0
  9
$DIMCLRE
 70
     0
  9
$DIMCLRT
 70
     0
  9
$DIMTFAC
 40
1.0
  9
$DIMGAP
 40
0.09
  9
$LUNITS
 70
     2
  9
$LUPREC
 70
     4
  9
$SKETCHINC
 40
0.1
  9
$FILLETRAD
 40
0.0
  9
$AUNITS
 70
     0
  9
$AUPREC
 70
     0
  9
$MENU
  1
.
  9
$ELEVATION
 40
0.0
  9
$PELEVATION
 40
0.0
  9
$THICKNESS
 40
0.0
  9
$LIMCHECK
 70
     0
  9
$BLIPMODE
 70
     0
  9
$CHAMFERA
 40
0.0
  9
$CHAMFERB
 40
0.0
  9
$SKPOLY
 70
     0
  9
$TDCREATE
 40
2458206.6265046299
  9
$TDUPDATE
 40
2458206.647178357
  9
$TDINDWG
 40
0.0000992477
  9
$TDUSRTIMER
 40
0.0000992477
  9
$USRTIMER
 70
     1
  9
$ANGBASE
 50
0.0
  9
$ANGDIR
 70
     0
  9
$PDMODE
 70
     0
  9
$PDSIZE
 40
0.0
  9
$PLINEWID
 40
0.0
  9
$COORDS
 70
     2
  9
$SPLFRAME
 70
     0
  9
$SPLINETYPE
 70
     6
  9
$SPLINESEGS
 70
     8
  9
$ATTDIA
 70
     1
  9
$ATTREQ
 70
     0
  9
$HANDLING
 70
     1
  9
$HANDSEED
  5
51E
  9
$SURFTAB1
 70
     6
  9
$SURFTAB2
 70
     6
  9
$SURFTYPE
 70
     6
  9
$SURFU
 70
     6
  9
$SURFV
 70
     6
  9
$UCSNAME
  2

  9
$UCSORG
 10
0.0
 20
0.0
 30
0.0
  9
$UCSXDIR
 10
1.0
 20
0.0
 30
0.0
  9
$UCSYDIR
 10
0.0
 20
1.0
 30
0.0
  9
$PUCSNAME
  2

  9
$PUCSORG
 10
0.0
 20
0.0
 30
0.0
  9
$PUCSXDIR
 10
1.0
 20
0.0
 30
0.0
  9
$PUCSYDIR
 10
0.0
 20
1.0
 30
0.0
  9
$USERI1
 70
     0
  9
$USERI2
 70
     0
  9
$USERI3
 70
     0
  9
$USERI4
 70
     0
  9
$USERI5
 70
     0
  9
$USERR1
 40
0.0
  9
$USERR2
 40
0.0
  9
$USERR3
 40
0.0
  9
$USERR4
 40
0.0
  9
$USERR5
 40
0.0
  9
$WORLDVIEW
 70
     1
  9
$SHADEDGE
 70
     3
  9
$SHADEDIF
 70
    70
  9
$TILEMODE
 70
     1
  9
$MAXACTVP
 70
    64
  9
$PLIMCHECK
 70
     0
  9
$PEXTMIN
 10
25.699999999999989
 20
19.5
 30
0.0
  9
$PEXTMAX
 10
231.30000000000001
 20
175.5
 30
0.0
  9
$PLIMMIN
 10
-20.0
 20
-7.5
  9
$PLIMMAX
 10
277.0
 20
202.5
  9
$UNITMODE
 70
     0
  9
$VISRETAIN
 70
     1
  9
$PLINEGEN
 70
     0
  9
$PSLTSCALE
 70
     1
  0
ENDSEC
  0
SECTION
  2
TABLES
  0
TABLE
  2
VPORT
 70
     1
  0
VPORT
  2
*ACTIVE
 70
     0
 10
0.0
 20
0.0
 11
1.0
 21
1.0
 12
208.7946054290708
 22
67.602322046502593
 13
0.0
 23
0.0
 14
1.0
 24
1.0
 15
0.0
 25
0.0
 16
0.0
 26
0.0
 36
1.0
 17
0.0
 27
0.0
 37
0.0
 40
584.13975419114149
 41
2.7949852507374628
 42
50.0
 43
0.0
 44
0.0
 50
0.0
 51
0.0
 71
     0
 72
  1000
 73
     1
 74
     1
 75
     0
 76
     0
 77
     0
 78
     0
  0
ENDTAB
  0
TABLE
  2
LTYPE
 70
     2
  0
LTYPE
  2
CONTINUOUS
 70
     0
  3
Solid line
 72
    65
 73
     0
 40
0.0
  0
LTYPE
  2
DASH
 70
     0
  3

 72
    65
 73
     2
 40
6.3499999999999996
 49
3.1749999999999998
 49
-3.1749999999999998
  0
ENDTAB
  0
TABLE
  2
LAYER
 70
     7
  0
LAYER
  2
0
 70
     0
 62
     7
  6
CONTINUOUS
  0
ENDTAB
  0
TABLE
  2
STYLE
 70
     8
  0
STYLE
  2
STANDARD
 70
     0
 40
0.0
 41
1.0
 50
0.0
 71
     0
 42
0.2
  3
txt
  4

  0
STYLE
  2
ARIAL
 70
     0
 40
12.5
 41
1.0
 50
0.0
 71
     0
 42
0.2
  3
txt
  4

  0
ENDTAB
  0
TABLE
  2
VIEW
 70
     1
  0
ENDTAB
  0
TABLE
  2
UCS
 70
     0
  0
ENDTAB
  0
TABLE
  2
APPID
 70
     6
  0
APPID
  2
ACAD
 70
     0
  0
APPID
  2
ACADANNOTATIVE
 70
     0
  0
APPID
  2
REVIT
 70
     0
  0
APPID
  2
ACAD_PSEXT
 70
     0
  0
APPID
  2
ACAD_NAV_VCDISPLAY
 70
     0
  0
APPID
  2
ACAD_MLEADERVER
 70
     0
  0
ENDTAB
  0
TABLE
  2
DIMSTYLE
 70
     2
  0
DIMSTYLE
  2
STANDARD
 70
     0
  3

  4

  5

  6

  7

 40
1.0
 41
0.18
 42
0.0625
 43
0.38
 44
0.18
 45
0.0
 46
0.0
 47
0.0
 48
0.0
140
0.18
141
0.09
142
0.0
143
25.399999999999999
144
1.0
145
0.0
146
1.0
147
0.09
 71
     0
 72
     0
 73
     1
 74
     1
 75
     0
 76
     0
 77
     0
 78
     0
170
     0
171
     2
172
     0
173
     0
174
     0
175
     0
176
     0
177
     0
178
     0
  0
ENDTAB
  0
ENDSEC
  0
SECTION
  2
BLOCKS
  0
BLOCK
  8
0
  2
$MODEL_SPACE
 70
     0
 10
0.0
 20
0.0
 30
0.0
  3
$MODEL_SPACE
  1

  0
ENDBLK
  5
72
  8
0
  0
BLOCK
 67
     1
  8
0
  2
$PAPER_SPACE
 70
     0
 10
0.0
 20
0.0
 30
0.0
  3
$PAPER_SPACE
  1

  0
ENDBLK
  5
76
 67
     1
  8
0
  0
BLOCK
  8
0
  2
*U24
 70
     1
 10
0.0
 20
0.0
 30
0.0
  3
*U24
  1

  0
SOLID
  5
435
  8
0
  6
CONTINUOUS
 10
16.449667196628649
 20
167.21626169819501
 30
0.0
 11
15.492958615715921
 21
167.0259605294732
 31
0.0
 12
17.406375777541371
 22
167.0259605294732
 32
0.0
 13
17.406375777541371
 23
167.0259605294732
 33
0.0
210
0.0
220
0.0
230
1.0
  0
SOLID
  5
436
  8
0
  6
CONTINUOUS
 10
15.492958615715921
 20
167.0259605294732
 30
0.0
 11
14.68190024366228
 21
166.48402865116131
 31
0.0
 12
18.217434149595011
 22
166.48402865116131
 32
0.0
 13
18.217434149595011
 23
166.48402865116131
 33
0.0
210
0.0
220
0.0
230
1.0
  0
SOLID
  5
437
  8
0
  6
CONTINUOUS
 10
-15.492958615715921
 20
167.0259605294732
 30
0.0
 11
-17.406375777541371
 21
167.0259605294732
 31
0.0
 12
-18.217434149595011
 22
166.48402865116131
 32
0.0
 13
-18.217434149595011
 23
166.48402865116131
 33
0.0
210
0.0
220
0.0
230
-1.0
  0
SOLID
  5
438
  8
0
  6
CONTINUOUS
 10
14.68190024366228
 20
166.48402865116131
 30
0.0
 11
14.13996836535043
 21
165.67297027910769
 31
0.0
 12
18.759366027906861
 22
165.67297027910769
 32
0.0
 13
18.759366027906861
 23
165.67297027910769
 33
0.0
210
0.0
220
0.0
230
1.0
  0
SOLID
  5
439
  8
0
  6
CONTINUOUS
 10
-14.68190024366228
 20
166.48402865116131
 30
0.0
 11
-18.217434149595011
 21
166.48402865116131
 31
0.0
 12
-18.759366027906861
 22
165.67297027910769
 32
0.0
 13
-18.759366027906861
 23
165.67297027910769
 33
0.0
210
0.0
220
0.0
230
-1.0
  0
SOLID
  5
43A
  8
0
  6
CONTINUOUS
 10
14.13996836535043
 20
165.67297027910769
 30
0.0
 11
13.949667196628649
 21
164.7162616981949
 31
0.0
 12
18.949667196628639
 22
164.7162616981949
 32
0.0
 13
18.949667196628639
 23
164.7162616981949
 33
0.0
210
0.0
220
0.0
230
1.0
  0
SOLID
  5
43B
  8
0
  6
CONTINUOUS
 10
-14.13996836535043
 20
165.67297027910769
 30
0.0
 11
-18.759366027906861
 21
165.67297027910769
 31
0.0
 12
-18.949667196628639
 22
164.7162616981949
 32
0.0
 13
-18.949667196628639
 23
164.7162616981949
 33
0.0
210
0.0
220
0.0
230
-1.0
  0
SOLID
  5
43C
  8
0
  6
CONTINUOUS
 10
13.949667196628649
 20
164.7162616981949
 30
0.0
 11
14.13996836535043
 21
163.75955311728219
 31
0.0
 12
18.759366027906861
 22
163.75955311728219
 32
0.0
 13
18.759366027906861
 23
163.75955311728219
 33
0.0
210
0.0
220
0.0
230
1.0
  0
SOLID
  5
43D
  8
0
  6
CONTINUOUS
 10
-13.949667196628649
 20
164.7162616981949
 30
0.0
 11
-18.949667196628639
 21
164.7162616981949
 31
0.0
 12
-18.759366027906861
 22
163.75955311728219
 32
0.0
 13
-18.759366027906861
 23
163.75955311728219
 33
0.0
210
0.0
220
0.0
230
-1.0
  0
SOLID
  5
43E
  8
0
  6
CONTINUOUS
 10
14.13996836535043
 20
163.75955311728219
 30
0.0
 11
14.68190024366228
 21
162.9484947452286
 31
0.0
 12
18.217434149595011
 22
162.9484947452286
 32
0.0
 13
18.217434149595011
 23
162.9484947452286
 33
0.0
210
0.0
220
0.0
230
1.0
  0
SOLID
  5
43F
  8
0
  6
CONTINUOUS
 10
-14.13996836535043
 20
163.75955311728219
 30
0.0
 11
-18.759366027906861
 21
163.75955311728219
 31
0.0
 12
-18.217434149595011
 22
162.9484947452286
 32
0.0
 13
-18.217434149595011
 23
162.9484947452286
 33
0.0
210
0.0
220
0.0
230
-1.0
  0
SOLID
  5
440
  8
0
  6
CONTINUOUS
 10
-15.492958615715921
 20
162.40656286691669
 30
0.0
 11
-17.406375777541371
 21
162.40656286691669
 31
0.0
 12
-16.449667196628649
 22
162.21626169819501
 32
0.0
 13
-16.449667196628649
 23
162.21626169819501
 33
0.0
210
0.0
220
0.0
230
-1.0
  0
SOLID
  5
441
  8
0
  6
CONTINUOUS
 10
14.68190024366228
 20
162.9484947452286
 30
0.0
 11
15.492958615715921
 21
162.40656286691669
 31
0.0
 12
17.406375777541371
 22
162.40656286691669
 32
0.0
 13
17.406375777541371
 23
162.40656286691669
 33
0.0
210
0.0
220
0.0
230
1.0
  0
SOLID
  5
442
  8
0
  6
CONTINUOUS
 10
-14.68190024366228
 20
162.9484947452286
 30
0.0
 11
-18.217434149595011
 21
162.9484947452286
 31
0.0
 12
-17.406375777541371
 22
162.40656286691669
 32
0.0
 13
-17.406375777541371
 23
162.40656286691669
 33
0.0
210
0.0
220
0.0
230
-1.0
  0
LINE
  5
443
  8
0
  6
CONTINUOUS
 10
16.449667196628649
 20
167.21626169819501
 30
0.0
 11
15.492958615715921
 21
167.0259605294732
 31
0.0
  0
LINE
  5
444
  8
0
  6
CONTINUOUS
 10
17.406375777541371
 20
167.0259605294732
 30
0.0
 11
16.449667196628649
 21
167.21626169819501
 31
0.0
  0
LINE
  5
445
  8
0
  6
CONTINUOUS
 10
15.492958615715921
 20
167.0259605294732
 30
0.0
 11
14.68190024366228
 21
166.48402865116131
 31
0.0
  0
LINE
  5
446
  8
0
  6
CONTINUOUS
 10
17.406375777541371
 20
167.0259605294732
 30
0.0
 11
18.217434149595011
 21
166.48402865116131
 31
0.0
  0
LINE
  5
447
  8
0
  6
CONTINUOUS
 10
14.68190024366228
 20
166.48402865116131
 30
0.0
 11
14.13996836535043
 21
165.67297027910769
 31
0.0
  0
LINE
  5
448
  8
0
  6
CONTINUOUS
 10
18.217434149595011
 20
166.48402865116131
 30
0.0
 11
18.759366027906861
 21
165.67297027910769
 31
0.0
  0
LINE
  5
449
  8
0
  6
CONTINUOUS
 10
14.13996836535043
 20
165.67297027910769
 30
0.0
 11
13.949667196628649
 21
164.7162616981949
 31
0.0
  0
LINE
  5
44A
  8
0
  6
CONTINUOUS
 10
18.759366027906861
 20
165.67297027910769
 30
0.0
 11
18.949667196628639
 21
164.7162616981949
 31
0.0
  0
LINE
  5
44B
  8
0
  6
CONTINUOUS
 10
13.949667196628649
 20
164.7162616981949
 30
0.0
 11
14.13996836535043
 21
163.75955311728219
 31
0.0
  0
LINE
  5
44C
  8
0
  6
CONTINUOUS
 10
18.949667196628639
 20
164.7162616981949
 30
0.0
 11
18.759366027906861
 21
163.75955311728219
 31
0.0
  0
LINE
  5
44D
  8
0
  6
CONTINUOUS
 10
14.13996836535043
 20
163.75955311728219
 30
0.0
 11
14.68190024366228
 21
162.9484947452286
 31
0.0
  0
LINE
  5
44E
  8
0
  6
CONTINUOUS
 10
18.759366027906861
 20
163.75955311728219
 30
0.0
 11
18.217434149595011
 21
162.9484947452286
 31
0.0
  0
LINE
  5
44F
  8
0
  6
CONTINUOUS
 10
17.406375777541371
 20
162.40656286691669
 30
0.0
 11
16.449667196628649
 21
162.21626169819501
 31
0.0
  0
LINE
  5
450
  8
0
  6
CONTINUOUS
 10
16.449667196628649
 20
162.21626169819501
 30
0.0
 11
15.492958615715921
 21
162.40656286691669
 31
0.0
  0
LINE
  5
451
  8
0
  6
CONTINUOUS
 10
14.68190024366228
 20
162.9484947452286
 30
0.0
 11
15.492958615715921
 21
162.40656286691669
 31
0.0
  0
LINE
  5
452
  8
0
  6
CONTINUOUS
 10
18.217434149595011
 20
162.9484947452286
 30
0.0
 11
17.406375777541371
 21
162.40656286691669
 31
0.0
  0
ENDBLK
  5
454
  8
0
  0
BLOCK
  8
0
  2
*U25
 70
     1
 10
0.0
 20
0.0
 30
0.0
  3
*U25
  1

  0
TEXT
  5
456
  8
0
 10
320.6001476183805
 20
347.1721991420734
 30
0.0
 40
12.5
  1
Ridge Trim
  7
ARIAL
  0
ENDBLK
  5
458
  8
0
  0
BLOCK
  8
0
  2
*U26
 70
     1
 10
0.0
 20
0.0
 30
0.0
  3
*U26
  1

  0
SOLID
  5
45A
  8
0
  6
CONTINUOUS
 10
66.979319876751944
 20
138.59463497106009
 30
0.0
 11
66.022611295839226
 21
138.4043338023383
 31
0.0
 12
67.936028457664662
 22
138.4043338023383
 32
0.0
 13
67.936028457664662
 23
138.4043338023383
 33
0.0
210
0.0
220
0.0
230
1.0
  0
SOLID
  5
45B
  8
0
  6
CONTINUOUS
 10
66.022611295839226
 20
138.4043338023383
 30
0.0
 11
65.211552923785575
 21
137.8624019240265
 31
0.0
 12
68.747086829718313
 22
137.8624019240265
 32
0.0
 13
68.747086829718313
 23
137.8624019240265
 33
0.0
210
0.0
220
0.0
230
1.0
  0
SOLID
  5
45C
  8
0
  6
CONTINUOUS
 10
-66.022611295839226
 20
138.4043338023383
 30
0.0
 11
-67.936028457664662
 21
138.4043338023383
 31
0.0
 12
-68.747086829718313
 22
137.8624019240265
 32
0.0
 13
-68.747086829718313
 23
137.8624019240265
 33
0.0
210
0.0
220
0.0
230
-1.0
  0
SOLID
  5
45D
  8
0
  6
CONTINUOUS
 10
65.211552923785575
 20
137.8624019240265
 30
0.0
 11
64.669621045473733
 21
137.05134355197279
 31
0.0
 12
69.289018708030156
 22
137.05134355197279
 32
0.0
 13
69.289018708030156
 23
137.05134355197279
 33
0.0
  0
SOLID
  5
45E
  8
0
  6
CONTINUOUS
 10
-65.211552923785575
 20
137.8624019240265
 30
0.0
 11
-68.747086829718313
 21
137.8624019240265
 31
0.0
 12
-69.289018708030156
 22
137.05134355197279
 32
0.0
 13
-69.289018708030156
 23
137.05134355197279
 33
0.0
210
0.0
220
0.0
230
-1.0
  0
SOLID
  5
45F
  8
0
  6
CONTINUOUS
 10
64.669621045473733
 20
137.05134355197279
 30
0.0
 11
64.479319876751944
 21
136.09463497106009
 31
0.0
 12
69.479319876751944
 22
136.09463497106009
 32
0.0
 13
69.479319876751944
 23
136.09463497106009
 33
0.0
210
0.0
220
0.0
230
1.0
  0
SOLID
  5
460
  8
0
  6
CONTINUOUS
 10
-64.669621045473733
 20
137.05134355197279
 30
0.0
 11
-69.289018708030156
 21
137.05134355197279
 31
0.0
 12
-69.479319876751944
 22
136.09463497106009
 32
0.0
 13
-69.479319876751944
 23
136.09463497106009
 33
0.0
210
0.0
220
0.0
230
-1.0
  0
SOLID
  5
461
  8
0
  6
CONTINUOUS
 10
64.479319876751944
 20
136.09463497106009
 30
0.0
 11
64.669621045473733
 21
135.13792639014741
 31
0.0
 12
69.289018708030156
 22
135.13792639014741
 32
0.0
 13
69.289018708030156
 23
135.13792639014741
 33
0.0
  0
SOLID
  5
462
  8
0
  6
CONTINUOUS
 10
-64.479319876751944
 20
136.09463497106009
 30
0.0
 11
-69.479319876751944
 21
136.09463497106009
 31
0.0
 12
-69.289018708030156
 22
135.13792639014741
 32
0.0
 13
-69.289018708030156
 23
135.13792639014741
 33
0.0
210
0.0
220
0.0
230
-1.0
  0
SOLID
  5
463
  8
0
  6
CONTINUOUS
 10
64.669621045473733
 20
135.13792639014741
 30
0.0
 11
65.211552923785575
 21
134.32686801809371
 31
0.0
 12
68.747086829718313
 22
134.32686801809371
 32
0.0
 13
68.747086829718313
 23
134.32686801809371
 33
0.0
210
0.0
220
0.0
230
1.0
  0
SOLID
  5
464
  8
0
  6
CONTINUOUS
 10
-64.669621045473733
 20
135.13792639014741
 30
0.0
 11
-69.289018708030156
 21
135.13792639014741
 31
0.0
 12
-68.747086829718313
 22
134.32686801809371
 32
0.0
 13
-68.747086829718313
 23
134.32686801809371
 33
0.0
210
0.0
220
0.0
230
-1.0
  0
SOLID
  5
465
  8
0
  6
CONTINUOUS
 10
-66.022611295839226
 20
133.78493613978191
 30
0.0
 11
-67.936028457664662
 21
133.78493613978191
 31
0.0
 12
-66.979319876751944
 22
133.59463497106009
 32
0.0
 13
-66.979319876751944
 23
133.59463497106009
 33
0.0
210
0.0
220
0.0
230
-1.0
  0
SOLID
  5
466
  8
0
  6
CONTINUOUS
 10
65.211552923785575
 20
134.32686801809371
 30
0.0
 11
66.022611295839226
 21
133.78493613978191
 31
0.0
 12
67.936028457664662
 22
133.78493613978191
 32
0.0
 13
67.936028457664662
 23
133.78493613978191
 33
0.0
210
0.0
220
0.0
230
1.0
  0
SOLID
  5
467
  8
0
  6
CONTINUOUS
 10
-65.211552923785575
 20
134.32686801809371
 30
0.0
 11
-68.747086829718313
 21
134.32686801809371
 31
0.0
 12
-67.936028457664662
 22
133.78493613978191
 32
0.0
 13
-67.936028457664662
 23
133.78493613978191
 33
0.0
210
0.0
220
0.0
230
-1.0
  0
LINE
  5
468
  8
0
  6
CONTINUOUS
 10
66.979319876751944
 20
138.59463497106009
 30
0.0
 11
66.022611295839226
 21
138.4043338023383
 31
0.0
  0
LINE
  5
469
  8
0
  6
CONTINUOUS
 10
67.936028457664662
 20
138.4043338023383
 30
0.0
 11
66.979319876751944
 21
138.59463497106009
 31
0.0
  0
LINE
  5
46A
  8
0
  6
CONTINUOUS
 10
66.022611295839226
 20
138.4043338023383
 30
0.0
 11
65.211552923785575
 21
137.8624019240265
 31
0.0
  0
LINE
  5
46B
  8
0
  6
CONTINUOUS
 10
67.936028457664662
 20
138.4043338023383
 30
0.0
 11
68.747086829718313
 21
137.8624019240265
 31
0.0
  0
LINE
  5
46C
  8
0
  6
CONTINUOUS
 10
65.211552923785575
 20
137.8624019240265
 30
0.0
 11
64.669621045473733
 21
137.05134355197279
 31
0.0
  0
LINE
  5
46D
  8
0
  6
CONTINUOUS
 10
68.747086829718313
 20
137.8624019240265
 30
0.0
 11
69.289018708030156
 21
137.05134355197279
 31
0.0
  0
LINE
  5
46E
  8
0
  6
CONTINUOUS
 10
64.669621045473733
 20
137.05134355197279
 30
0.0
 11
64.479319876751944
 21
136.09463497106009
 31
0.0
  0
LINE
  5
46F
  8
0
  6
CONTINUOUS
 10
69.289018708030156
 20
137.05134355197279
 30
0.0
 11
69.479319876751944
 21
136.09463497106009
 31
0.0
  0
LINE
  5
470
  8
0
  6
CONTINUOUS
 10
64.479319876751944
 20
136.09463497106009
 30
0.0
 11
64.669621045473733
 21
135.13792639014741
 31
0.0
  0
LINE
  5
471
  8
0
  6
CONTINUOUS
 10
69.479319876751944
 20
136.09463497106009
 30
0.0
 11
69.289018708030156
 21
135.13792639014741
 31
0.0
  0
LINE
  5
472
  8
0
  6
CONTINUOUS
 10
64.669621045473733
 20
135.13792639014741
 30
0.0
 11
65.211552923785575
 21
134.32686801809371
 31
0.0
  0
LINE
  5
473
  8
0
  6
CONTINUOUS
 10
69.289018708030156
 20
135.13792639014741
 30
0.0
 11
68.747086829718313
 21
134.32686801809371
 31
0.0
  0
LINE
  5
474
  8
0
  6
CONTINUOUS
 10
67.936028457664662
 20
133.78493613978191
 30
0.0
 11
66.979319876751944
 21
133.59463497106009
 31
0.0
  0
LINE
  5
475
  8
0
  6
CONTINUOUS
 10
66.979319876751944
 20
133.59463497106009
 30
0.0
 11
66.022611295839226
 21
133.78493613978191
 31
0.0
  0
LINE
  5
476
  8
0
  6
CONTINUOUS
 10
65.211552923785575
 20
134.32686801809371
 30
0.0
 11
66.022611295839226
 21
133.78493613978191
 31
0.0
  0
LINE
  5
477
  8
0
  6
CONTINUOUS
 10
68.747086829718313
 20
134.32686801809371
 30
0.0
 11
67.936028457664662
 21
133.78493613978191
 31
0.0
  0
ENDBLK
  5
479
  8
0
  0
BLOCK
  8
0
  2
*U27
 70
     1
 10
0.0
 20
0.0
 30
0.0
  3
*U27
  1

  0
TEXT
  5
47B
  8
0
 10
321.97293070160021
 20
301.60570045026321
 30
0.0
 40
12.5
  1
Aluband 150mm
  7
ARIAL
  0
ENDBLK
  5
47D
  8
0
  0
BLOCK
  8
0
  2
*U28
 70
     1
 10
0.0
 20
0.0
 30
0.0
  3
*U28
  1

  0
SOLID
  5
47F
  8
0
  6
CONTINUOUS
 10
169.95045062817141
 20
85.699202475396547
 30
0.0
 11
168.99374204725871
 21
85.508901306674744
 31
0.0
 12
170.90715920908411
 22
85.508901306674744
 32
0.0
 13
170.90715920908411
 23
85.508901306674744
 33
0.0
210
0.0
220
0.0
230
1.0
  0
SOLID
  5
480
  8
0
  6
CONTINUOUS
 10
168.99374204725871
 20
85.508901306674744
 30
0.0
 11
168.182683675205
 21
84.966969428362901
 31
0.0
 12
171.71821758113779
 22
84.966969428362901
 32
0.0
 13
171.71821758113779
 23
84.966969428362901
 33
0.0
210
0.0
220
0.0
230
1.0
  0
SOLID
  5
481
  8
0
  6
CONTINUOUS
 10
-168.99374204725871
 20
85.508901306674744
 30
0.0
 11
-170.90715920908411
 21
85.508901306674744
 31
0.0
 12
-171.71821758113779
 22
84.966969428362901
 32
0.0
 13
-171.71821758113779
 23
84.966969428362901
 33
0.0
210
0.0
220
0.0
230
-1.0
  0
SOLID
  5
482
  8
0
  6
CONTINUOUS
 10
168.182683675205
 20
84.966969428362901
 30
0.0
 11
167.6407517968932
 21
84.15591105630925
 31
0.0
 12
172.26014945944959
 22
84.15591105630925
 32
0.0
 13
172.26014945944959
 23
84.15591105630925
 33
0.0
210
0.0
220
0.0
230
1.0
  0
SOLID
  5
483
  8
0
  6
CONTINUOUS
 10
-168.182683675205
 20
84.966969428362901
 30
0.0
 11
-171.71821758113779
 21
84.966969428362901
 31
0.0
 12
-172.26014945944959
 22
84.15591105630925
 32
0.0
 13
-172.26014945944959
 23
84.15591105630925
 33
0.0
210
0.0
220
0.0
230
-1.0
  0
SOLID
  5
484
  8
0
  6
CONTINUOUS
 10
167.6407517968932
 20
84.15591105630925
 30
0.0
 11
167.45045062817141
 21
83.199202475396547
 31
0.0
 12
172.45045062817141
 22
83.199202475396547
 32
0.0
 13
172.45045062817141
 23
83.199202475396547
 33
0.0
210
0.0
220
0.0
230
1.0
  0
SOLID
  5
485
  8
0
  6
CONTINUOUS
 10
-167.6407517968932
 20
84.15591105630925
 30
0.0
 11
-172.26014945944959
 21
84.15591105630925
 31
0.0
 12
-172.45045062817141
 22
83.199202475396547
 32
0.0
 13
-172.45045062817141
 23
83.199202475396547
 33
0.0
210
0.0
220
0.0
230
-1.0
  0
SOLID
  5
486
  8
0
  6
CONTINUOUS
 10
167.45045062817141
 20
83.199202475396547
 30
0.0
 11
167.6407517968932
 21
82.242493894483815
 31
0.0
 12
172.26014945944959
 22
82.242493894483815
 32
0.0
 13
172.26014945944959
 23
82.242493894483815
 33
0.0
  0
SOLID
  5
487
  8
0
  6
CONTINUOUS
 10
-167.45045062817141
 20
83.199202475396547
 30
0.0
 11
-172.45045062817141
 21
83.199202475396547
 31
0.0
 12
-172.26014945944959
 22
82.242493894483815
 32
0.0
 13
-172.26014945944959
 23
82.242493894483815
 33
0.0
210
0.0
220
0.0
230
-1.0
  0
SOLID
  5
488
  8
0
  6
CONTINUOUS
 10
167.6407517968932
 20
82.242493894483815
 30
0.0
 11
168.182683675205
 21
81.431435522430164
 31
0.0
 12
171.71821758113779
 22
81.431435522430164
 32
0.0
 13
171.71821758113779
 23
81.431435522430164
 33
0.0
210
0.0
220
0.0
230
1.0
  0
SOLID
  5
489
  8
0
  6
CONTINUOUS
 10
-167.6407517968932
 20
82.242493894483815
 30
0.0
 11
-172.26014945944959
 21
82.242493894483815
 31
0.0
 12
-171.71821758113779
 22
81.431435522430164
 32
0.0
 13
-171.71821758113779
 23
81.431435522430164
 33
0.0
210
0.0
220
0.0
230
-1.0
  0
SOLID
  5
48A
  8
0
  6
CONTINUOUS
 10
-168.99374204725871
 20
80.889503644118321
 30
0.0
 11
-170.90715920908411
 21
80.889503644118321
 31
0.0
 12
-169.95045062817141
 22
80.699202475396547
 32
0.0
 13
-169.95045062817141
 23
80.699202475396547
 33
0.0
210
0.0
220
0.0
230
-1.0
  0
SOLID
  5
48B
  8
0
  6
CONTINUOUS
 10
168.182683675205
 20
81.431435522430164
 30
0.0
 11
168.99374204725871
 21
80.889503644118321
 31
0.0
 12
170.90715920908411
 22
80.889503644118321
 32
0.0
 13
170.90715920908411
 23
80.889503644118321
 33
0.0
210
0.0
220
0.0
230
1.0
  0
SOLID
  5
48C
  8
0
  6
CONTINUOUS
 10
-168.182683675205
 20
81.431435522430164
 30
0.0
 11
-171.71821758113779
 21
81.431435522430164
 31
0.0
 12
-170.90715920908411
 22
80.889503644118321
 32
0.0
 13
-170.90715920908411
 23
80.889503644118321
 33
0.0
210
0.0
220
0.0
230
-1.0
  0
LINE
  5
48D
  8
0
  6
CONTINUOUS
 10
169.95045062817141
 20
85.699202475396547
 30
0.0
 11
168.99374204725871
 21
85.508901306674744
 31
0.0
  0
LINE
  5
48E
  8
0
  6
CONTINUOUS
 10
170.90715920908411
 20
85.508901306674744
 30
0.0
 11
169.95045062817141
 21
85.699202475396547
 31
0.0
  0
LINE
  5
48F
  8
0
  6
CONTINUOUS
 10
168.99374204725871
 20
85.508901306674744
 30
0.0
 11
168.182683675205
 21
84.966969428362901
 31
0.0
  0
LINE
  5
490
  8
0
  6
CONTINUOUS
 10
170.90715920908411
 20
85.508901306674744
 30
0.0
 11
171.71821758113779
 21
84.966969428362901
 31
0.0
  0
LINE
  5
491
  8
0
  6
CONTINUOUS
 10
168.182683675205
 20
84.966969428362901
 30
0.0
 11
167.6407517968932
 21
84.15591105630925
 31
0.0
  0
LINE
  5
492
  8
0
  6
CONTINUOUS
 10
171.71821758113779
 20
84.966969428362901
 30
0.0
 11
172.26014945944959
 21
84.15591105630925
 31
0.0
  0
LINE
  5
493
  8
0
  6
CONTINUOUS
 10
167.6407517968932
 20
84.15591105630925
 30
0.0
 11
167.45045062817141
 21
83.199202475396547
 31
0.0
  0
LINE
  5
494
  8
0
  6
CONTINUOUS
 10
172.26014945944959
 20
84.15591105630925
 30
0.0
 11
172.45045062817141
 21
83.199202475396547
 31
0.0
  0
LINE
  5
495
  8
0
  6
CONTINUOUS
 10
167.45045062817141
 20
83.199202475396547
 30
0.0
 11
167.6407517968932
 21
82.242493894483815
 31
0.0
  0
LINE
  5
496
  8
0
  6
CONTINUOUS
 10
172.45045062817141
 20
83.199202475396547
 30
0.0
 11
172.26014945944959
 21
82.242493894483815
 31
0.0
  0
LINE
  5
497
  8
0
  6
CONTINUOUS
 10
167.6407517968932
 20
82.242493894483815
 30
0.0
 11
168.182683675205
 21
81.431435522430164
 31
0.0
  0
LINE
  5
498
  8
0
  6
CONTINUOUS
 10
172.26014945944959
 20
82.242493894483815
 30
0.0
 11
171.71821758113779
 21
81.431435522430164
 31
0.0
  0
LINE
  5
499
  8
0
  6
CONTINUOUS
 10
170.90715920908411
 20
80.889503644118321
 30
0.0
 11
169.95045062817141
 21
80.699202475396547
 31
0.0
  0
LINE
  5
49A
  8
0
  6
CONTINUOUS
 10
169.95045062817141
 20
80.699202475396547
 30
0.0
 11
168.99374204725871
 21
80.889503644118321
 31
0.0
  0
LINE
  5
49B
  8
0
  6
CONTINUOUS
 10
168.182683675205
 20
81.431435522430164
 30
0.0
 11
168.99374204725871
 21
80.889503644118321
 31
0.0
  0
LINE
  5
49C
  8
0
  6
CONTINUOUS
 10
171.71821758113779
 20
81.431435522430164
 30
0.0
 11
170.90715920908411
 21
80.889503644118321
 31
0.0
  0
ENDBLK
  5
49E
  8
0
  0
BLOCK
  8
0
  2
*U29
 70
     1
 10
0.0
 20
0.0
 30
0.0
  3
*U29
  1

  0
TEXT
  5
4A0
  8
0
 10
320.62572742738462
 20
220.0740289639719
 30
0.0
 40
12.5
  1
Plywood underlay 15mm
  7
ARIAL
  0
TEXT
  5
4A1
  8
0
 10
321.66597299355101
 20
200.45365588787629
 30
0.0
 40
12.5
  1
thickness minimum
  7
ARIAL
  0
ENDBLK
  5
4A3
  8
0
  0
BLOCK
  8
0
  2
*U30
 70
     1
 10
0.0
 20
0.0
 30
0.0
  3
*U30
  1

  0
SOLID
  5
4A5
  8
0
  6
CONTINUOUS
 10
128.49020244725449
 20
116.90141809699701
 30
0.0
 11
127.5334938663418
 21
116.7111169282752
 31
0.0
 12
129.44691102816719
 22
116.7111169282752
 32
0.0
 13
129.44691102816719
 23
116.7111169282752
 33
0.0
  0
SOLID
  5
4A6
  8
0
  6
CONTINUOUS
 10
127.5334938663418
 20
116.7111169282752
 30
0.0
 11
126.72243549428821
 21
116.1691850499634
 31
0.0
 12
130.2579694002209
 22
116.1691850499634
 32
0.0
 13
130.2579694002209
 23
116.1691850499634
 33
0.0
210
0.0
220
0.0
230
1.0
  0
SOLID
  5
4A7
  8
0
  6
CONTINUOUS
 10
-127.5334938663418
 20
116.7111169282752
 30
0.0
 11
-129.44691102816719
 21
116.7111169282752
 31
0.0
 12
-130.2579694002209
 22
116.1691850499634
 32
0.0
 13
-130.2579694002209
 23
116.1691850499634
 33
0.0
210
0.0
220
0.0
230
-1.0
  0
SOLID
  5
4A8
  8
0
  6
CONTINUOUS
 10
126.72243549428821
 20
116.1691850499634
 30
0.0
 11
126.18050361597631
 21
115.35812667790979
 31
0.0
 12
130.7999012785327
 22
115.35812667790979
 32
0.0
 13
130.7999012785327
 23
115.35812667790979
 33
0.0
210
0.0
220
0.0
230
1.0
  0
SOLID
  5
4A9
  8
0
  6
CONTINUOUS
 10
-126.72243549428821
 20
116.1691850499634
 30
0.0
 11
-130.2579694002209
 21
116.1691850499634
 31
0.0
 12
-130.7999012785327
 22
115.35812667790979
 32
0.0
 13
-130.7999012785327
 23
115.35812667790979
 33
0.0
210
0.0
220
0.0
230
-1.0
  0
SOLID
  5
4AA
  8
0
  6
CONTINUOUS
 10
126.18050361597631
 20
115.35812667790979
 30
0.0
 11
125.9902024472545
 21
114.40141809699701
 31
0.0
 12
130.99020244725449
 22
114.40141809699701
 32
0.0
 13
130.99020244725449
 23
114.40141809699701
 33
0.0
210
0.0
220
0.0
230
1.0
  0
SOLID
  5
4AB
  8
0
  6
CONTINUOUS
 10
-126.18050361597631
 20
115.35812667790979
 30
0.0
 11
-130.7999012785327
 21
115.35812667790979
 31
0.0
 12
-130.99020244725449
 22
114.40141809699701
 32
0.0
 13
-130.99020244725449
 23
114.40141809699701
 33
0.0
210
0.0
220
0.0
230
-1.0
  0
SOLID
  5
4AC
  8
0
  6
CONTINUOUS
 10
125.9902024472545
 20
114.40141809699701
 30
0.0
 11
126.18050361597631
 21
113.4447095160843
 31
0.0
 12
130.7999012785327
 22
113.4447095160843
 32
0.0
 13
130.7999012785327
 23
113.4447095160843
 33
0.0
210
0.0
220
0.0
230
1.0
  0
SOLID
  5
4AD
  8
0
  6
CONTINUOUS
 10
-125.9902024472545
 20
114.40141809699701
 30
0.0
 11
-130.99020244725449
 21
114.40141809699701
 31
0.0
 12
-130.7999012785327
 22
113.4447095160843
 32
0.0
 13
-130.7999012785327
 23
113.4447095160843
 33
0.0
210
0.0
220
0.0
230
-1.0
  0
SOLID
  5
4AE
  8
0
  6
CONTINUOUS
 10
126.18050361597631
 20
113.4447095160843
 30
0.0
 11
126.72243549428821
 21
112.63365114403059
 31
0.0
 12
130.2579694002209
 22
112.63365114403059
 32
0.0
 13
130.2579694002209
 23
112.63365114403059
 33
0.0
210
0.0
220
0.0
230
1.0
  0
SOLID
  5
4AF
  8
0
  6
CONTINUOUS
 10
-126.18050361597631
 20
113.4447095160843
 30
0.0
 11
-130.7999012785327
 21
113.4447095160843
 31
0.0
 12
-130.2579694002209
 22
112.63365114403059
 32
0.0
 13
-130.2579694002209
 23
112.63365114403059
 33
0.0
210
0.0
220
0.0
230
-1.0
  0
SOLID
  5
4B0
  8
0
  6
CONTINUOUS
 10
-127.5334938663418
 20
112.09171926571879
 30
0.0
 11
-129.44691102816719
 21
112.09171926571879
 31
0.0
 12
-128.49020244725449
 22
111.90141809699701
 32
0.0
 13
-128.49020244725449
 23
111.90141809699701
 33
0.0
210
0.0
220
0.0
230
-1.0
  0
SOLID
  5
4B1
  8
0
  6
CONTINUOUS
 10
126.72243549428821
 20
112.63365114403059
 30
0.0
 11
127.5334938663418
 21
112.09171926571879
 31
0.0
 12
129.44691102816719
 22
112.09171926571879
 32
0.0
 13
129.44691102816719
 23
112.09171926571879
 33
0.0
  0
SOLID
  5
4B2
  8
0
  6
CONTINUOUS
 10
-126.72243549428821
 20
112.63365114403059
 30
0.0
 11
-130.2579694002209
 21
112.63365114403059
 31
0.0
 12
-129.44691102816719
 22
112.09171926571879
 32
0.0
 13
-129.44691102816719
 23
112.09171926571879
 33
0.0
210
0.0
220
0.0
230
-1.0
  0
LINE
  5
4B3
  8
0
  6
CONTINUOUS
 10
128.49020244725449
 20
116.90141809699701
 30
0.0
 11
127.5334938663418
 21
116.7111169282752
 31
0.0
  0
LINE
  5
4B4
  8
0
  6
CONTINUOUS
 10
129.44691102816719
 20
116.7111169282752
 30
0.0
 11
128.49020244725449
 21
116.90141809699701
 31
0.0
  0
LINE
  5
4B5
  8
0
  6
CONTINUOUS
 10
127.5334938663418
 20
116.7111169282752
 30
0.0
 11
126.72243549428821
 21
116.1691850499634
 31
0.0
  0
LINE
  5
4B6
  8
0
  6
CONTINUOUS
 10
129.44691102816719
 20
116.7111169282752
 30
0.0
 11
130.2579694002209
 21
116.1691850499634
 31
0.0
  0
LINE
  5
4B7
  8
0
  6
CONTINUOUS
 10
126.72243549428821
 20
116.1691850499634
 30
0.0
 11
126.18050361597631
 21
115.35812667790979
 31
0.0
  0
LINE
  5
4B8
  8
0
  6
CONTINUOUS
 10
130.2579694002209
 20
116.1691850499634
 30
0.0
 11
130.7999012785327
 21
115.35812667790979
 31
0.0
  0
LINE
  5
4B9
  8
0
  6
CONTINUOUS
 10
126.18050361597631
 20
115.35812667790979
 30
0.0
 11
125.9902024472545
 21
114.40141809699701
 31
0.0
  0
LINE
  5
4BA
  8
0
  6
CONTINUOUS
 10
130.7999012785327
 20
115.35812667790979
 30
0.0
 11
130.99020244725449
 21
114.40141809699701
 31
0.0
  0
LINE
  5
4BB
  8
0
  6
CONTINUOUS
 10
125.9902024472545
 20
114.40141809699701
 30
0.0
 11
126.18050361597631
 21
113.4447095160843
 31
0.0
  0
LINE
  5
4BC
  8
0
  6
CONTINUOUS
 10
130.99020244725449
 20
114.40141809699701
 30
0.0
 11
130.7999012785327
 21
113.4447095160843
 31
0.0
  0
LINE
  5
4BD
  8
0
  6
CONTINUOUS
 10
126.18050361597631
 20
113.4447095160843
 30
0.0
 11
126.72243549428821
 21
112.63365114403059
 31
0.0
  0
LINE
  5
4BE
  8
0
  6
CONTINUOUS
 10
130.7999012785327
 20
113.4447095160843
 30
0.0
 11
130.2579694002209
 21
112.63365114403059
 31
0.0
  0
LINE
  5
4BF
  8
0
  6
CONTINUOUS
 10
129.44691102816719
 20
112.09171926571879
 30
0.0
 11
128.49020244725449
 21
111.90141809699701
 31
0.0
  0
LINE
  5
4C0
  8
0
  6
CONTINUOUS
 10
128.49020244725449
 20
111.90141809699701
 30
0.0
 11
127.5334938663418
 21
112.09171926571879
 31
0.0
  0
LINE
  5
4C1
  8
0
  6
CONTINUOUS
 10
126.72243549428821
 20
112.63365114403059
 30
0.0
 11
127.5334938663418
 21
112.09171926571879
 31
0.0
  0
LINE
  5
4C2
  8
0
  6
CONTINUOUS
 10
130.2579694002209
 20
112.63365114403059
 30
0.0
 11
129.44691102816719
 21
112.09171926571879
 31
0.0
  0
ENDBLK
  5
4C4
  8
0
  0
BLOCK
  8
0
  2
*U31
 70
     1
 10
0.0
 20
0.0
 30
0.0
  3
*U31
  1

  0
TEXT
  5
4C6
  8
0
 10
320.9047165319725
 20
256.95028856220682
 30
0.0
 40
12.5
  1
CF Shake Panel
  7
ARIAL
  0
ENDBLK
  5
4C8
  8
0
  0
BLOCK
  8
0
  2
*U32
 70
     1
 10
0.0
 20
0.0
 30
0.0
  3
*U32
  1

  0
SOLID
  5
4CA
  8
0
  6
CONTINUOUS
 10
-253.24563193565589
 20
68.09556286321839
 30
0.0
 11
-254.2023405165686
 21
67.905261694496616
 31
0.0
 12
-252.28892335474319
 22
67.905261694496616
 32
0.0
 13
-252.28892335474319
 23
67.905261694496616
 33
0.0
  0
SOLID
  5
4CB
  8
0
  6
CONTINUOUS
 10
-254.2023405165686
 20
67.905261694496616
 30
0.0
 11
-255.01339888862219
 21
67.363329816184759
 31
0.0
 12
-251.4778649826896
 22
67.363329816184759
 32
0.0
 13
-251.4778649826896
 23
67.363329816184759
 33
0.0
210
0.0
220
0.0
230
1.0
  0
SOLID
  5
4CC
  8
0
  6
CONTINUOUS
 10
254.2023405165686
 20
67.905261694496616
 30
0.0
 11
252.28892335474319
 21
67.905261694496616
 31
0.0
 12
251.4778649826896
 22
67.363329816184759
 32
0.0
 13
251.4778649826896
 23
67.363329816184759
 33
0.0
210
0.0
220
0.0
230
-1.0
  0
SOLID
  5
4CD
  8
0
  6
CONTINUOUS
 10
-255.01339888862219
 20
67.363329816184759
 30
0.0
 11
-255.55533076693411
 21
66.552271444131122
 31
0.0
 12
-250.93593310437771
 22
66.552271444131122
 32
0.0
 13
-250.93593310437771
 23
66.552271444131122
 33
0.0
210
0.0
220
0.0
230
1.0
  0
SOLID
  5
4CE
  8
0
  6
CONTINUOUS
 10
255.01339888862219
 20
67.363329816184759
 30
0.0
 11
251.4778649826896
 21
67.363329816184759
 31
0.0
 12
250.93593310437771
 22
66.552271444131122
 32
0.0
 13
250.93593310437771
 23
66.552271444131122
 33
0.0
210
0.0
220
0.0
230
-1.0
  0
SOLID
  5
4CF
  8
0
  6
CONTINUOUS
 10
-255.55533076693411
 20
66.552271444131122
 30
0.0
 11
-255.74563193565589
 21
65.595562863218404
 31
0.0
 12
-250.74563193565589
 22
65.595562863218404
 32
0.0
 13
-250.74563193565589
 23
65.595562863218404
 33
0.0
210
0.0
220
0.0
230
1.0
  0
SOLID
  5
4D0
  8
0
  6
CONTINUOUS
 10
255.55533076693411
 20
66.552271444131122
 30
0.0
 11
250.93593310437771
 21
66.552271444131122
 31
0.0
 12
250.74563193565589
 22
65.595562863218404
 32
0.0
 13
250.74563193565589
 23
65.595562863218404
 33
0.0
210
0.0
220
0.0
230
-1.0
  0
SOLID
  5
4D1
  8
0
  6
CONTINUOUS
 10
-255.74563193565589
 20
65.595562863218404
 30
0.0
 11
-255.55533076693411
 21
64.638854282305687
 31
0.0
 12
-250.93593310437771
 22
64.638854282305687
 32
0.0
 13
-250.93593310437771
 23
64.638854282305687
 33
0.0
  0
SOLID
  5
4D2
  8
0
  6
CONTINUOUS
 10
255.74563193565589
 20
65.595562863218404
 30
0.0
 11
250.74563193565589
 21
65.595562863218404
 31
0.0
 12
250.93593310437771
 22
64.638854282305687
 32
0.0
 13
250.93593310437771
 23
64.638854282305687
 33
0.0
210
0.0
220
0.0
230
-1.0
  0
SOLID
  5
4D3
  8
0
  6
CONTINUOUS
 10
-255.55533076693411
 20
64.638854282305687
 30
0.0
 11
-255.01339888862219
 21
63.827795910252043
 31
0.0
 12
-251.4778649826896
 22
63.827795910252043
 32
0.0
 13
-251.4778649826896
 23
63.827795910252043
 33
0.0
210
0.0
220
0.0
230
1.0
  0
SOLID
  5
4D4
  8
0
  6
CONTINUOUS
 10
255.55533076693411
 20
64.638854282305687
 30
0.0
 11
250.93593310437771
 21
64.638854282305687
 31
0.0
 12
251.4778649826896
 22
63.827795910252043
 32
0.0
 13
251.4778649826896
 23
63.827795910252043
 33
0.0
210
0.0
220
0.0
230
-1.0
  0
SOLID
  5
4D5
  8
0
  6
CONTINUOUS
 10
254.2023405165686
 20
63.285864031940193
 30
0.0
 11
252.28892335474319
 21
63.285864031940193
 31
0.0
 12
253.24563193565589
 22
63.095562863218419
 32
0.0
 13
253.24563193565589
 23
63.095562863218419
 33
0.0
210
0.0
220
0.0
230
-1.0
  0
SOLID
  5
4D6
  8
0
  6
CONTINUOUS
 10
-255.01339888862219
 20
63.827795910252043
 30
0.0
 11
-254.2023405165686
 21
63.285864031940193
 31
0.0
 12
-252.28892335474319
 22
63.285864031940193
 32
0.0
 13
-252.28892335474319
 23
63.285864031940193
 33
0.0
210
0.0
220
0.0
230
1.0
  0
SOLID
  5
4D7
  8
0
  6
CONTINUOUS
 10
255.01339888862219
 20
63.827795910252043
 30
0.0
 11
251.4778649826896
 21
63.827795910252043
 31
0.0
 12
252.28892335474319
 22
63.285864031940193
 32
0.0
 13
252.28892335474319
 23
63.285864031940193
 33
0.0
210
0.0
220
0.0
230
-1.0
  0
LINE
  5
4D8
  8
0
  6
CONTINUOUS
 10
-253.24563193565589
 20
68.09556286321839
 30
0.0
 11
-254.2023405165686
 21
67.905261694496616
 31
0.0
  0
LINE
  5
4D9
  8
0
  6
CONTINUOUS
 10
-252.28892335474319
 20
67.905261694496616
 30
0.0
 11
-253.24563193565589
 21
68.09556286321839
 31
0.0
  0
LINE
  5
4DA
  8
0
  6
CONTINUOUS
 10
-254.2023405165686
 20
67.905261694496616
 30
0.0
 11
-255.01339888862219
 21
67.363329816184759
 31
0.0
  0
LINE
  5
4DB
  8
0
  6
CONTINUOUS
 10
-252.28892335474319
 20
67.905261694496616
 30
0.0
 11
-251.4778649826896
 21
67.363329816184759
 31
0.0
  0
LINE
  5
4DC
  8
0
  6
CONTINUOUS
 10
-255.01339888862219
 20
67.363329816184759
 30
0.0
 11
-255.55533076693411
 21
66.552271444131122
 31
0.0
  0
LINE
  5
4DD
  8
0
  6
CONTINUOUS
 10
-251.4778649826896
 20
67.363329816184759
 30
0.0
 11
-250.93593310437771
 21
66.552271444131122
 31
0.0
  0
LINE
  5
4DE
  8
0
  6
CONTINUOUS
 10
-255.55533076693411
 20
66.552271444131122
 30
0.0
 11
-255.74563193565589
 21
65.595562863218404
 31
0.0
  0
LINE
  5
4DF
  8
0
  6
CONTINUOUS
 10
-250.93593310437771
 20
66.552271444131122
 30
0.0
 11
-250.74563193565589
 21
65.595562863218404
 31
0.0
  0
LINE
  5
4E0
  8
0
  6
CONTINUOUS
 10
-255.74563193565589
 20
65.595562863218404
 30
0.0
 11
-255.55533076693411
 21
64.638854282305687
 31
0.0
  0
LINE
  5
4E1
  8
0
  6
CONTINUOUS
 10
-250.74563193565589
 20
65.595562863218404
 30
0.0
 11
-250.93593310437771
 21
64.638854282305687
 31
0.0
  0
LINE
  5
4E2
  8
0
  6
CONTINUOUS
 10
-255.55533076693411
 20
64.638854282305687
 30
0.0
 11
-255.01339888862219
 21
63.827795910252043
 31
0.0
  0
LINE
  5
4E3
  8
0
  6
CONTINUOUS
 10
-250.93593310437771
 20
64.638854282305687
 30
0.0
 11
-251.4778649826896
 21
63.827795910252043
 31
0.0
  0
LINE
  5
4E4
  8
0
  6
CONTINUOUS
 10
-252.28892335474319
 20
63.285864031940193
 30
0.0
 11
-253.24563193565589
 21
63.095562863218419
 31
0.0
  0
LINE
  5
4E5
  8
0
  6
CONTINUOUS
 10
-253.24563193565589
 20
63.095562863218419
 30
0.0
 11
-254.2023405165686
 21
63.285864031940193
 31
0.0
  0
LINE
  5
4E6
  8
0
  6
CONTINUOUS
 10
-255.01339888862219
 20
63.827795910252043
 30
0.0
 11
-254.2023405165686
 21
63.285864031940193
 31
0.0
  0
LINE
  5
4E7
  8
0
  6
CONTINUOUS
 10
-251.4778649826896
 20
63.827795910252043
 30
0.0
 11
-252.28892335474319
 21
63.285864031940193
 31
0.0
  0
ENDBLK
  5
4E9
  8
0
  0
BLOCK
  8
0
  2
*U33
 70
     1
 10
0.0
 20
0.0
 30
0.0
  3
*U33
  1

  0
TEXT
  5
4EB
  8
0
 10
-511.201265398136
 20
114.4551001450609
 30
0.0
 40
12.5
  1
CF Shake lapped together
  7
ARIAL
  0
ENDBLK
  5
4ED
  8
0
  0
BLOCK
  8
0
  2
*U34
 70
     1
 10
0.0
 20
0.0
 30
0.0
  3
*U34
  1

  0
SOLID
  5
4EF
  8
0
  6
CONTINUOUS
 10
300.09574461265782
 20
39.740464093000561
 30
0.0
 11
299.13903603174509
 21
39.55016292427878
 31
0.0
 12
301.0524531935705
 22
39.55016292427878
 32
0.0
 13
301.0524531935705
 23
39.55016292427878
 33
0.0
  0
SOLID
  5
4F0
  8
0
  6
CONTINUOUS
 10
299.13903603174509
 20
39.55016292427878
 30
0.0
 11
298.32797765969138
 21
39.00823104596693
 31
0.0
 12
301.86351156562421
 22
39.00823104596693
 32
0.0
 13
301.86351156562421
 23
39.00823104596693
 33
0.0
210
0.0
220
0.0
230
1.0
  0
SOLID
  5
4F1
  8
0
  6
CONTINUOUS
 10
-299.13903603174509
 20
39.55016292427878
 30
0.0
 11
-301.0524531935705
 21
39.55016292427878
 31
0.0
 12
-301.86351156562421
 22
39.00823104596693
 32
0.0
 13
-301.86351156562421
 23
39.00823104596693
 33
0.0
210
0.0
220
0.0
230
-1.0
  0
SOLID
  5
4F2
  8
0
  6
CONTINUOUS
 10
298.32797765969138
 20
39.00823104596693
 30
0.0
 11
297.78604578137958
 21
38.197172673913293
 31
0.0
 12
302.40544344393601
 22
38.197172673913293
 32
0.0
 13
302.40544344393601
 23
38.197172673913293
 33
0.0
210
0.0
220
0.0
230
1.0
  0
SOLID
  5
4F3
  8
0
  6
CONTINUOUS
 10
-298.32797765969138
 20
39.00823104596693
 30
0.0
 11
-301.86351156562421
 21
39.00823104596693
 31
0.0
 12
-302.40544344393601
 22
38.197172673913293
 32
0.0
 13
-302.40544344393601
 23
38.197172673913293
 33
0.0
210
0.0
220
0.0
230
-1.0
  0
SOLID
  5
4F4
  8
0
  6
CONTINUOUS
 10
297.78604578137958
 20
38.197172673913293
 30
0.0
 11
297.59574461265782
 21
37.240464093000583
 31
0.0
 12
302.59574461265782
 22
37.240464093000583
 32
0.0
 13
302.59574461265782
 23
37.240464093000583
 33
0.0
210
0.0
220
0.0
230
1.0
  0
SOLID
  5
4F5
  8
0
  6
CONTINUOUS
 10
-297.78604578137958
 20
38.197172673913293
 30
0.0
 11
-302.40544344393601
 21
38.197172673913293
 31
0.0
 12
-302.59574461265782
 22
37.240464093000583
 32
0.0
 13
-302.59574461265782
 23
37.240464093000583
 33
0.0
210
0.0
220
0.0
230
-1.0
  0
SOLID
  5
4F6
  8
0
  6
CONTINUOUS
 10
297.59574461265782
 20
37.240464093000583
 30
0.0
 11
297.78604578137958
 21
36.283755512087858
 31
0.0
 12
302.40544344393601
 22
36.283755512087858
 32
0.0
 13
302.40544344393601
 23
36.283755512087858
 33
0.0
210
0.0
220
0.0
230
1.0
  0
SOLID
  5
4F7
  8
0
  6
CONTINUOUS
 10
-297.59574461265782
 20
37.240464093000583
 30
0.0
 11
-302.59574461265782
 21
37.240464093000583
 31
0.0
 12
-302.40544344393601
 22
36.283755512087858
 32
0.0
 13
-302.40544344393601
 23
36.283755512087858
 33
0.0
210
0.0
220
0.0
230
-1.0
  0
SOLID
  5
4F8
  8
0
  6
CONTINUOUS
 10
297.78604578137958
 20
36.283755512087858
 30
0.0
 11
298.32797765969138
 21
35.472697140034221
 31
0.0
 12
301.86351156562421
 22
35.472697140034221
 32
0.0
 13
301.86351156562421
 23
35.472697140034221
 33
0.0
210
0.0
220
0.0
230
1.0
  0
SOLID
  5
4F9
  8
0
  6
CONTINUOUS
 10
-297.78604578137958
 20
36.283755512087858
 30
0.0
 11
-302.40544344393601
 21
36.283755512087858
 31
0.0
 12
-301.86351156562421
 22
35.472697140034221
 32
0.0
 13
-301.86351156562421
 23
35.472697140034221
 33
0.0
210
0.0
220
0.0
230
-1.0
  0
SOLID
  5
4FA
  8
0
  6
CONTINUOUS
 10
-299.13903603174509
 20
34.930765261722371
 30
0.0
 11
-301.0524531935705
 21
34.930765261722371
 31
0.0
 12
-300.09574461265782
 22
34.74046409300059
 32
0.0
 13
-300.09574461265782
 23
34.74046409300059
 33
0.0
210
0.0
220
0.0
230
-1.0
  0
SOLID
  5
4FB
  8
0
  6
CONTINUOUS
 10
298.32797765969138
 20
35.472697140034221
 30
0.0
 11
299.13903603174509
 21
34.930765261722371
 31
0.0
 12
301.0524531935705
 22
34.930765261722371
 32
0.0
 13
301.0524531935705
 23
34.930765261722371
 33
0.0
210
0.0
220
0.0
230
1.0
  0
SOLID
  5
4FC
  8
0
  6
CONTINUOUS
 10
-298.32797765969138
 20
35.472697140034221
 30
0.0
 11
-301.86351156562421
 21
35.472697140034221
 31
0.0
 12
-301.0524531935705
 22
34.930765261722371
 32
0.0
 13
-301.0524531935705
 23
34.930765261722371
 33
0.0
210
0.0
220
0.0
230
-1.0
  0
LINE
  5
4FD
  8
0
  6
CONTINUOUS
 10
300.09574461265782
 20
39.740464093000561
 30
0.0
 11
299.13903603174509
 21
39.55016292427878
 31
0.0
  0
LINE
  5
4FE
  8
0
  6
CONTINUOUS
 10
301.0524531935705
 20
39.55016292427878
 30
0.0
 11
300.09574461265782
 21
39.740464093000561
 31
0.0
  0
LINE
  5
4FF
  8
0
  6
CONTINUOUS
 10
299.13903603174509
 20
39.55016292427878
 30
0.0
 11
298.32797765969138
 21
39.00823104596693
 31
0.0
  0
LINE
  5
500
  8
0
  6
CONTINUOUS
 10
301.0524531935705
 20
39.55016292427878
 30
0.0
 11
301.86351156562421
 21
39.00823104596693
 31
0.0
  0
LINE
  5
501
  8
0
  6
CONTINUOUS
 10
298.32797765969138
 20
39.00823104596693
 30
0.0
 11
297.78604578137958
 21
38.197172673913293
 31
0.0
  0
LINE
  5
502
  8
0
  6
CONTINUOUS
 10
301.86351156562421
 20
39.00823104596693
 30
0.0
 11
302.40544344393601
 21
38.197172673913293
 31
0.0
  0
LINE
  5
503
  8
0
  6
CONTINUOUS
 10
297.78604578137958
 20
38.197172673913293
 30
0.0
 11
297.59574461265782
 21
37.240464093000583
 31
0.0
  0
LINE
  5
504
  8
0
  6
CONTINUOUS
 10
302.40544344393601
 20
38.197172673913293
 30
0.0
 11
302.59574461265782
 21
37.240464093000583
 31
0.0
  0
LINE
  5
505
  8
0
  6
CONTINUOUS
 10
297.59574461265782
 20
37.240464093000583
 30
0.0
 11
297.78604578137958
 21
36.283755512087858
 31
0.0
  0
LINE
  5
506
  8
0
  6
CONTINUOUS
 10
302.59574461265782
 20
37.240464093000583
 30
0.0
 11
302.40544344393601
 21
36.283755512087858
 31
0.0
  0
LINE
  5
507
  8
0
  6
CONTINUOUS
 10
297.78604578137958
 20
36.283755512087858
 30
0.0
 11
298.32797765969138
 21
35.472697140034221
 31
0.0
  0
LINE
  5
508
  8
0
  6
CONTINUOUS
 10
302.40544344393601
 20
36.283755512087858
 30
0.0
 11
301.86351156562421
 21
35.472697140034221
 31
0.0
  0
LINE
  5
509
  8
0
  6
CONTINUOUS
 10
301.0524531935705
 20
34.930765261722371
 30
0.0
 11
300.09574461265782
 21
34.74046409300059
 31
0.0
  0
LINE
  5
50A
  8
0
  6
CONTINUOUS
 10
300.09574461265782
 20
34.74046409300059
 30
0.0
 11
299.13903603174509
 21
34.930765261722371
 31
0.0
  0
LINE
  5
50B
  8
0
  6
CONTINUOUS
 10
298.32797765969138
 20
35.472697140034221
 30
0.0
 11
299.13903603174509
 21
34.930765261722371
 31
0.0
  0
LINE
  5
50C
  8
0
  6
CONTINUOUS
 10
301.86351156562421
 20
35.472697140034221
 30
0.0
 11
301.0524531935705
 21
34.930765261722371
 31
0.0
  0
ENDBLK
  5
50E
  8
0
  0
BLOCK
  8
0
  2
*U35
 70
     1
 10
0.0
 20
0.0
 30
0.0
  3
*U35
  1

  0
TEXT
  5
510
  8
0
 10
385.37275345524012
 20
87.549860898888639
 30
0.0
 40
12.5
  1
Breather underlay over
  7
ARIAL
  0
TEXT
  5
511
  8
0
 10
385.50065250026051
 20
67.929487822793064
 30
0.0
 40
12.5
  1
plywood
  7
ARIAL
  0
ENDBLK
  5
513
  8
0
  0
ENDSEC
  0
SECTION
  2
ENTITIES
  0
LINE
  5
10A
  8
0
 10
0.0000000000012098
 20
120.1677772475895
 30
0.0
 11
0.0000000000011509
 21
83.750000000000085
 31
0.0
1001
REVIT
1002
{
1070
     1
1000
576390
1002
}
1002
{
1070
     2
1000
-2000051
1002
}
1002
{
1070
     3
1000
-2000042
1002
}
  0
LINE
  5
10B
  8
0
 10
0.000000000001054
 20
23.750000000000028
 30
0.0
 11
0.0000000000010378
 21
13.750000000000091
 31
0.0
1001
REVIT
1002
{
1070
     1
1000
576390
1002
}
1002
{
1070
     2
1000
-2000051
1002
}
1002
{
1070
     3
1000
-2000042
1002
}
  0
CIRCLE
  5
1D8
  8
0
 10
16.449667196628649
 20
164.7162616981949
 30
0.0
 40
2.4999999999999969
1001
REVIT
1002
{
1070
     1
1000
576378
1002
}
1002
{
1070
     5
1000
233013
1002
}
1002
{
1070
     2
1000
-2005028
1002
}
  0
INSERT
  5
1D9
  8
0
  6
CONTINUOUS
  2
*U24
 10
0.0
 20
0.0
 30
0.0
1001
REVIT
1002
{
1070
     1
1000
576378
1002
}
1002
{
1070
     5
1000
233013
1002
}
1002
{
1070
     2
1000
-2005028
1002
}
1001
ACAD
1002
{
1000
R14_HATCH_DATA
1000
1D9
1011
1.0
1021
-1.#QNAN00000000000E+000
1031
-1.#QNAN00000000000E+000
1021
0.0
1031
0.0
1011
0.0
1021
-1.#QNAN00000000000E+000
1031
-1.#QNAN00000000000E+000
1021
1.0
1031
0.0
1011
0.0
1021
-1.#QNAN00000000000E+000
1031
-1.#QNAN00000000000E+000
1021
0.0
1031
1.0
1040
0.0
1010
0.0
1020
0.0
1030
1.0
1000
SOLID
1070
     1
1070
     0
1071
        1
1071
        0
1071
        1
1070
     2
1040
16.449667196628649
1040
164.7162616981949
1040
2.4999999999999969
1040
0.0
1040
6.2831853071795862
1070
     1
1071
        0
1070
     0
1070
     1
1071
        1
1040
0.0
1040
0.0
1040
0.0
1002
}
  0
LINE
  5
1DA
  8
0
 10
153.9392967566535
 20
352.95416713210341
 30
0.0
 11
319.60654744709922
 21
352.96020919952161
 31
0.0
1001
REVIT
1002
{
1070
     1
1000
576378
1002
}
1002
{
1070
     5
1000
233013
1002
}
1002
{
1070
     2
1000
-2005028
1002
}
  0
LINE
  5
1DB
  8
0
 10
16.449667196628649
 20
164.7162616981949
 30
0.0
 11
153.9392967566535
 21
352.95416713210341
 31
0.0
1001
REVIT
1002
{
1070
     1
1000
576378
1002
}
1002
{
1070
     5
1000
233013
1002
}
1002
{
1070
     2
1000
-2005028
1002
}
  0
INSERT
  5
1DD
  8
0
  2
*U25
 10
0.0
 20
0.0
 30
0.0
  0
CIRCLE
  5
1DE
  8
0
 10
66.979319876751944
 20
136.09463497106009
 30
0.0
 40
2.4999999999999978
1001
REVIT
1002
{
1070
     1
1000
576379
1002
}
1002
{
1070
     5
1000
233013
1002
}
1002
{
1070
     2
1000
-2005028
1002
}
  0
INSERT
  5
1DF
  8
0
  6
CONTINUOUS
  2
*U26
 10
0.0
 20
0.0
 30
0.0
1001
REVIT
1002
{
1070
     1
1000
576379
1002
}
1002
{
1070
     5
1000
233013
1002
}
1002
{
1070
     2
1000
-2005028
1002
}
1001
ACAD
1002
{
1000
R14_HATCH_DATA
1000
1DF
1011
1.0
1021
-1.#QNAN00000000000E+000
1031
-1.#QNAN00000000000E+000
1021
0.0
1031
0.0
1011
0.0
1021
-1.#QNAN00000000000E+000
1031
-1.#QNAN00000000000E+000
1021
1.0
1031
0.0
1011
0.0
1021
-1.#QNAN00000000000E+000
1031
-1.#QNAN00000000000E+000
1021
0.0
1031
1.0
1040
0.0
1010
0.0
1020
0.0
1030
1.0
1000
SOLID
1070
     1
1070
     0
1071
        1
1071
        0
1071
        1
1070
     2
1040
66.979319876751944
1040
136.09463497106009
1040
2.4999999999999978
1040
0.0
1040
6.2831853071795862
1070
     1
1071
        0
1070
     0
1070
     1
1071
        1
1040
0.0
1040
0.0
1040
0.0
1002
}
  0
LINE
  5
1E0
  8
0
 10
180.1126873145933
 20
307.38766844029323
 30
0.0
 11
319.60654744709922
 21
307.39371050771138
 31
0.0
1001
REVIT
1002
{
1070
     1
1000
576379
1002
}
1002
{
1070
     5
1000
233013
1002
}
1002
{
1070
     2
1000
-2005028
1002
}
  0
LINE
  5
1E1
  8
0
 10
66.979319876751944
 20
136.09463497106009
 30
0.0
 11
180.1126873145933
 21
307.38766844029323
 31
0.0
1001
REVIT
1002
{
1070
     1
1000
576379
1002
}
1002
{
1070
     5
1000
233013
1002
}
1002
{
1070
     2
1000
-2005028
1002
}
  0
INSERT
  5
1E2
  8
0
  2
*U27
 10
0.0
 20
0.0
 30
0.0
  0
CIRCLE
  5
1E3
  8
0
 10
169.95045062817141
 20
83.199202475396547
 30
0.0
 40
2.4999999999999951
1001
REVIT
1002
{
1070
     1
1000
576380
1002
}
1002
{
1070
     5
1000
233013
1002
}
1002
{
1070
     2
1000
-2005028
1002
}
  0
INSERT
  5
1E4
  8
0
  6
CONTINUOUS
  2
*U28
 10
0.0
 20
0.0
 30
0.0
1001
REVIT
1002
{
1070
     1
1000
576380
1002
}
1002
{
1070
     5
1000
233013
1002
}
1002
{
1070
     2
1000
-2005028
1002
}
1001
ACAD
1002
{
1000
R14_HATCH_DATA
1000
1E4
1011
1.0
1021
-1.#QNAN00000000000E+000
1031
-1.#QNAN00000000000E+000
1021
0.0
1031
0.0
1011
0.0
1021
-1.#QNAN00000000000E+000
1031
-1.#QNAN00000000000E+000
1021
1.0
1031
0.0
1011
0.0
1021
-1.#QNAN00000000000E+000
1031
-1.#QNAN00000000000E+000
1021
0.0
1031
1.0
1040
0.0
1010
0.0
1020
0.0
1030
1.0
1000
SOLID
1070
     1
1070
     0
1071
        1
1071
        0
1071
        1
1070
     2
1040
169.95045062817141
1040
83.199202475396547
1040
2.4999999999999951
1040
0.0
1040
6.2831853071795862
1070
     1
1071
        0
1070
     0
1070
     1
1071
        1
1040
0.0
1040
0.0
1040
0.0
1002
}
  0
LINE
  5
1E5
  8
0
 10
254.32425916414891
 20
215.75150481981271
 30
0.0
 11
319.60654744709922
 21
215.7575468872308
 31
0.0
1001
REVIT
1002
{
1070
     1
1000
576380
1002
}
1002
{
1070
     5
1000
233013
1002
}
1002
{
1070
     2
1000
-2005028
1002
}
  0
LINE
  5
1E6
  8
0
 10
169.95045062817141
 20
83.199202475396547
 30
0.0
 11
254.32425916414891
 21
215.75150481981271
 31
0.0
1001
REVIT
1002
{
1070
     1
1000
576380
1002
}
1002
{
1070
     5
1000
233013
1002
}
1002
{
1070
     2
1000
-2005028
1002
}
  0
INSERT
  5
1E7
  8
0
  2
*U29
 10
0.0
 20
0.0
 30
0.0
  0
CIRCLE
  5
1E8
  8
0
 10
128.49020244725449
 20
114.40141809699701
 30
0.0
 40
2.5000000000000031
1001
REVIT
1002
{
1070
     1
1000
576381
1002
}
1002
{
1070
     5
1000
233013
1002
}
1002
{
1070
     2
1000
-2005028
1002
}
  0
INSERT
  5
1E9
  8
0
  6
CONTINUOUS
  2
*U30
 10
0.0
 20
0.0
 30
0.0
1001
REVIT
1002
{
1070
     1
1000
576381
1002
}
1002
{
1070
     5
1000
233013
1002
}
1002
{
1070
     2
1000
-2005028
1002
}
1001
ACAD
1002
{
1000
R14_HATCH_DATA
1000
1E9
1011
1.0
1021
-1.#QNAN00000000000E+000
1031
-1.#QNAN00000000000E+000
1021
0.0
1031
0.0
1011
0.0
1021
-1.#QNAN00000000000E+000
1031
-1.#QNAN00000000000E+000
1021
1.0
1031
0.0
1011
0.0
1021
-1.#QNAN00000000000E+000
1031
-1.#QNAN00000000000E+000
1021
0.0
1031
1.0
1040
0.0
1010
0.0
1020
0.0
1030
1.0
1000
SOLID
1070
     1
1070
     0
1071
        1
1071
        0
1071
        1
1070
     2
1040
128.49020244725449
1040
114.40141809699701
1040
2.5000000000000031
1040
0.0
1040
6.2831853071795862
1070
     1
1071
        0
1070
     0
1070
     1
1071
        1
1040
0.0
1040
0.0
1040
0.0
1002
}
  0
LINE
  5
1EA
  8
0
 10
211.63950853951661
 20
262.73829861965498
 30
0.0
 11
319.40804678361059
 21
262.73829861965498
 31
0.0
1001
REVIT
1002
{
1070
     1
1000
576381
1002
}
1002
{
1070
     5
1000
233013
1002
}
1002
{
1070
     2
1000
-2005028
1002
}
  0
LINE
  5
1EB
  8
0
 10
128.49020244725449
 20
114.40141809699701
 30
0.0
 11
211.63950853951661
 21
262.73829861965498
 31
0.0
1001
REVIT
1002
{
1070
     1
1000
576381
1002
}
1002
{
1070
     5
1000
233013
1002
}
1002
{
1070
     2
1000
-2005028
1002
}
  0
INSERT
  5
1EC
  8
0
  2
*U31
 10
0.0
 20
0.0
 30
0.0
  0
CIRCLE
  5
1ED
  8
0
 10
-253.24563193565589
 20
65.595562863218404
 30
0.0
 40
2.499999999999988
1001
REVIT
1002
{
1070
     1
1000
576386
1002
}
1002
{
1070
     5
1000
578834
1002
}
1002
{
1070
     2
1000
-2005028
1002
}
  0
INSERT
  5
1EE
  8
0
  6
CONTINUOUS
  2
*U32
 10
0.0
 20
0.0
 30
0.0
1001
REVIT
1002
{
1070
     1
1000
576386
1002
}
1002
{
1070
     5
1000
578834
1002
}
1002
{
1070
     2
1000
-2005028
1002
}
1001
ACAD
1002
{
1000
R14_HATCH_DATA
1000
1EE
1011
1.0
1021
-1.#QNAN00000000000E+000
1031
-1.#QNAN00000000000E+000
1021
0.0
1031
0.0
1011
0.0
1021
-1.#QNAN00000000000E+000
1031
-1.#QNAN00000000000E+000
1021
1.0
1031
0.0
1011
0.0
1021
-1.#QNAN00000000000E+000
1031
-1.#QNAN00000000000E+000
1021
0.0
1031
1.0
1040
0.0
1010
0.0
1020
0.0
1030
1.0
1000
SOLID
1070
     1
1070
     0
1071
        1
1071
        0
1071
        1
1070
     2
1040
-253.24563193565589
1040
65.595562863218404
1040
2.499999999999988
1040
0.0
1040
6.2831853071795862
1070
     1
1071
        0
1070
     0
1070
     1
1071
        1
1040
0.0
1040
0.0
1040
0.0
1002
}
  0
LINE
  5
1EF
  8
0
 10
-294.487291289182
 20
120.23706813509089
 30
0.0
 11
-307.17406235224797
 21
120.2431102025091
 31
0.0
1001
REVIT
1002
{
1070
     1
1000
576386
1002
}
1002
{
1070
     5
1000
578834
1002
}
1002
{
1070
     2
1000
-2005028
1002
}
  0
LINE
  5
1F0
  8
0
 10
-253.24563193565589
 20
65.595562863218404
 30
0.0
 11
-294.487291289182
 21
120.23706813509089
 31
0.0
1001
REVIT
1002
{
1070
     1
1000
576386
1002
}
1002
{
1070
     5
1000
578834
1002
}
1002
{
1070
     2
1000
-2005028
1002
}
  0
INSERT
  5
1F1
  8
0
  2
*U33
 10
0.0
 20
0.0
 30
0.0
  0
CIRCLE
  5
1F2
  8
0
 10
300.09574461265782
 20
37.240464093000583
 30
0.0
 40
2.499999999999984
1001
REVIT
1002
{
1070
     1
1000
576389
1002
}
1002
{
1070
     5
1000
233011
1002
}
1002
{
1070
     2
1000
-2005028
1002
}
  0
INSERT
  5
1F3
  8
0
  6
CONTINUOUS
  2
*U34
 10
0.0
 20
0.0
 30
0.0
1001
REVIT
1002
{
1070
     1
1000
576389
1002
}
1002
{
1070
     5
1000
233011
1002
}
1002
{
1070
     2
1000
-2005028
1002
}
1001
ACAD
1002
{
1000
R14_HATCH_DATA
1000
1F3
1011
1.0
1021
-1.#QNAN00000000000E+000
1031
-1.#QNAN00000000000E+000
1021
0.0
1031
0.0
1011
0.0
1021
-1.#QNAN00000000000E+000
1031
-1.#QNAN00000000000E+000
1021
1.0
1031
0.0
1011
0.0
1021
-1.#QNAN00000000000E+000
1031
-1.#QNAN00000000000E+000
1021
0.0
1031
1.0
1040
0.0
1010
0.0
1020
0.0
1030
1.0
1000
SOLID
1070
     1
1070
     0
1071
        1
1071
        0
1071
        1
1070
     2
1040
300.09574461265782
1040
37.240464093000583
1040
2.499999999999984
1040
0.0
1040
6.2831853071795862
1070
     1
1071
        0
1070
     0
1070
     1
1071
        1
1040
0.0
1040
0.0
1040
0.0
1002
}
  0
LINE
  5
1F4
  8
0
 10
335.34795506569571
 20
83.233378822147614
 30
0.0
 11
384.28536065094369
 21
83.233378822147628
 31
0.0
1001
REVIT
1002
{
1070
     1
1000
576389
1002
}
1002
{
1070
     5
1000
233011
1002
}
1002
{
1070
     2
1000
-2005028
1002
}
  0
LINE
  5
1F5
  8
0
 10
300.09574461265782
 20
37.240464093000583
 30
0.0
 11
335.34795506569571
 21
83.233378822147614
 31
0.0
1001
REVIT
1002
{
1070
     1
1000
576389
1002
}
1002
{
1070
     5
1000
233011
1002
}
1002
{
1070
     2
1000
-2005028
1002
}
  0
INSERT
  5
1F6
  8
0
  2
*U35
 10
0.0
 20
0.0
 30
0.0
  0
LINE
  5
270
  8
0
 10
529.1785286527263
 20
-224.4675550490681
 30
0.0
 11
529.17852865272562
 21
-103.0215481906682
 31
0.0
  0
LINE
  5
271
  8
0
 10
529.17852865272505
 20
25.532444950931879
 30
0.0
 11
529.17852865272562
 21
-95.913561907468022
 31
0.0
  0
LINE
  5
272
  8
0
 10
529.17852865272505
 20
25.532444950931879
 30
0.0
 11
529.17852865272562
 21
-95.913561907468022
 31
0.0
  0
LINE
  5
273
  8
0
 10
529.17852865272562
 20
-95.913561907468022
 30
0.0
 11
539.48614781360652
 21
-97.731073272398774
 31
0.0
  0
LINE
  5
274
  8
0
 10
539.48614781360652
 20
-97.731073272398774
 30
0.0
 11
518.87090949184483
 21
-101.2040368257375
 31
0.0
  0
LINE
  5
275
  8
0
 10
518.87090949184483
 20
-101.2040368257375
 30
0.0
 11
529.17852865272562
 21
-103.0215481906682
 31
0.0
  0
LINE
  5
276
  8
0
 10
529.17852865272562
 20
-103.0215481906682
 30
0.0
 11
529.1785286527263
 21
-224.4675550490681
 31
0.0
  0
LINE
  5
277
  8
0
 10
-529.1785286527238
 20
-224.4675550490681
 30
0.0
 11
-529.17852865272312
 21
-103.0215481906682
 31
0.0
  0
LINE
  5
278
  8
0
 10
-529.17852865272243
 20
25.532444950931879
 30
0.0
 11
-529.17852865272312
 21
-95.913561907468022
 31
0.0
  0
LINE
  5
279
  8
0
 10
-529.1785286527238
 20
-224.4675550490681
 30
0.0
 11
-529.17852865272312
 21
-103.0215481906682
 31
0.0
  0
LINE
  5
27A
  8
0
 10
-529.17852865272312
 20
-103.0215481906682
 30
0.0
 11
-518.8709094918421
 21
-101.2040368257375
 31
0.0
  0
LINE
  5
27B
  8
0
 10
-518.8709094918421
 20
-101.2040368257375
 30
0.0
 11
-539.48614781360379
 21
-97.731073272398774
 31
0.0
  0
LINE
  5
27C
  8
0
 10
-539.48614781360379
 20
-97.731073272398774
 30
0.0
 11
-529.17852865272312
 21
-95.913561907468022
 31
0.0
  0
LINE
  5
27D
  8
0
 10
-529.17852865272312
 20
-95.913561907468022
 30
0.0
 11
-529.17852865272243
 21
25.532444950931879
 31
0.0
  0
LINE
  5
27E
  8
0
 10
250.0
 20
-166.89078604315341
 30
0.0
 11
3.5539931416000998
 21
-166.89078604315341
 31
0.0
  0
LINE
  5
27F
  8
0
 10
-250.0
 20
-166.89078604315341
 30
0.0
 11
-3.5539931416000998
 21
-166.89078604315341
 31
0.0
  0
LINE
  5
280
  8
0
 10
250.0
 20
-166.89078604315341
 30
0.0
 11
3.5539931416000998
 21
-166.89078604315341
 31
0.0
  0
LINE
  5
281
  8
0
 10
3.5539931416000998
 20
-166.89078604315341
 30
0.0
 11
1.7364817766693119
 21
-156.58316688227251
 31
0.0
  0
LINE
  5
282
  8
0
 10
1.7364817766693119
 20
-156.58316688227239
 30
0.0
 11
-1.7364817766693119
 21
-177.1984052040342
 31
0.0
  0
LINE
  5
283
  8
0
 10
-1.7364817766693119
 20
-177.1984052040342
 30
0.0
 11
-3.5539931416000998
 21
-166.89078604315341
 31
0.0
  0
LINE
  5
284
  8
0
 10
-3.5539931416000998
 20
-166.89078604315341
 30
0.0
 11
-250.0
 21
-166.89078604315341
 31
0.0
  0
LINE
  5
285
  8
0
 10
-1.045655701965472
 20
152.6272521215738
 30
0.0
 11
-0.9393297504570342
 21
147.62838277020691
 31
0.0
1001
REVIT
1002
{
1070
     3
1000
578788
1002
}
  0
LINE
  5
286
  8
0
 10
-4.8070850163778109
 20
146.1267426576249
 30
0.0
 11
-0.9393297504569773
 21
147.62838277020691
 31
0.0
1001
REVIT
1002
{
1070
     3
1000
578788
1002
}
  0
LINE
  5
287
  8
0
 10
-252.09008575673931
 20
72.351099143497493
 30
0.0
 11
-4.8070850163715022
 21
146.12674265762681
 31
0.0
1001
REVIT
1002
{
1070
     3
1000
578788
1002
}
  0
LINE
  5
288
  8
0
 10
-253.32186928458589
 20
69.67375648751451
 30
0.0
 11
-253.10328570682799
 21
71.160519519912654
 31
0.0
1001
REVIT
1002
{
1070
     3
1000
578788
1002
}
  0
LINE
  5
289
  8
0
 10
-253.2986047296184
 20
69.117587925233721
 30
0.0
 11
-253.32186928458589
 21
69.67375648751451
 31
0.0
1001
REVIT
1002
{
1070
     3
1000
578788
1002
}
  0
LINE
  5
28A
  8
0
 10
-251.780500694468
 20
62.833556431120819
 30
0.0
 11
-253.2986047296184
 21
69.117587925233721
 31
0.0
1001
REVIT
1002
{
1070
     3
1000
578788
1002
}
  0
LINE
  5
28B
  8
0
 10
-240.14318137098351
 20
64.23964973889511
 30
0.0
 11
-250.13225445939361
 21
61.826702579643587
 31
0.0
1001
REVIT
1002
{
1070
     3
1000
578788
1002
}
  0
ARC
  5
28C
  8
0
 10
-251.7051424006724
 20
70.997093458621293
 30
0.0
 40
1.4076621690083111
 50
105.8704329958157
 51
173.33306868569841
1001
REVIT
1002
{
1070
     3
1000
578788
1002
}
  0
ARC
  5
28D
  8
0
 10
-250.45293991929191
 20
63.154270191322432
 30
0.0
 40
1.3657506828732919
 50
193.58136587841051
 51
283.58014447763219
1001
REVIT
1002
{
1070
     3
1000
578788
1002
}
  0
LINE
  5
28E
  8
0
 10
1.045655701967916
 20
152.62725212157369
 30
0.0
 11
0.9393297504594215
 21
147.62838277020691
 31
0.0
1001
REVIT
1002
{
1070
     3
1000
578788
1002
}
  0
LINE
  5
28F
  8
0
 10
4.8070850163801992
 20
146.1267426576249
 30
0.0
 11
0.9393297504593647
 21
147.62838277020691
 31
0.0
1001
REVIT
1002
{
1070
     3
1000
578788
1002
}
  0
LINE
  5
290
  8
0
 10
252.0900857567417
 20
72.351099143497493
 30
0.0
 11
4.8070850163738887
 21
146.12674265762681
 31
0.0
1001
REVIT
1002
{
1070
     3
1000
578788
1002
}
  0
LINE
  5
291
  8
0
 10
253.3218692845883
 20
69.67375648751451
 30
0.0
 11
253.10328570683041
 21
71.160519519912654
 31
0.0
1001
REVIT
1002
{
1070
     3
1000
578788
1002
}
  0
LINE
  5
292
  8
0
 10
253.29860472962079
 20
69.117587925233721
 30
0.0
 11
253.3218692845883
 21
69.67375648751451
 31
0.0
1001
REVIT
1002
{
1070
     3
1000
578788
1002
}
  0
LINE
  5
293
  8
0
 10
251.78050069447039
 20
62.833556431120819
 30
0.0
 11
253.29860472962079
 21
69.117587925233721
 31
0.0
1001
REVIT
1002
{
1070
     3
1000
578788
1002
}
  0
LINE
  5
294
  8
0
 10
240.1431813709859
 20
64.23964973889511
 30
0.0
 11
250.13225445939591
 21
61.826702579643587
 31
0.0
1001
REVIT
1002
{
1070
     3
1000
578788
1002
}
  0
ARC
  5
295
  8
0
 10
251.70514240067479
 20
70.997093458621293
 30
0.0
 40
1.4076621690083111
 50
6.6669313143011966
 51
74.129567004184324
1001
REVIT
1002
{
1070
     3
1000
578788
1002
}
  0
ARC
  5
296
  8
0
 10
250.45293991929429
 20
63.154270191322432
 30
0.0
 40
1.3657506828732919
 50
256.41985552236781
 51
346.41863412158898
1001
REVIT
1002
{
1070
     3
1000
578788
1002
}
  0
LINE
  5
297
  8
0
 10
75.0
 20
83.750000000000028
 30
0.0
 11
-75.0
 21
83.750000000000028
 31
0.0
1001
REVIT
1002
{
1070
     3
1000
211597
1002
}
  0
LINE
  5
298
  8
0
 10
-75.0
 20
83.750000000000028
 30
0.0
 11
-75.0
 21
23.750000000000021
 31
0.0
1001
REVIT
1002
{
1070
     3
1000
211597
1002
}
  0
LINE
  5
299
  8
0
 10
-75.0
 20
23.750000000000021
 30
0.0
 11
75.0
 21
23.750000000000021
 31
0.0
1001
REVIT
1002
{
1070
     3
1000
211597
1002
}
  0
LINE
  5
29A
  8
0
 10
75.0
 20
23.750000000000021
 30
0.0
 11
75.0
 21
83.750000000000028
 31
0.0
1001
REVIT
1002
{
1070
     3
1000
211597
1002
}
  0
LINE
  5
29B
  8
0
 10
-48.0
 20
53.750000000000021
 30
0.0
 11
-50.0
 21
56.250000000000021
 31
0.0
1001
REVIT
1002
{
1070
     3
1000
211597
1002
}
  0
LINE
  5
29C
  8
0
 10
-50.0
 20
56.250000000000021
 30
0.0
 11
-70.0
 21
56.250000000000021
 31
0.0
1001
REVIT
1002
{
1070
     3
1000
211597
1002
}
  0
LINE
  5
29D
  8
0
 10
-70.0
 20
56.250000000000021
 30
0.0
 11
-70.0
 21
51.250000000000021
 31
0.0
1001
REVIT
1002
{
1070
     3
1000
211597
1002
}
  0
LINE
  5
29E
  8
0
 10
-70.0
 20
51.250000000000021
 30
0.0
 11
-50.0
 21
51.250000000000021
 31
0.0
1001
REVIT
1002
{
1070
     3
1000
211597
1002
}
  0
LINE
  5
29F
  8
0
 10
-50.0
 20
51.250000000000021
 30
0.0
 11
-48.0
 21
53.750000000000021
 31
0.0
1001
REVIT
1002
{
1070
     3
1000
211597
1002
}
  0
LINE
  5
2A0
  8
0
 10
-18.0
 20
53.750000000000021
 30
0.0
 11
-20.0
 21
56.250000000000021
 31
0.0
1001
REVIT
1002
{
1070
     3
1000
211597
1002
}
  0
LINE
  5
2A1
  8
0
 10
-20.0
 20
56.250000000000021
 30
0.0
 11
-40.0
 21
56.250000000000021
 31
0.0
1001
REVIT
1002
{
1070
     3
1000
211597
1002
}
  0
LINE
  5
2A2
  8
0
 10
-40.0
 20
56.250000000000021
 30
0.0
 11
-40.0
 21
51.250000000000021
 31
0.0
1001
REVIT
1002
{
1070
     3
1000
211597
1002
}
  0
LINE
  5
2A3
  8
0
 10
-40.0
 20
51.250000000000021
 30
0.0
 11
-20.0
 21
51.250000000000021
 31
0.0
1001
REVIT
1002
{
1070
     3
1000
211597
1002
}
  0
LINE
  5
2A4
  8
0
 10
-20.0
 20
51.250000000000021
 30
0.0
 11
-18.0
 21
53.750000000000021
 31
0.0
1001
REVIT
1002
{
1070
     3
1000
211597
1002
}
  0
LINE
  5
2A5
  8
0
 10
12.0
 20
53.750000000000021
 30
0.0
 11
10.0
 21
56.250000000000021
 31
0.0
1001
REVIT
1002
{
1070
     3
1000
211597
1002
}
  0
LINE
  5
2A6
  8
0
 10
10.0
 20
56.250000000000021
 30
0.0
 11
-10.0
 21
56.250000000000021
 31
0.0
1001
REVIT
1002
{
1070
     3
1000
211597
1002
}
  0
LINE
  5
2A7
  8
0
 10
-10.0
 20
56.250000000000021
 30
0.0
 11
-10.0
 21
51.250000000000021
 31
0.0
1001
REVIT
1002
{
1070
     3
1000
211597
1002
}
  0
LINE
  5
2A8
  8
0
 10
-10.0
 20
51.250000000000021
 30
0.0
 11
10.0
 21
51.250000000000021
 31
0.0
1001
REVIT
1002
{
1070
     3
1000
211597
1002
}
  0
LINE
  5
2A9
  8
0
 10
10.0
 20
51.250000000000021
 30
0.0
 11
12.0
 21
53.750000000000021
 31
0.0
1001
REVIT
1002
{
1070
     3
1000
211597
1002
}
  0
LINE
  5
2AA
  8
0
 10
42.0
 20
53.750000000000021
 30
0.0
 11
40.0
 21
56.250000000000021
 31
0.0
1001
REVIT
1002
{
1070
     3
1000
211597
1002
}
  0
LINE
  5
2AB
  8
0
 10
40.0
 20
56.250000000000021
 30
0.0
 11
20.0
 21
56.250000000000021
 31
0.0
1001
REVIT
1002
{
1070
     3
1000
211597
1002
}
  0
LINE
  5
2AC
  8
0
 10
20.0
 20
56.250000000000021
 30
0.0
 11
20.0
 21
51.250000000000021
 31
0.0
1001
REVIT
1002
{
1070
     3
1000
211597
1002
}
  0
LINE
  5
2AD
  8
0
 10
20.0
 20
51.250000000000021
 30
0.0
 11
40.0
 21
51.250000000000021
 31
0.0
1001
REVIT
1002
{
1070
     3
1000
211597
1002
}
  0
LINE
  5
2AE
  8
0
 10
40.0
 20
51.250000000000021
 30
0.0
 11
42.0
 21
53.750000000000021
 31
0.0
1001
REVIT
1002
{
1070
     3
1000
211597
1002
}
  0
LINE
  5
2AF
  8
0
 10
72.0
 20
53.750000000000021
 30
0.0
 11
70.0
 21
56.250000000000021
 31
0.0
1001
REVIT
1002
{
1070
     3
1000
211597
1002
}
  0
LINE
  5
2B0
  8
0
 10
70.0
 20
56.250000000000021
 30
0.0
 11
50.0
 21
56.250000000000021
 31
0.0
1001
REVIT
1002
{
1070
     3
1000
211597
1002
}
  0
LINE
  5
2B1
  8
0
 10
50.0
 20
56.250000000000021
 30
0.0
 11
50.0
 21
51.250000000000021
 31
0.0
1001
REVIT
1002
{
1070
     3
1000
211597
1002
}
  0
LINE
  5
2B2
  8
0
 10
50.0
 20
51.250000000000021
 30
0.0
 11
70.0
 21
51.250000000000021
 31
0.0
1001
REVIT
1002
{
1070
     3
1000
211597
1002
}
  0
LINE
  5
2B3
  8
0
 10
70.0
 20
51.250000000000021
 30
0.0
 11
72.0
 21
53.750000000000021
 31
0.0
1001
REVIT
1002
{
1070
     3
1000
211597
1002
}
  0
LINE
  5
2B4
  8
0
 10
-48.0
 20
73.750000000000028
 30
0.0
 11
-50.0
 21
76.250000000000028
 31
0.0
1001
REVIT
1002
{
1070
     3
1000
211597
1002
}
  0
LINE
  5
2B5
  8
0
 10
-50.0
 20
76.250000000000028
 30
0.0
 11
-70.0
 21
76.250000000000028
 31
0.0
1001
REVIT
1002
{
1070
     3
1000
211597
1002
}
  0
LINE
  5
2B6
  8
0
 10
-70.0
 20
76.250000000000028
 30
0.0
 11
-70.0
 21
71.250000000000028
 31
0.0
1001
REVIT
1002
{
1070
     3
1000
211597
1002
}
  0
LINE
  5
2B7
  8
0
 10
-70.0
 20
71.250000000000028
 30
0.0
 11
-50.0
 21
71.250000000000028
 31
0.0
1001
REVIT
1002
{
1070
     3
1000
211597
1002
}
  0
LINE
  5
2B8
  8
0
 10
-50.0
 20
71.250000000000028
 30
0.0
 11
-48.0
 21
73.750000000000028
 31
0.0
1001
REVIT
1002
{
1070
     3
1000
211597
1002
}
  0
LINE
  5
2B9
  8
0
 10
-18.0
 20
73.750000000000028
 30
0.0
 11
-20.0
 21
76.250000000000028
 31
0.0
1001
REVIT
1002
{
1070
     3
1000
211597
1002
}
  0
LINE
  5
2BA
  8
0
 10
-20.0
 20
76.250000000000028
 30
0.0
 11
-40.0
 21
76.250000000000028
 31
0.0
1001
REVIT
1002
{
1070
     3
1000
211597
1002
}
  0
LINE
  5
2BB
  8
0
 10
-40.0
 20
76.250000000000028
 30
0.0
 11
-40.0
 21
71.250000000000028
 31
0.0
1001
REVIT
1002
{
1070
     3
1000
211597
1002
}
  0
LINE
  5
2BC
  8
0
 10
-40.0
 20
71.250000000000028
 30
0.0
 11
-20.0
 21
71.250000000000028
 31
0.0
1001
REVIT
1002
{
1070
     3
1000
211597
1002
}
  0
LINE
  5
2BD
  8
0
 10
-20.0
 20
71.250000000000028
 30
0.0
 11
-18.0
 21
73.750000000000028
 31
0.0
1001
REVIT
1002
{
1070
     3
1000
211597
1002
}
  0
LINE
  5
2BE
  8
0
 10
12.0
 20
73.750000000000028
 30
0.0
 11
10.0
 21
76.250000000000028
 31
0.0
1001
REVIT
1002
{
1070
     3
1000
211597
1002
}
  0
LINE
  5
2BF
  8
0
 10
10.0
 20
76.250000000000028
 30
0.0
 11
-10.0
 21
76.250000000000028
 31
0.0
1001
REVIT
1002
{
1070
     3
1000
211597
1002
}
  0
LINE
  5
2C0
  8
0
 10
-10.0
 20
76.250000000000028
 30
0.0
 11
-10.0
 21
71.250000000000028
 31
0.0
1001
REVIT
1002
{
1070
     3
1000
211597
1002
}
  0
LINE
  5
2C1
  8
0
 10
-10.0
 20
71.250000000000028
 30
0.0
 11
10.0
 21
71.250000000000028
 31
0.0
1001
REVIT
1002
{
1070
     3
1000
211597
1002
}
  0
LINE
  5
2C2
  8
0
 10
10.0
 20
71.250000000000028
 30
0.0
 11
12.0
 21
73.750000000000028
 31
0.0
1001
REVIT
1002
{
1070
     3
1000
211597
1002
}
  0
LINE
  5
2C3
  8
0
 10
42.0
 20
73.750000000000028
 30
0.0
 11
40.0
 21
76.250000000000028
 31
0.0
1001
REVIT
1002
{
1070
     3
1000
211597
1002
}
  0
LINE
  5
2C4
  8
0
 10
40.0
 20
76.250000000000028
 30
0.0
 11
20.0
 21
76.250000000000028
 31
0.0
1001
REVIT
1002
{
1070
     3
1000
211597
1002
}
  0
LINE
  5
2C5
  8
0
 10
20.0
 20
76.250000000000028
 30
0.0
 11
20.0
 21
71.250000000000028
 31
0.0
1001
REVIT
1002
{
1070
     3
1000
211597
1002
}
  0
LINE
  5
2C6
  8
0
 10
20.0
 20
71.250000000000028
 30
0.0
 11
40.0
 21
71.250000000000028
 31
0.0
1001
REVIT
1002
{
1070
     3
1000
211597
1002
}
  0
LINE
  5
2C7
  8
0
 10
40.0
 20
71.250000000000028
 30
0.0
 11
42.0
 21
73.750000000000028
 31
0.0
1001
REVIT
1002
{
1070
     3
1000
211597
1002
}
  0
LINE
  5
2C8
  8
0
 10
72.0
 20
73.750000000000028
 30
0.0
 11
70.0
 21
76.250000000000028
 31
0.0
1001
REVIT
1002
{
1070
     3
1000
211597
1002
}
  0
LINE
  5
2C9
  8
0
 10
70.0
 20
76.250000000000028
 30
0.0
 11
50.0
 21
76.250000000000028
 31
0.0
1001
REVIT
1002
{
1070
     3
1000
211597
1002
}
  0
LINE
  5
2CA
  8
0
 10
50.0
 20
76.250000000000028
 30
0.0
 11
50.0
 21
71.250000000000028
 31
0.0
1001
REVIT
1002
{
1070
     3
1000
211597
1002
}
  0
LINE
  5
2CB
  8
0
 10
50.0
 20
71.250000000000028
 30
0.0
 11
70.0
 21
71.250000000000028
 31
0.0
1001
REVIT
1002
{
1070
     3
1000
211597
1002
}
  0
LINE
  5
2CC
  8
0
 10
70.0
 20
71.250000000000028
 30
0.0
 11
72.0
 21
73.750000000000028
 31
0.0
1001
REVIT
1002
{
1070
     3
1000
211597
1002
}
  0
LINE
  5
2CD
  8
0
 10
-48.0
 20
33.750000000000021
 30
0.0
 11
-50.0
 21
36.250000000000021
 31
0.0
1001
REVIT
1002
{
1070
     3
1000
211597
1002
}
  0
LINE
  5
2CE
  8
0
 10
-50.0
 20
36.250000000000021
 30
0.0
 11
-70.0
 21
36.250000000000021
 31
0.0
1001
REVIT
1002
{
1070
     3
1000
211597
1002
}
  0
LINE
  5
2CF
  8
0
 10
-70.0
 20
36.250000000000021
 30
0.0
 11
-70.0
 21
31.250000000000021
 31
0.0
1001
REVIT
1002
{
1070
     3
1000
211597
1002
}
  0
LINE
  5
2D0
  8
0
 10
-70.0
 20
31.250000000000021
 30
0.0
 11
-50.0
 21
31.250000000000021
 31
0.0
1001
REVIT
1002
{
1070
     3
1000
211597
1002
}
  0
LINE
  5
2D1
  8
0
 10
-50.0
 20
31.250000000000021
 30
0.0
 11
-48.0
 21
33.750000000000021
 31
0.0
1001
REVIT
1002
{
1070
     3
1000
211597
1002
}
  0
LINE
  5
2D2
  8
0
 10
-18.0
 20
33.750000000000021
 30
0.0
 11
-20.0
 21
36.250000000000021
 31
0.0
1001
REVIT
1002
{
1070
     3
1000
211597
1002
}
  0
LINE
  5
2D3
  8
0
 10
-20.0
 20
36.250000000000021
 30
0.0
 11
-40.0
 21
36.250000000000021
 31
0.0
1001
REVIT
1002
{
1070
     3
1000
211597
1002
}
  0
LINE
  5
2D4
  8
0
 10
-40.0
 20
36.250000000000021
 30
0.0
 11
-40.0
 21
31.250000000000021
 31
0.0
1001
REVIT
1002
{
1070
     3
1000
211597
1002
}
  0
LINE
  5
2D5
  8
0
 10
-40.0
 20
31.250000000000021
 30
0.0
 11
-20.0
 21
31.250000000000021
 31
0.0
1001
REVIT
1002
{
1070
     3
1000
211597
1002
}
  0
LINE
  5
2D6
  8
0
 10
-20.0
 20
31.250000000000021
 30
0.0
 11
-18.0
 21
33.750000000000021
 31
0.0
1001
REVIT
1002
{
1070
     3
1000
211597
1002
}
  0
LINE
  5
2D7
  8
0
 10
12.0
 20
33.750000000000021
 30
0.0
 11
10.0
 21
36.250000000000021
 31
0.0
1001
REVIT
1002
{
1070
     3
1000
211597
1002
}
  0
LINE
  5
2D8
  8
0
 10
10.0
 20
36.250000000000021
 30
0.0
 11
-10.0
 21
36.250000000000021
 31
0.0
1001
REVIT
1002
{
1070
     3
1000
211597
1002
}
  0
LINE
  5
2D9
  8
0
 10
-10.0
 20
36.250000000000021
 30
0.0
 11
-10.0
 21
31.250000000000021
 31
0.0
1001
REVIT
1002
{
1070
     3
1000
211597
1002
}
  0
LINE
  5
2DA
  8
0
 10
-10.0
 20
31.250000000000021
 30
0.0
 11
10.0
 21
31.250000000000021
 31
0.0
1001
REVIT
1002
{
1070
     3
1000
211597
1002
}
  0
LINE
  5
2DB
  8
0
 10
10.0
 20
31.250000000000021
 30
0.0
 11
12.0
 21
33.750000000000021
 31
0.0
1001
REVIT
1002
{
1070
     3
1000
211597
1002
}
  0
LINE
  5
2DC
  8
0
 10
42.0
 20
33.750000000000021
 30
0.0
 11
40.0
 21
36.250000000000021
 31
0.0
1001
REVIT
1002
{
1070
     3
1000
211597
1002
}
  0
LINE
  5
2DD
  8
0
 10
40.0
 20
36.250000000000021
 30
0.0
 11
20.0
 21
36.250000000000021
 31
0.0
1001
REVIT
1002
{
1070
     3
1000
211597
1002
}
  0
LINE
  5
2DE
  8
0
 10
20.0
 20
36.250000000000021
 30
0.0
 11
20.0
 21
31.250000000000021
 31
0.0
1001
REVIT
1002
{
1070
     3
1000
211597
1002
}
  0
LINE
  5
2DF
  8
0
 10
20.0
 20
31.250000000000021
 30
0.0
 11
40.0
 21
31.250000000000021
 31
0.0
1001
REVIT
1002
{
1070
     3
1000
211597
1002
}
  0
LINE
  5
2E0
  8
0
 10
40.0
 20
31.250000000000021
 30
0.0
 11
42.0
 21
33.750000000000021
 31
0.0
1001
REVIT
1002
{
1070
     3
1000
211597
1002
}
  0
LINE
  5
2E1
  8
0
 10
72.0
 20
33.750000000000021
 30
0.0
 11
70.0
 21
36.250000000000021
 31
0.0
1001
REVIT
1002
{
1070
     3
1000
211597
1002
}
  0
LINE
  5
2E2
  8
0
 10
70.0
 20
36.250000000000021
 30
0.0
 11
50.0
 21
36.250000000000021
 31
0.0
1001
REVIT
1002
{
1070
     3
1000
211597
1002
}
  0
LINE
  5
2E3
  8
0
 10
50.0
 20
36.250000000000021
 30
0.0
 11
50.0
 21
31.250000000000021
 31
0.0
1001
REVIT
1002
{
1070
     3
1000
211597
1002
}
  0
LINE
  5
2E4
  8
0
 10
50.0
 20
31.250000000000021
 30
0.0
 11
70.0
 21
31.250000000000021
 31
0.0
1001
REVIT
1002
{
1070
     3
1000
211597
1002
}
  0
LINE
  5
2E5
  8
0
 10
70.0
 20
31.250000000000021
 30
0.0
 11
72.0
 21
33.750000000000021
 31
0.0
1001
REVIT
1002
{
1070
     3
1000
211597
1002
}
  0
LINE
  5
2E6
  8
0
 10
48.0
 20
43.750000000000021
 30
0.0
 11
50.0
 21
46.250000000000021
 31
0.0
1001
REVIT
1002
{
1070
     3
1000
211597
1002
}
  0
LINE
  5
2E7
  8
0
 10
50.0
 20
46.250000000000021
 30
0.0
 11
70.0
 21
46.250000000000021
 31
0.0
1001
REVIT
1002
{
1070
     3
1000
211597
1002
}
  0
LINE
  5
2E8
  8
0
 10
70.0
 20
46.250000000000021
 30
0.0
 11
70.0
 21
41.250000000000021
 31
0.0
1001
REVIT
1002
{
1070
     3
1000
211597
1002
}
  0
LINE
  5
2E9
  8
0
 10
70.0
 20
41.250000000000021
 30
0.0
 11
50.0
 21
41.250000000000021
 31
0.0
1001
REVIT
1002
{
1070
     3
1000
211597
1002
}
  0
LINE
  5
2EA
  8
0
 10
50.0
 20
41.250000000000021
 30
0.0
 11
48.0
 21
43.750000000000021
 31
0.0
1001
REVIT
1002
{
1070
     3
1000
211597
1002
}
  0
LINE
  5
2EB
  8
0
 10
18.0
 20
43.750000000000021
 30
0.0
 11
20.0
 21
46.250000000000021
 31
0.0
1001
REVIT
1002
{
1070
     3
1000
211597
1002
}
  0
LINE
  5
2EC
  8
0
 10
20.0
 20
46.250000000000021
 30
0.0
 11
40.0
 21
46.250000000000021
 31
0.0
1001
REVIT
1002
{
1070
     3
1000
211597
1002
}
  0
LINE
  5
2ED
  8
0
 10
40.0
 20
46.250000000000021
 30
0.0
 11
40.0
 21
41.250000000000021
 31
0.0
1001
REVIT
1002
{
1070
     3
1000
211597
1002
}
  0
LINE
  5
2EE
  8
0
 10
40.0
 20
41.250000000000021
 30
0.0
 11
20.0
 21
41.250000000000021
 31
0.0
1001
REVIT
1002
{
1070
     3
1000
211597
1002
}
  0
LINE
  5
2EF
  8
0
 10
20.0
 20
41.250000000000021
 30
0.0
 11
18.0
 21
43.750000000000021
 31
0.0
1001
REVIT
1002
{
1070
     3
1000
211597
1002
}
  0
LINE
  5
2F0
  8
0
 10
-12.0
 20
43.750000000000021
 30
0.0
 11
-10.0
 21
46.250000000000021
 31
0.0
1001
REVIT
1002
{
1070
     3
1000
211597
1002
}
  0
LINE
  5
2F1
  8
0
 10
-10.0
 20
46.250000000000021
 30
0.0
 11
10.0
 21
46.250000000000021
 31
0.0
1001
REVIT
1002
{
1070
     3
1000
211597
1002
}
  0
LINE
  5
2F2
  8
0
 10
10.0
 20
46.250000000000021
 30
0.0
 11
10.0
 21
41.250000000000021
 31
0.0
1001
REVIT
1002
{
1070
     3
1000
211597
1002
}
  0
LINE
  5
2F3
  8
0
 10
10.0
 20
41.250000000000021
 30
0.0
 11
-10.0
 21
41.250000000000021
 31
0.0
1001
REVIT
1002
{
1070
     3
1000
211597
1002
}
  0
LINE
  5
2F4
  8
0
 10
-10.0
 20
41.250000000000021
 30
0.0
 11
-12.0
 21
43.750000000000021
 31
0.0
1001
REVIT
1002
{
1070
     3
1000
211597
1002
}
  0
LINE
  5
2F5
  8
0
 10
-42.0
 20
43.750000000000021
 30
0.0
 11
-40.0
 21
46.250000000000021
 31
0.0
1001
REVIT
1002
{
1070
     3
1000
211597
1002
}
  0
LINE
  5
2F6
  8
0
 10
-40.0
 20
46.250000000000021
 30
0.0
 11
-20.0
 21
46.250000000000021
 31
0.0
1001
REVIT
1002
{
1070
     3
1000
211597
1002
}
  0
LINE
  5
2F7
  8
0
 10
-20.0
 20
46.250000000000021
 30
0.0
 11
-20.0
 21
41.250000000000021
 31
0.0
1001
REVIT
1002
{
1070
     3
1000
211597
1002
}
  0
LINE
  5
2F8
  8
0
 10
-20.0
 20
41.250000000000021
 30
0.0
 11
-40.0
 21
41.250000000000021
 31
0.0
1001
REVIT
1002
{
1070
     3
1000
211597
1002
}
  0
LINE
  5
2F9
  8
0
 10
-40.0
 20
41.250000000000021
 30
0.0
 11
-42.0
 21
43.750000000000021
 31
0.0
1001
REVIT
1002
{
1070
     3
1000
211597
1002
}
  0
LINE
  5
2FA
  8
0
 10
-72.0
 20
43.750000000000021
 30
0.0
 11
-70.0
 21
46.250000000000021
 31
0.0
1001
REVIT
1002
{
1070
     3
1000
211597
1002
}
  0
LINE
  5
2FB
  8
0
 10
-70.0
 20
46.250000000000021
 30
0.0
 11
-50.0
 21
46.250000000000021
 31
0.0
1001
REVIT
1002
{
1070
     3
1000
211597
1002
}
  0
LINE
  5
2FC
  8
0
 10
-50.0
 20
46.250000000000021
 30
0.0
 11
-50.0
 21
41.250000000000021
 31
0.0
1001
REVIT
1002
{
1070
     3
1000
211597
1002
}
  0
LINE
  5
2FD
  8
0
 10
-50.0
 20
41.250000000000021
 30
0.0
 11
-70.0
 21
41.250000000000021
 31
0.0
1001
REVIT
1002
{
1070
     3
1000
211597
1002
}
  0
LINE
  5
2FE
  8
0
 10
-70.0
 20
41.250000000000021
 30
0.0
 11
-72.0
 21
43.750000000000021
 31
0.0
1001
REVIT
1002
{
1070
     3
1000
211597
1002
}
  0
LINE
  5
2FF
  8
0
 10
48.0
 20
63.750000000000021
 30
0.0
 11
50.0
 21
66.250000000000028
 31
0.0
1001
REVIT
1002
{
1070
     3
1000
211597
1002
}
  0
LINE
  5
300
  8
0
 10
50.0
 20
66.250000000000028
 30
0.0
 11
70.0
 21
66.250000000000028
 31
0.0
1001
REVIT
1002
{
1070
     3
1000
211597
1002
}
  0
LINE
  5
301
  8
0
 10
70.0
 20
66.250000000000028
 30
0.0
 11
70.0
 21
61.250000000000028
 31
0.0
1001
REVIT
1002
{
1070
     3
1000
211597
1002
}
  0
LINE
  5
302
  8
0
 10
70.0
 20
61.250000000000028
 30
0.0
 11
50.0
 21
61.250000000000028
 31
0.0
1001
REVIT
1002
{
1070
     3
1000
211597
1002
}
  0
LINE
  5
303
  8
0
 10
50.0
 20
61.250000000000028
 30
0.0
 11
48.0
 21
63.750000000000021
 31
0.0
1001
REVIT
1002
{
1070
     3
1000
211597
1002
}
  0
LINE
  5
304
  8
0
 10
18.0
 20
63.750000000000021
 30
0.0
 11
20.0
 21
66.250000000000028
 31
0.0
1001
REVIT
1002
{
1070
     3
1000
211597
1002
}
  0
LINE
  5
305
  8
0
 10
20.0
 20
66.250000000000028
 30
0.0
 11
40.0
 21
66.250000000000028
 31
0.0
1001
REVIT
1002
{
1070
     3
1000
211597
1002
}
  0
LINE
  5
306
  8
0
 10
40.0
 20
66.250000000000028
 30
0.0
 11
40.0
 21
61.250000000000028
 31
0.0
1001
REVIT
1002
{
1070
     3
1000
211597
1002
}
  0
LINE
  5
307
  8
0
 10
40.0
 20
61.250000000000028
 30
0.0
 11
20.0
 21
61.250000000000028
 31
0.0
1001
REVIT
1002
{
1070
     3
1000
211597
1002
}
  0
LINE
  5
308
  8
0
 10
20.0
 20
61.250000000000028
 30
0.0
 11
18.0
 21
63.750000000000021
 31
0.0
1001
REVIT
1002
{
1070
     3
1000
211597
1002
}
  0
LINE
  5
309
  8
0
 10
-12.0
 20
63.750000000000021
 30
0.0
 11
-10.0
 21
66.250000000000028
 31
0.0
1001
REVIT
1002
{
1070
     3
1000
211597
1002
}
  0
LINE
  5
30A
  8
0
 10
-10.0
 20
66.250000000000028
 30
0.0
 11
10.0
 21
66.250000000000028
 31
0.0
1001
REVIT
1002
{
1070
     3
1000
211597
1002
}
  0
LINE
  5
30B
  8
0
 10
10.0
 20
66.250000000000028
 30
0.0
 11
10.0
 21
61.250000000000028
 31
0.0
1001
REVIT
1002
{
1070
     3
1000
211597
1002
}
  0
LINE
  5
30C
  8
0
 10
10.0
 20
61.250000000000028
 30
0.0
 11
-10.0
 21
61.250000000000028
 31
0.0
1001
REVIT
1002
{
1070
     3
1000
211597
1002
}
  0
LINE
  5
30D
  8
0
 10
-10.0
 20
61.250000000000028
 30
0.0
 11
-12.0
 21
63.750000000000021
 31
0.0
1001
REVIT
1002
{
1070
     3
1000
211597
1002
}
  0
LINE
  5
30E
  8
0
 10
-42.0
 20
63.750000000000021
 30
0.0
 11
-40.0
 21
66.250000000000028
 31
0.0
1001
REVIT
1002
{
1070
     3
1000
211597
1002
}
  0
LINE
  5
30F
  8
0
 10
-40.0
 20
66.250000000000028
 30
0.0
 11
-20.0
 21
66.250000000000028
 31
0.0
1001
REVIT
1002
{
1070
     3
1000
211597
1002
}
  0
LINE
  5
310
  8
0
 10
-20.0
 20
66.250000000000028
 30
0.0
 11
-20.0
 21
61.250000000000028
 31
0.0
1001
REVIT
1002
{
1070
     3
1000
211597
1002
}
  0
LINE
  5
311
  8
0
 10
-20.0
 20
61.250000000000028
 30
0.0
 11
-40.0
 21
61.250000000000028
 31
0.0
1001
REVIT
1002
{
1070
     3
1000
211597
1002
}
  0
LINE
  5
312
  8
0
 10
-40.0
 20
61.250000000000028
 30
0.0
 11
-42.0
 21
63.750000000000021
 31
0.0
1001
REVIT
1002
{
1070
     3
1000
211597
1002
}
  0
LINE
  5
313
  8
0
 10
-72.0
 20
63.750000000000021
 30
0.0
 11
-70.0
 21
66.250000000000028
 31
0.0
1001
REVIT
1002
{
1070
     3
1000
211597
1002
}
  0
LINE
  5
314
  8
0
 10
-70.0
 20
66.250000000000028
 30
0.0
 11
-50.0
 21
66.250000000000028
 31
0.0
1001
REVIT
1002
{
1070
     3
1000
211597
1002
}
  0
LINE
  5
315
  8
0
 10
-50.0
 20
66.250000000000028
 30
0.0
 11
-50.0
 21
61.250000000000028
 31
0.0
1001
REVIT
1002
{
1070
     3
1000
211597
1002
}
  0
LINE
  5
316
  8
0
 10
-50.0
 20
61.250000000000028
 30
0.0
 11
-70.0
 21
61.250000000000028
 31
0.0
1001
REVIT
1002
{
1070
     3
1000
211597
1002
}
  0
LINE
  5
317
  8
0
 10
-70.0
 20
61.250000000000028
 30
0.0
 11
-72.0
 21
63.750000000000021
 31
0.0
1001
REVIT
1002
{
1070
     3
1000
211597
1002
}
  0
ARC
  5
318
  8
0
 10
600.90827646333241
 20
-62.823214987221192
 30
0.0
 40
1.999816468760713
 50
256.25305736757088
 51
346.25183596679261
1001
REVIT
1002
{
1070
     3
1000
578788
1002
}
  0
ARC
  5
319
  8
0
 10
602.77525262776942
 20
-51.344655408260181
 30
0.0
 40
2.0611858542965171
 50
6.5001331594965697
 51
73.962768849426681
1001
REVIT
1002
{
1070
     3
1000
578788
1002
}
  0
ARC
  5
31A
  8
0
 10
235.53976249883601
 20
64.905012156473575
 30
0.0
 40
2.6309694047366419
 50
75.3217446513314
 51
247.97770938843871
1001
REVIT
1002
{
1070
     3
1000
578788
1002
}
  0
ARC
  5
31B
  8
0
 10
247.80462437042411
 20
67.369863153457018
 30
0.0
 40
3.0000413488272741
 50
255.44716671571959
 51
73.782241969916697
1001
REVIT
1002
{
1070
     3
1000
578788
1002
}
  0
LINE
  5
31C
  8
0
 10
585.81678212940335
 20
-61.1899943746755
 30
0.0
 11
600.43305195645223
 21
-64.765746216516447
 31
0.0
1001
REVIT
1002
{
1070
     3
1000
578788
1002
}
  0
LINE
  5
31D
  8
0
 10
602.8507975616044
 20
-63.2984809038349
 30
0.0
 11
605.10047685608527
 21
-54.103524267743659
 31
0.0
1001
REVIT
1002
{
1070
     3
1000
578788
1002
}
  0
LINE
  5
31E
  8
0
 10
605.10047685608527
 20
-54.103524267743659
 30
0.0
 11
605.13691289975566
 21
-53.289250543202741
 31
0.0
1001
REVIT
1002
{
1070
     3
1000
578788
1002
}
  0
LINE
  5
31F
  8
0
 10
605.13691289975566
 20
-53.289250543202762
 30
0.0
 11
604.82318833962916
 21
-51.111317785831069
 31
0.0
1001
REVIT
1002
{
1070
     3
1000
578788
1002
}
  0
LINE
  5
320
  8
0
 10
603.34467981275395
 20
-49.363685997352341
 30
0.0
 11
241.57366251318081
 21
59.716806204841177
 31
0.0
1001
REVIT
1002
{
1070
     3
1000
578788
1002
}
  0
LINE
  5
321
  8
0
 10
241.57366251318859
 20
59.716806204838797
 30
0.0
 11
234.5532350550217
 21
62.46600342109322
 31
0.0
1001
REVIT
1002
{
1070
     3
1000
578788
1002
}
  0
LINE
  5
322
  8
0
 10
236.2064260278004
 20
67.45011721281395
 30
0.0
 11
247.0507960584541
 21
64.466074082132153
 31
0.0
1001
REVIT
1002
{
1070
     3
1000
578788
1002
}
  0
LINE
  5
323
  8
0
 10
248.64250208560961
 20
70.250524367322484
 30
0.0
 11
202.28343935114339
 21
83.007138380692467
 31
0.0
1001
REVIT
1002
{
1070
     3
1000
578788
1002
}
  0
ARC
  5
324
  8
0
 10
-600.91059569250035
 20
-62.473491334595799
 30
0.0
 40
1.999816468760713
 50
193.7481640332069
 51
283.74694263242912
1001
REVIT
1002
{
1070
     3
1000
578788
1002
}
  0
ARC
  5
325
  8
0
 10
-602.77757185693736
 20
-50.994931755634802
 30
0.0
 40
2.0611858542965171
 50
106.03723115057331
 51
173.49986684050299
1001
REVIT
1002
{
1070
     3
1000
578788
1002
}
  0
ARC
  5
326
  8
0
 10
-235.54208172800401
 20
65.25473580909896
 30
0.0
 40
2.6309694047366419
 50
292.02229061156129
 51
104.6782553486654
1001
REVIT
1002
{
1070
     3
1000
578788
1002
}
  0
ARC
  5
327
  8
0
 10
-247.8069435995921
 20
67.719586806082404
 30
0.0
 40
3.0000413488272741
 50
106.2177580300833
 51
284.55283328428038
1001
REVIT
1002
{
1070
     3
1000
578788
1002
}
  0
LINE
  5
328
  8
0
 10
-585.8191013585714
 20
-60.840270722050121
 30
0.0
 11
-600.43537118562006
 21
-64.416022563891062
 31
0.0
1001
REVIT
1002
{
1070
     3
1000
578788
1002
}
  0
LINE
  5
329
  8
0
 10
-602.85311679077245
 20
-62.948757251209507
 30
0.0
 11
-605.10279608525343
 21
-53.75380061511828
 31
0.0
1001
REVIT
1002
{
1070
     3
1000
578788
1002
}
  0
LINE
  5
32A
  8
0
 10
-605.10279608525343
 20
-53.75380061511828
 30
0.0
 11
-605.1392321289236
 21
-52.939526890577362
 31
0.0
1001
REVIT
1002
{
1070
     3
1000
578788
1002
}
  0
LINE
  5
32B
  8
0
 10
-605.1392321289236
 20
-52.939526890577369
 30
0.0
 11
-604.82550756879732
 21
-50.761594133205691
 31
0.0
1001
REVIT
1002
{
1070
     3
1000
578788
1002
}
  0
LINE
  5
32C
  8
0
 10
-603.346999041922
 20
-49.013962344726963
 30
0.0
 11
-241.5759817423488
 21
60.066529857466563
 31
0.0
1001
REVIT
1002
{
1070
     3
1000
578788
1002
}
  0
LINE
  5
32D
  8
0
 10
-241.57598174235659
 20
60.066529857464189
 30
0.0
 11
-234.5555542841897
 21
62.815727073718612
 31
0.0
1001
REVIT
1002
{
1070
     3
1000
578788
1002
}
  0
LINE
  5
32E
  8
0
 10
-236.2087452569684
 20
67.799840865439336
 30
0.0
 11
-247.05311528762209
 21
64.815797734757538
 31
0.0
1001
REVIT
1002
{
1070
     3
1000
578788
1002
}
  0
LINE
  5
32F
  8
0
 10
-248.6448213147776
 20
70.600248019947884
 30
0.0
 11
-202.28575858031141
 21
83.356862033317853
 31
0.0
1001
REVIT
1002
{
1070
     3
1000
578788
1002
}
  0
LINE
  5
330
  8
0
 10
-0.0000000000002274
 20
13.74999999999994
 30
0.0
 11
529.20690860982404
 21
-178.86556250200979
 31
0.0
1001
REVIT
1002
{
1070
     3
1000
206265
1002
}
  0
LINE
  5
331
  8
0
 10
529.20690860982381
 20
-72.44778525441842
 30
0.0
 11
-0.0000000000004547
 21
120.1677772475914
 31
0.0
1001
REVIT
1002
{
1070
     3
1000
206265
1002
}
  0
LINE
  5
332
  8
0
 10
0.0000000000004547
 20
120.1677772475914
 30
0.0
 11
-529.20690860982381
 21
-72.44778525441842
 31
0.0
1001
REVIT
1002
{
1070
     3
1000
206265
1002
}
  0
LINE
  5
333
  8
0
 10
-529.20690860982404
 20
-178.86556250200979
 30
0.0
 11
0.0000000000002274
 21
13.75
 31
0.0
1001
REVIT
1002
{
1070
     3
1000
206265
1002
}
  0
LINE
  5
334
  8
0
 10
-56.010589418843033
 20
154.73464138671511
 30
0.0
 11
-52.206363353661118
 21
155.97070936421531
 31
0.0
1001
REVIT
1002
{
1070
     3
1000
211597
1002
}
  0
LINE
  5
335
  8
0
 10
-39.519426168621941
 20
108.8341617088886
 30
0.0
 11
-54.352241898619518
 21
154.48487449105599
 31
0.0
1001
REVIT
1002
{
1070
     3
1000
211597
1002
}
  0
LINE
  5
336
  8
0
 10
-38.425863921723398
 20
107.0865571734862
 30
0.0
 11
-39.519426168621941
 21
108.8341617088886
 31
0.0
1001
REVIT
1002
{
1070
     3
1000
211597
1002
}
  0
LINE
  5
337
  8
0
 10
-38.568369652326787
 20
109.1431787032636
 30
0.0
 11
-38.425863921723398
 21
107.0865571734862
 31
0.0
1001
REVIT
1002
{
1070
     3
1000
211597
1002
}
  0
LINE
  5
338
  8
0
 10
-53.401185382324371
 20
154.793891485431
 30
0.0
 11
-38.568369652326787
 21
109.1431787032636
 31
0.0
1001
REVIT
1002
{
1070
     3
1000
211597
1002
}
  0
LINE
  5
339
  8
0
 10
-52.260047342885372
 20
155.16466971056531
 30
0.0
 11
-53.401185382324371
 21
154.793891485431
 31
0.0
1001
REVIT
1002
{
1070
     3
1000
211597
1002
}
  0
LINE
  5
33A
  8
0
 10
-54.352241898619518
 20
154.48487449105599
 30
0.0
 11
-55.493379938058091
 21
154.1140962659218
 31
0.0
1001
REVIT
1002
{
1070
     3
1000
211597
1002
}
  0
LINE
  5
33B
  8
0
 10
-56.010589418843033
 20
154.73464138671511
 30
0.0
 11
-55.493379938058091
 21
154.1140962659218
 31
0.0
1001
REVIT
1002
{
1070
     3
1000
211597
1002
}
  0
LINE
  5
33C
  8
0
 10
-52.206363353661118
 20
155.97070936421531
 30
0.0
 11
-52.260047342885372
 21
155.16466971056531
 31
0.0
1001
REVIT
1002
{
1070
     3
1000
211597
1002
}
  0
LINE
  5
33D
  8
0
 10
-529.72003662195596
 20
-69.442015259775559
 30
0.0
 11
-39.560759220896351
 21
108.9613717634152
 31
0.0
  0
LINE
  5
33E
  8
0
 10
-38.623795610888664
 20
109.30239862804819
 30
0.0
 11
-0.0000000000027187
 21
123.36031056477449
 31
0.0
  0
LINE
  5
33F
  8
0
 10
-0.0000000000027187
 20
123.36031056477449
 30
0.0
 11
-5.1303021498820822
 21
137.4556998765654
 31
0.0
  0
LINE
  5
340
  8
0
 10
-5.1303021498820822
 20
137.4556998765654
 30
0.0
 11
-43.258574124662353
 21
123.5781437937566
 31
0.0
  0
LINE
  5
341
  8
0
 10
-44.198839529728062
 20
123.2359151740029
 30
0.0
 11
-534.85033877183525
 21
-55.346625947984698
 31
0.0
  0
LINE
  5
342
  8
0
 10
-2.5651510749425679
 20
130.40800522067039
 30
0.0
 11
-40.93953397024665
 21
116.44087208846329
 31
0.0
1001
REVIT
1002
{
1070
     3
1000
456193
1002
}
  0
LINE
  5
343
  8
0
 10
-41.879799375312288
 20
116.0986434687095
 30
0.0
 11
-532.28518769689583
 21
-62.394320603879663
 31
0.0
1001
REVIT
1002
{
1070
     3
1000
456193
1002
}
  0
LINE
  5
344
  8
0
 10
-1.710100716629154
 20
128.0587736687047
 30
0.0
 11
-40.16652058544129
 21
114.0617815200314
 31
0.0
1001
REVIT
1002
{
1070
     3
1000
456193
1002
}
  0
LINE
  5
345
  8
0
 10
-41.106785990506822
 20
113.71955290027771
 30
0.0
 11
-531.43013733858231
 21
-64.743552155845322
 31
0.0
1001
REVIT
1002
{
1070
     3
1000
456193
1002
}
  0
LINE
  5
346
  8
0
 10
-3.4202014332555049
 20
132.7572367726348
 30
0.0
 11
-41.712547355051782
 21
118.81996265689369
 31
0.0
1001
REVIT
1002
{
1070
     3
1000
456193
1002
}
  0
LINE
  5
347
  8
0
 10
-42.6528127601173
 20
118.47773403714
 30
0.0
 11
-533.1402380552081
 21
-60.045089051915078
 31
0.0
1001
REVIT
1002
{
1070
     3
1000
456193
1002
}
  0
LINE
  5
348
  8
0
 10
-4.2752517915687234
 20
135.10646832459989
 30
0.0
 11
-42.485560739857057
 21
121.199053225325
 31
0.0
1001
REVIT
1002
{
1070
     3
1000
456193
1002
}
  0
LINE
  5
349
  8
0
 10
-43.425826144922581
 20
120.8568246055713
 30
0.0
 11
-533.99528841352128
 21
-57.695857499949959
 31
0.0
1001
REVIT
1002
{
1070
     3
1000
456193
1002
}
  0
LINE
  5
34A
  8
0
 10
-0.8550503583159361
 20
125.7095421167396
 30
0.0
 11
-39.393507200635987
 21
111.68269095160019
 31
0.0
1001
REVIT
1002
{
1070
     3
1000
456193
1002
}
  0
LINE
  5
34B
  8
0
 10
-40.333772605701647
 20
111.3404623318465
 30
0.0
 11
-530.57508698026902
 21
-67.092783707810412
 31
0.0
1001
REVIT
1002
{
1070
     3
1000
456193
1002
}
  0
LINE
  5
34C
  8
0
 10
56.010589418843033
 20
154.73464138671511
 30
0.0
 11
52.206363353661118
 21
155.97070936421531
 31
0.0
1001
REVIT
1002
{
1070
     3
1000
211597
1002
}
  0
LINE
  5
34D
  8
0
 10
39.519426168621898
 20
108.8341617088887
 30
0.0
 11
54.352241898619518
 21
154.48487449105599
 31
0.0
1001
REVIT
1002
{
1070
     3
1000
211597
1002
}
  0
LINE
  5
34E
  8
0
 10
38.425863921723362
 20
107.0865571734862
 30
0.0
 11
39.519426168621898
 21
108.8341617088887
 31
0.0
1001
REVIT
1002
{
1070
     3
1000
211597
1002
}
  0
LINE
  5
34F
  8
0
 10
38.568369652326759
 20
109.1431787032636
 30
0.0
 11
38.425863921723362
 21
107.0865571734862
 31
0.0
1001
REVIT
1002
{
1070
     3
1000
211597
1002
}
  0
LINE
  5
350
  8
0
 10
53.401185382324371
 20
154.793891485431
 30
0.0
 11
38.568369652326759
 21
109.1431787032636
 31
0.0
1001
REVIT
1002
{
1070
     3
1000
211597
1002
}
  0
LINE
  5
351
  8
0
 10
52.260047342885372
 20
155.16466971056531
 30
0.0
 11
53.401185382324371
 21
154.793891485431
 31
0.0
1001
REVIT
1002
{
1070
     3
1000
211597
1002
}
  0
LINE
  5
352
  8
0
 10
54.352241898619518
 20
154.48487449105599
 30
0.0
 11
55.493379938058091
 21
154.1140962659218
 31
0.0
1001
REVIT
1002
{
1070
     3
1000
211597
1002
}
  0
LINE
  5
353
  8
0
 10
56.010589418843033
 20
154.73464138671511
 30
0.0
 11
55.493379938058091
 21
154.1140962659218
 31
0.0
1001
REVIT
1002
{
1070
     3
1000
211597
1002
}
  0
LINE
  5
354
  8
0
 10
52.206363353661118
 20
155.97070936421531
 30
0.0
 11
52.260047342885372
 21
155.16466971056531
 31
0.0
1001
REVIT
1002
{
1070
     3
1000
211597
1002
}
  0
LINE
  5
355
  8
0
 10
534.63962253424404
 20
-55.269931509625017
 30
0.0
 11
44.198839529730037
 21
123.23591517400899
 31
0.0
  0
LINE
  5
356
  8
0
 10
43.258574124664307
 20
123.57814379376281
 30
0.0
 11
5.1303021498850399
 21
137.45569987657171
 31
0.0
  0
LINE
  5
357
  8
0
 10
5.130302149885039
 20
137.45569987657171
 30
0.0
 11
0.0000000000055027
 21
123.3603105647809
 31
0.0
  0
LINE
  5
358
  8
0
 10
0.0000000000055036
 20
123.3603105647809
 30
0.0
 11
38.623795610890781
 21
109.30239862805431
 31
0.0
  0
LINE
  5
359
  8
0
 10
39.560759220898312
 20
108.9613717634213
 30
0.0
 11
529.50932038436451
 21
-69.365320821415821
 31
0.0
  0
LINE
  5
35A
  8
0
 10
2.5651510749454389
 20
130.4080052206767
 30
0.0
 11
40.939533970248682
 21
116.4408720884694
 31
0.0
1001
REVIT
1002
{
1070
     3
1000
456193
1002
}
  0
LINE
  5
35B
  8
0
 10
41.879799375314327
 20
116.09864346871559
 30
0.0
 11
532.0744714593045
 21
-62.317626165519947
 31
0.0
1001
REVIT
1002
{
1070
     3
1000
456193
1002
}
  0
LINE
  5
35C
  8
0
 10
1.7101007166319959
 20
128.0587736687111
 30
0.0
 11
40.166520585443287
 21
114.0617815200375
 31
0.0
1001
REVIT
1002
{
1070
     3
1000
456193
1002
}
  0
LINE
  5
35D
  8
0
 10
41.106785990508833
 20
113.7195529002839
 30
0.0
 11
531.21942110099087
 21
-64.666857717485584
 31
0.0
1001
REVIT
1002
{
1070
     3
1000
456193
1002
}
  0
LINE
  5
35E
  8
0
 10
3.4202014332584052
 20
132.75723677264111
 30
0.0
 11
41.712547355053701
 21
118.8199626568998
 31
0.0
1001
REVIT
1002
{
1070
     3
1000
456193
1002
}
  0
LINE
  5
35F
  8
0
 10
42.652812760119339
 20
118.47773403714611
 30
0.0
 11
532.92952181761666
 21
-59.968394613555382
 31
0.0
1001
REVIT
1002
{
1070
     3
1000
456193
1002
}
  0
LINE
  5
360
  8
0
 10
4.2752517915716526
 20
135.1064683246062
 30
0.0
 11
42.485560739858897
 21
121.1990532253311
 31
0.0
1001
REVIT
1002
{
1070
     3
1000
456193
1002
}
  0
LINE
  5
361
  8
0
 10
43.425826144924557
 20
120.8568246055774
 30
0.0
 11
533.78457217592995
 21
-57.619163061590292
 31
0.0
1001
REVIT
1002
{
1070
     3
1000
456193
1002
}
  0
LINE
  5
362
  8
0
 10
0.8550503583187495
 20
125.70954211674599
 30
0.0
 11
39.393507200638084
 21
111.6826909516063
 31
0.0
1001
REVIT
1002
{
1070
     3
1000
456193
1002
}
  0
LINE
  5
363
  8
0
 10
40.333772605703729
 20
111.34046233185251
 30
0.0
 11
530.36437074267758
 21
-67.016089269450674
 31
0.0
1001
REVIT
1002
{
1070
     3
1000
456193
1002
}
  0
LINE
  5
364
  8
0
  6
DASH
 10
-72.25628970526077
 20
131.19216408033711
 30
0.0
 11
-49.216370497433047
 21
138.67828763057511
 31
0.0
1001
REVIT
1002
{
1070
     3
1000
217411
1002
}
  0
LINE
  5
365
  8
0
  6
DASH
 10
-48.265313981137851
 20
138.9873046249501
 30
0.0
 11
0.0000000000005542
 21
154.66965578228741
 31
0.0
1001
REVIT
1002
{
1070
     3
1000
217411
1002
}
  0
LINE
  5
366
  8
0
  6
DASH
 10
72.256289705261509
 20
131.19216408033699
 30
0.0
 11
49.216370497433019
 21
138.6782876305754
 31
0.0
1001
REVIT
1002
{
1070
     3
1000
217411
1002
}
  0
LINE
  5
367
  8
0
  6
DASH
 10
48.265313981137929
 20
138.9873046249503
 30
0.0
 11
0.0000000000002416
 21
154.66965578228749
 31
0.0
1001
REVIT
1002
{
1070
     3
1000
217411
1002
}
  0
LINE
  5
368
  8
0
 10
0.0000000000000069
 20
168.83326101064401
 30
0.0
 11
52.427893117397979
 21
151.79840590480779
 31
0.0
1001
REVIT
1002
{
1070
     3
1000
224528
1002
}
  0
LINE
  5
369
  8
0
 10
53.378949633693082
 20
151.48938891043281
 30
0.0
 11
133.96432665277459
 21
125.30561268857871
 31
0.0
1001
REVIT
1002
{
1070
     3
1000
224528
1002
}
  0
LINE
  5
36A
  8
0
 10
133.96432665277459
 20
125.30561268857871
 30
0.0
 11
137.92730022360189
 21
109.4109938505979
 31
0.0
1001
REVIT
1002
{
1070
     3
1000
224528
1002
}
  0
LINE
  5
36B
  8
0
 10
-0.0000000000000056
 20
168.83326101064401
 30
0.0
 11
-52.427893117398497
 21
151.79840590480759
 31
0.0
1001
REVIT
1002
{
1070
     3
1000
224528
1002
}
  0
LINE
  5
36C
  8
0
 10
-53.37894963369358
 20
151.48938891043269
 30
0.0
 11
-133.96432665277459
 21
125.30561268857871
 31
0.0
1001
REVIT
1002
{
1070
     3
1000
224528
1002
}
  0
LINE
  5
36D
  8
0
 10
-133.96432665277459
 20
125.30561268857871
 30
0.0
 11
-137.92730022360189
 21
109.4109938505979
 31
0.0
1001
REVIT
1002
{
1070
     3
1000
224528
1002
}
  0
LINE
  5
36E
  8
0
  6
DASH
 10
0.0
 20
144.64386601453739
 30
0.0
 11
-44.804600894340581
 21
128.33632493082061
 31
0.0
1001
REVIT
1002
{
1070
     3
1000
217411
1002
}
  0
LINE
  5
36F
  8
0
  6
DASH
 10
-45.74486629940602
 20
127.9940963110665
 30
0.0
 11
-152.2738242114263
 21
89.220726543694155
 31
0.0
1001
REVIT
1002
{
1070
     3
1000
217411
1002
}
  0
LINE
  5
370
  8
0
  6
DASH
 10
538.12857768950391
 20
-51.218918472450483
 30
0.0
 11
45.7448662994044
 21
127.99409631106749
 31
0.0
1001
REVIT
1002
{
1070
     3
1000
217411
1002
}
  0
LINE
  5
371
  8
0
  6
DASH
 10
44.804600894338762
 20
128.33632493082169
 30
0.0
 11
0.00000000000216
 21
144.6438660145372
 31
0.0
1001
REVIT
1002
{
1070
     3
1000
217411
1002
}
  0
LINE
  5
372
  8
0
  6
DASH
 10
-5.8143424366106133
 20
139.3350851183518
 30
0.0
 11
-43.876984832572013
 21
125.4814162487031
 31
0.0
1001
REVIT
1002
{
1070
     3
1000
217411
1002
}
  0
LINE
  5
373
  8
0
  6
DASH
 10
-44.81725023763758
 20
125.1391876289489
 30
0.0
 11
-529.17852865272459
 21
-51.15390034526726
 31
0.0
1001
REVIT
1002
{
1070
     3
1000
217411
1002
}
  0
LINE
  5
374
  8
0
 10
-73.095110004076375
 20
-12.854444311897421
 30
0.0
 11
-162.02802951217211
 21
-166.89077936535151
 31
0.0
1001
REVIT
1002
{
1070
     3
1000
206265
1002
}
  0
LINE
  5
375
  8
0
 10
-104.29300259320929
 20
-166.8907793653517
 30
0.0
 11
0.00000000000054
 21
13.749999999999259
 31
0.0
1001
REVIT
1002
{
1070
     3
1000
206265
1002
}
  0
LINE
  5
376
  8
0
 10
-0.00000000000054
 20
13.749999999999289
 30
0.0
 11
104.29300259320929
 21
-166.8907793653517
 31
0.0
1001
REVIT
1002
{
1070
     3
1000
206265
1002
}
  0
LINE
  5
377
  8
0
 10
162.02802951217211
 20
-166.89077936535151
 30
0.0
 11
73.095110004076375
 21
-12.854444311897391
 31
0.0
1001
REVIT
1002
{
1070
     3
1000
206265
1002
}
  0
VIEWPORT
  5
25F
 67
     1
  8
0
 10
128.5
 20
97.5
 30
0.0
 40
620.98982300884961
 41
222.18000000000001
 68
     1
 69
     1
1001
ACAD
1000
MVIEW
1002
{
1070
    16
1010
0.0
1020
0.0
1030
0.0
1010
0.0
1020
0.0
1030
1.0
1040
0.0
1040
222.18000000000001
1040
128.5
1040
97.5
1040
50.0
1040
0.0
1040
0.0
1070
     0
1070
   100
1070
     1
1070
     1
1070
     0
1070
     0
1070
     0
1070
     0
1040
0.0
1040
0.0
1040
0.0
1040
10.0
1040
10.0
1040
10.0
1040
10.0
1070
     0
1002
{
1002
}
1002
}
  0
VIEWPORT
  5
263
 67
     1
  8
0
 10
128.5
 20
97.5
 30
0.0
 40
205.59999999999999
 41
156.0
 68
     2
 69
     2
1001
ACAD
1000
MVIEW
1002
{
1070
    16
1010
0.0
1020
0.0
1030
0.0
1010
0.0
1020
0.0
1030
1.0
1040
0.0
1040
930.77711853059225
1040
-0.0011596145839121
1040
67.602322046502564
1040
50.0
1040
0.0
1040
0.0
1070
     0
1070
  1000
1070
     1
1070
     1
1070
     0
1070
     0
1070
     0
1070
     0
1040
0.0
1040
0.0
1040
0.0
1040
1.0
1040
1.0
1040
0.0
1040
0.0
1070
     0
1002
{
1002
}
1002
}
  0
ENDSEC
  0
EOF
