  0
SECTION
  2
HEADER
  9
$ACADVER
  1
AC1009
  9
$INSBASE
 10
0.0
 20
0.0
 30
0.0
  9
$EXTMIN
 10
-288.092548755282
 20
-403.86894429173299
 30
0.0
  9
$EXTMAX
 10
2155.889314224949
 20
1130.792618518027
 30
0.0
  9
$LIMMIN
 10
0.0
 20
0.0
  9
$LIMMAX
 10
12.0
 20
9.0
  9
$ORTHOMODE
 70
     0
  9
$REGENMODE
 70
     1
  9
$FILLMODE
 70
     1
  9
$QTEXTMODE
 70
     0
  9
$MIRRTEXT
 70
     0
  9
$DRAGMODE
 70
     2
  9
$LTSCALE
 40
1.0
  9
$OSMODE
 70
   127
  9
$ATTMODE
 70
     1
  9
$TEXTSIZE
 40
0.2
  9
$TRACEWID
 40
0.05
  9
$TEXTSTYLE
  7
STANDARD
  9
$CLAYER
  8
0
  9
$CELTYPE
  6
BYLAYER
  9
$CECOLOR
 62
   256
  9
$DIMSCALE
 40
1.0
  9
$DIMASZ
 40
0.18
  9
$DIMEXO
 40
0.0625
  9
$DIMDLI
 40
0.38
  9
$DIMRND
 40
0.0
  9
$DIMDLE
 40
0.0
  9
$DIMEXE
 40
0.18
  9
$DIMTP
 40
0.0
  9
$DIMTM
 40
0.0
  9
$DIMTXT
 40
0.18
  9
$DIMCEN
 40
0.09
  9
$DIMTSZ
 40
0.0
  9
$DIMTOL
 70
     0
  9
$DIMLIM
 70
     0
  9
$DIMTIH
 70
     1
  9
$DIMTOH
 70
     1
  9
$DIMSE1
 70
     0
  9
$DIMSE2
 70
     0
  9
$DIMTAD
 70
     0
  9
$DIMZIN
 70
     0
  9
$DIMBLK
  1

  9
$DIMASO
 70
     1
  9
$DIMSHO
 70
     1
  9
$DIMPOST
  1

  9
$DIMAPOST
  1

  9
$DIMALT
 70
     0
  9
$DIMALTD
 70
     2
  9
$DIMALTF
 40
25.399999999999999
  9
$DIMLFAC
 40
1.0
  9
$DIMTOFL
 70
     0
  9
$DIMTVP
 40
0.0
  9
$DIMTIX
 70
     0
  9
$DIMSOXD
 70
     0
  9
$DIMSAH
 70
     0
  9
$DIMBLK1
  1

  9
$DIMBLK2
  1

  9
$DIMSTYLE
  2
STANDARD
  9
$DIMCLRD
 70
     0
  9
$DIMCLRE
 70
     0
  9
$DIMCLRT
 70
     0
  9
$DIMTFAC
 40
1.0
  9
$DIMGAP
 40
0.09
  9
$LUNITS
 70
     2
  9
$LUPREC
 70
     4
  9
$SKETCHINC
 40
0.1
  9
$FILLETRAD
 40
0.0
  9
$AUNITS
 70
     0
  9
$AUPREC
 70
     0
  9
$MENU
  1
.
  9
$ELEVATION
 40
0.0
  9
$PELEVATION
 40
0.0
  9
$THICKNESS
 40
0.0
  9
$LIMCHECK
 70
     0
  9
$BLIPMODE
 70
     0
  9
$CHAMFERA
 40
0.0
  9
$CHAMFERB
 40
0.0
  9
$SKPOLY
 70
     0
  9
$TDCREATE
 40
2457338.59320853
  9
$TDUPDATE
 40
2457338.6866151858
  9
$TDINDWG
 40
0.0001243981
  9
$TDUSRTIMER
 40
0.0001243981
  9
$USRTIMER
 70
     1
  9
$ANGBASE
 50
0.0
  9
$ANGDIR
 70
     0
  9
$PDMODE
 70
     0
  9
$PDSIZE
 40
0.0
  9
$PLINEWID
 40
0.0
  9
$COORDS
 70
     2
  9
$SPLFRAME
 70
     0
  9
$SPLINETYPE
 70
     6
  9
$SPLINESEGS
 70
     8
  9
$ATTDIA
 70
     0
  9
$ATTREQ
 70
     1
  9
$HANDLING
 70
     1
  9
$HANDSEED
  5
1907
  9
$SURFTAB1
 70
     6
  9
$SURFTAB2
 70
     6
  9
$SURFTYPE
 70
     6
  9
$SURFU
 70
     6
  9
$SURFV
 70
     6
  9
$UCSNAME
  2

  9
$UCSORG
 10
0.0
 20
0.0
 30
0.0
  9
$UCSXDIR
 10
1.0
 20
0.0
 30
0.0
  9
$UCSYDIR
 10
0.0
 20
1.0
 30
0.0
  9
$PUCSNAME
  2

  9
$PUCSORG
 10
0.0
 20
0.0
 30
0.0
  9
$PUCSXDIR
 10
1.0
 20
0.0
 30
0.0
  9
$PUCSYDIR
 10
0.0
 20
1.0
 30
0.0
  9
$USERI1
 70
     0
  9
$USERI2
 70
     0
  9
$USERI3
 70
     0
  9
$USERI4
 70
     0
  9
$USERI5
 70
     0
  9
$USERR1
 40
0.0
  9
$USERR2
 40
0.0
  9
$USERR3
 40
0.0
  9
$USERR4
 40
0.0
  9
$USERR5
 40
0.0
  9
$WORLDVIEW
 70
     1
  9
$SHADEDGE
 70
     3
  9
$SHADEDIF
 70
    70
  9
$TILEMODE
 70
     1
  9
$MAXACTVP
 70
    64
  9
$PLIMCHECK
 70
     0
  9
$PEXTMIN
 10
29.065001225471502
 20
20.364999699592602
 30
0.0
  9
$PEXTMAX
 10
261.58501102924339
 20
183.2849972963333
 30
0.0
  9
$PLIMMIN
 10
-3.17498779296875
 20
-3.1749999523162842
  9
$PLIMMAX
 10
293.82501220703119
 20
206.82500004768369
  9
$UNITMODE
 70
     0
  9
$VISRETAIN
 70
     1
  9
$PLINEGEN
 70
     0
  9
$PSLTSCALE
 70
     1
  0
ENDSEC
  0
SECTION
  2
TABLES
  0
TABLE
  2
VPORT
 70
     1
  0
VPORT
  2
*ACTIVE
 70
     0
 10
0.0
 20
0.0
 11
1.0
 21
1.0
 12
936.97192315399514
 22
416.74722033069003
 13
0.0
 23
0.0
 14
1.0
 24
1.0
 15
0.0
 25
0.0
 16
0.0
 26
0.0
 36
1.0
 17
0.0
 27
0.0
 37
0.0
 40
1643.0968131011441
 41
1.483682983682983
 42
50.0
 43
0.0
 44
0.0
 50
0.0
 51
0.0
 71
     0
 72
  1000
 73
     1
 74
     1
 75
     0
 76
     0
 77
     0
 78
     0
  0
ENDTAB
  0
TABLE
  2
LTYPE
 70
     1
  0
LTYPE
  2
CONTINUOUS
 70
     0
  3
Solid line
 72
    65
 73
     0
 40
0.0
  0
ENDTAB
  0
TABLE
  2
LAYER
 70
     8
  0
LAYER
  2
0
 70
     0
 62
     7
  6
CONTINUOUS
  0
ENDTAB
  0
TABLE
  2
STYLE
 70
    10
  0
STYLE
  2
STANDARD
 70
     0
 40
0.0
 41
1.0
 50
0.0
 71
     0
 42
0.2
  3
txt
  4

  0
STYLE
  2
ARIAL
 70
     0
 40
25.0
 41
1.0
 50
0.0
 71
     0
 42
0.2
  3
txt
  4

  0
STYLE
  2
ARIAL_1
 70
     0
 40
12.5
 41
1.0
 50
0.0
 71
     0
 42
0.2
  3
txt
  4

  0
STYLE
  2
ARIAL_2
 70
     0
 40
24.588323353293418
 41
1.0
 50
0.0
 71
     0
 42
0.2
  3
txt
  4

  0
ENDTAB
  0
TABLE
  2
VIEW
 70
     1
  0
ENDTAB
  0
TABLE
  2
UCS
 70
     0
  0
ENDTAB
  0
TABLE
  2
APPID
 70
     6
  0
APPID
  2
ACAD
 70
     0
  0
APPID
  2
ACADANNOTATIVE
 70
     0
  0
APPID
  2
REVIT
 70
     0
  0
APPID
  2
ACAD_PSEXT
 70
     0
  0
APPID
  2
ACAD_NAV_VCDISPLAY
 70
     0
  0
APPID
  2
ACAD_MLEADERVER
 70
     0
  0
ENDTAB
  0
TABLE
  2
DIMSTYLE
 70
     2
  0
DIMSTYLE
  2
STANDARD
 70
     0
  3

  4

  5

  6

  7

 40
1.0
 41
0.18
 42
0.0625
 43
0.38
 44
0.18
 45
0.0
 46
0.0
 47
0.0
 48
0.0
140
0.18
141
0.09
142
0.0
143
25.399999999999999
144
1.0
145
0.0
146
1.0
147
0.09
 71
     0
 72
     0
 73
     1
 74
     1
 75
     0
 76
     0
 77
     0
 78
     0
170
     0
171
     2
172
     0
173
     0
174
     0
175
     0
176
     0
177
     0
178
     0
  0
ENDTAB
  0
ENDSEC
  0
SECTION
  2
BLOCKS
  0
BLOCK
  8
0
  2
$MODEL_SPACE
 70
     0
 10
0.0
 20
0.0
 30
0.0
  3
$MODEL_SPACE
  1

  0
ENDBLK
  5
72
  8
0
  0
BLOCK
 67
     1
  8
0
  2
$PAPER_SPACE
 70
     0
 10
0.0
 20
0.0
 30
0.0
  3
$PAPER_SPACE
  1

  0
ENDBLK
  5
76
 67
     1
  8
0
  0
BLOCK
  8
0
  2
*U6
 70
     1
 10
0.0
 20
0.0
 30
0.0
  3
*U6
  1

  0
TEXT
  5
113B
  8
0
 62
     7
 10
-283.01890086007649
 20
1099.696607947081
 30
0.0
 40
24.588323353293418
  1
* Where cladding manufacturer requires more
  7
ARIAL_2
  0
TEXT
  5
113C
  8
0
 62
     7
 10
-282.54927394746238
 20
1061.2350694855429
 30
0.0
 40
24.588323353293418
  1
than 100mm of apron upstand under cladding,
  7
ARIAL_2
  0
TEXT
  5
113D
  8
0
 62
     7
 10
-283.28725909585597
 20
1022.773531024004
 30
0.0
 40
24.588323353293418
  1
cladding supplier to supply and install over flashing
  7
ARIAL_2
  0
TEXT
  5
113E
  8
0
 62
     7
 10
-282.54927394746238
 20
984.31199256246589
 30
0.0
 40
24.588323353293418
  1
to suite their requirements.
  7
ARIAL_2
  0
TEXT
  5
113F
  8
0
 62
     7
 10
-284.76322939264298
 20
907.38891563938887
 30
0.0
 40
24.588323353293418
  1
For details refer to cladding manufacturer.
  7
ARIAL_2
  0
ENDBLK
  5
1141
  8
0
  0
BLOCK
  8
0
  2
*U7
 70
     1
 10
0.0
 20
0.0
 30
0.0
  3
*U7
  1

  0
SOLID
  5
114F
  8
0
  6
CONTINUOUS
 62
   250
 10
1956.2198396383769
 20
253.46935817982731
 30
0.0
 11
1955.5727920256211
 21
253.38417274554999
 31
0.0
 12
1956.866887251133
 22
253.38417274554999
 32
0.0
 13
1956.866887251133
 23
253.38417274554999
 33
0.0
210
0.0
220
0.0
230
1.0
  0
SOLID
  5
1150
  8
0
  6
CONTINUOUS
 62
   250
 10
1955.5727920256211
 20
253.38417274554999
 30
0.0
 11
1954.9698396383769
 21
253.1344216892883
 31
0.0
 12
1957.4698396383781
 22
253.1344216892883
 32
0.0
 13
1957.4698396383781
 23
253.1344216892883
 33
0.0
210
0.0
220
0.0
230
1.0
  0
SOLID
  5
1151
  8
0
  6
CONTINUOUS
 62
   250
 10
-1955.5727920256211
 20
253.38417274554999
 30
0.0
 11
-1956.866887251133
 21
253.38417274554999
 31
0.0
 12
-1957.4698396383781
 22
253.1344216892883
 32
0.0
 13
-1957.4698396383781
 23
253.1344216892883
 33
0.0
210
0.0
220
0.0
230
-1.0
  0
SOLID
  5
1152
  8
0
  6
CONTINUOUS
 62
   250
 10
1954.9698396383769
 20
253.1344216892883
 30
0.0
 11
1954.45207268541
 21
252.73712513279361
 31
0.0
 12
1957.9876065913429
 22
252.73712513279361
 32
0.0
 13
1957.9876065913429
 23
252.73712513279361
 33
0.0
210
0.0
220
0.0
230
1.0
  0
SOLID
  5
1153
  8
0
  6
CONTINUOUS
 62
   250
 10
-1954.9698396383769
 20
253.1344216892883
 30
0.0
 11
-1957.4698396383781
 21
253.1344216892883
 31
0.0
 12
-1957.9876065913429
 22
252.73712513279361
 32
0.0
 13
-1957.9876065913429
 23
252.73712513279361
 33
0.0
210
0.0
220
0.0
230
-1.0
  0
SOLID
  5
1154
  8
0
  6
CONTINUOUS
 62
   250
 10
1954.45207268541
 20
252.73712513279361
 30
0.0
 11
1954.054776128916
 21
252.21935817982731
 31
0.0
 12
1958.3849031478389
 22
252.21935817982731
 32
0.0
 13
1958.3849031478389
 23
252.21935817982731
 33
0.0
210
0.0
220
0.0
230
1.0
  0
SOLID
  5
1155
  8
0
  6
CONTINUOUS
 62
   250
 10
-1954.45207268541
 20
252.73712513279361
 30
0.0
 11
-1957.9876065913429
 21
252.73712513279361
 31
0.0
 12
-1958.3849031478389
 22
252.21935817982731
 32
0.0
 13
-1958.3849031478389
 23
252.21935817982731
 33
0.0
210
0.0
220
0.0
230
-1.0
  0
SOLID
  5
1156
  8
0
  6
CONTINUOUS
 62
   250
 10
1954.054776128916
 20
252.21935817982731
 30
0.0
 11
1953.8050250726551
 21
251.61640579258361
 31
0.0
 12
1958.634654204099
 22
251.61640579258361
 32
0.0
 13
1958.634654204099
 23
251.61640579258361
 33
0.0
210
0.0
220
0.0
230
1.0
  0
SOLID
  5
1157
  8
0
  6
CONTINUOUS
 62
   250
 10
-1954.054776128916
 20
252.21935817982731
 30
0.0
 11
-1958.3849031478389
 21
252.21935817982731
 31
0.0
 12
-1958.634654204099
 22
251.61640579258361
 32
0.0
 13
-1958.634654204099
 23
251.61640579258361
 33
0.0
210
0.0
220
0.0
230
-1.0
  0
SOLID
  5
1158
  8
0
  6
CONTINUOUS
 62
   250
 10
1953.8050250726551
 20
251.61640579258361
 30
0.0
 11
1953.7198396383769
 21
250.96935817982731
 31
0.0
 12
1958.7198396383769
 22
250.96935817982731
 32
0.0
 13
1958.7198396383769
 23
250.96935817982731
 33
0.0
210
0.0
220
0.0
230
1.0
  0
SOLID
  5
1159
  8
0
  6
CONTINUOUS
 62
   250
 10
-1953.8050250726551
 20
251.61640579258361
 30
0.0
 11
-1958.634654204099
 21
251.61640579258361
 31
0.0
 12
-1958.7198396383769
 22
250.96935817982731
 32
0.0
 13
-1958.7198396383769
 23
250.96935817982731
 33
0.0
210
0.0
220
0.0
230
-1.0
  0
SOLID
  5
115A
  8
0
  6
CONTINUOUS
 62
   250
 10
1953.7198396383769
 20
250.96935817982731
 30
0.0
 11
1953.8050250726551
 21
250.32231056707101
 31
0.0
 12
1958.634654204099
 22
250.32231056707101
 32
0.0
 13
1958.634654204099
 23
250.32231056707101
 33
0.0
  0
SOLID
  5
115B
  8
0
  6
CONTINUOUS
 62
   250
 10
-1953.7198396383769
 20
250.96935817982731
 30
0.0
 11
-1958.7198396383769
 21
250.96935817982731
 31
0.0
 12
-1958.634654204099
 22
250.32231056707101
 32
0.0
 13
-1958.634654204099
 23
250.32231056707101
 33
0.0
210
0.0
220
0.0
230
-1.0
  0
SOLID
  5
115C
  8
0
  6
CONTINUOUS
 62
   250
 10
1953.8050250726551
 20
250.32231056707101
 30
0.0
 11
1954.054776128916
 21
249.7193581798274
 31
0.0
 12
1958.3849031478389
 22
249.7193581798274
 32
0.0
 13
1958.3849031478389
 23
249.7193581798274
 33
0.0
210
0.0
220
0.0
230
1.0
  0
SOLID
  5
115D
  8
0
  6
CONTINUOUS
 62
   250
 10
-1953.8050250726551
 20
250.32231056707101
 30
0.0
 11
-1958.634654204099
 21
250.32231056707101
 31
0.0
 12
-1958.3849031478389
 22
249.7193581798274
 32
0.0
 13
-1958.3849031478389
 23
249.7193581798274
 33
0.0
210
0.0
220
0.0
230
-1.0
  0
SOLID
  5
115E
  8
0
  6
CONTINUOUS
 62
   250
 10
1954.054776128916
 20
249.7193581798274
 30
0.0
 11
1954.45207268541
 21
249.2015912268611
 31
0.0
 12
1957.9876065913429
 22
249.2015912268611
 32
0.0
 13
1957.9876065913429
 23
249.2015912268611
 33
0.0
210
0.0
220
0.0
230
1.0
  0
SOLID
  5
115F
  8
0
  6
CONTINUOUS
 62
   250
 10
-1954.054776128916
 20
249.7193581798274
 30
0.0
 11
-1958.3849031478389
 21
249.7193581798274
 31
0.0
 12
-1957.9876065913429
 22
249.2015912268611
 32
0.0
 13
-1957.9876065913429
 23
249.2015912268611
 33
0.0
210
0.0
220
0.0
230
-1.0
  0
SOLID
  5
1160
  8
0
  6
CONTINUOUS
 62
   250
 10
1954.45207268541
 20
249.2015912268611
 30
0.0
 11
1954.9698396383769
 21
248.8042946703662
 31
0.0
 12
1957.4698396383769
 22
248.8042946703662
 32
0.0
 13
1957.4698396383769
 23
248.8042946703662
 33
0.0
210
0.0
220
0.0
230
1.0
  0
SOLID
  5
1161
  8
0
  6
CONTINUOUS
 62
   250
 10
-1954.45207268541
 20
249.2015912268611
 30
0.0
 11
-1957.9876065913429
 21
249.2015912268611
 31
0.0
 12
-1957.4698396383769
 22
248.8042946703662
 32
0.0
 13
-1957.4698396383769
 23
248.8042946703662
 33
0.0
210
0.0
220
0.0
230
-1.0
  0
SOLID
  5
1162
  8
0
  6
CONTINUOUS
 62
   250
 10
-1955.5727920256211
 20
248.55454361410469
 30
0.0
 11
-1956.866887251133
 21
248.55454361410469
 31
0.0
 12
-1956.2198396383769
 22
248.4693581798274
 32
0.0
 13
-1956.2198396383769
 23
248.4693581798274
 33
0.0
210
0.0
220
0.0
230
-1.0
  0
SOLID
  5
1163
  8
0
  6
CONTINUOUS
 62
   250
 10
1954.9698396383769
 20
248.8042946703662
 30
0.0
 11
1955.5727920256211
 21
248.55454361410469
 31
0.0
 12
1956.866887251133
 22
248.55454361410469
 32
0.0
 13
1956.866887251133
 23
248.55454361410469
 33
0.0
210
0.0
220
0.0
230
1.0
  0
SOLID
  5
1164
  8
0
  6
CONTINUOUS
 62
   250
 10
-1954.9698396383769
 20
248.8042946703662
 30
0.0
 11
-1957.4698396383769
 21
248.8042946703662
 31
0.0
 12
-1956.866887251133
 22
248.55454361410469
 32
0.0
 13
-1956.866887251133
 23
248.55454361410469
 33
0.0
210
0.0
220
0.0
230
-1.0
  0
LINE
  5
1165
  8
0
  6
CONTINUOUS
 62
   250
 10
1956.2198396383769
 20
253.46935817982731
 30
0.0
 11
1955.5727920256211
 21
253.38417274554999
 31
0.0
  0
LINE
  5
1166
  8
0
  6
CONTINUOUS
 62
   250
 10
1956.866887251133
 20
253.38417274554999
 30
0.0
 11
1956.2198396383769
 21
253.46935817982731
 31
0.0
  0
LINE
  5
1167
  8
0
  6
CONTINUOUS
 62
   250
 10
1955.5727920256211
 20
253.38417274554999
 30
0.0
 11
1954.9698396383769
 21
253.1344216892883
 31
0.0
  0
LINE
  5
1168
  8
0
  6
CONTINUOUS
 62
   250
 10
1956.866887251133
 20
253.38417274554999
 30
0.0
 11
1957.4698396383781
 21
253.1344216892883
 31
0.0
  0
LINE
  5
1169
  8
0
  6
CONTINUOUS
 62
   250
 10
1954.9698396383769
 20
253.1344216892883
 30
0.0
 11
1954.45207268541
 21
252.73712513279361
 31
0.0
  0
LINE
  5
116A
  8
0
  6
CONTINUOUS
 62
   250
 10
1957.4698396383781
 20
253.1344216892883
 30
0.0
 11
1957.9876065913429
 21
252.73712513279361
 31
0.0
  0
LINE
  5
116B
  8
0
  6
CONTINUOUS
 62
   250
 10
1954.45207268541
 20
252.73712513279361
 30
0.0
 11
1954.054776128916
 21
252.21935817982731
 31
0.0
  0
LINE
  5
116C
  8
0
  6
CONTINUOUS
 62
   250
 10
1957.9876065913429
 20
252.73712513279361
 30
0.0
 11
1958.3849031478389
 21
252.21935817982731
 31
0.0
  0
LINE
  5
116D
  8
0
  6
CONTINUOUS
 62
   250
 10
1954.054776128916
 20
252.21935817982731
 30
0.0
 11
1953.8050250726551
 21
251.61640579258361
 31
0.0
  0
LINE
  5
116E
  8
0
  6
CONTINUOUS
 62
   250
 10
1958.3849031478389
 20
252.21935817982731
 30
0.0
 11
1958.634654204099
 21
251.61640579258361
 31
0.0
  0
LINE
  5
116F
  8
0
  6
CONTINUOUS
 62
   250
 10
1953.8050250726551
 20
251.61640579258361
 30
0.0
 11
1953.7198396383769
 21
250.96935817982731
 31
0.0
  0
LINE
  5
1170
  8
0
  6
CONTINUOUS
 62
   250
 10
1958.634654204099
 20
251.61640579258361
 30
0.0
 11
1958.7198396383769
 21
250.96935817982731
 31
0.0
  0
LINE
  5
1171
  8
0
  6
CONTINUOUS
 62
   250
 10
1953.7198396383769
 20
250.96935817982731
 30
0.0
 11
1953.8050250726551
 21
250.32231056707101
 31
0.0
  0
LINE
  5
1172
  8
0
  6
CONTINUOUS
 62
   250
 10
1958.7198396383769
 20
250.96935817982731
 30
0.0
 11
1958.634654204099
 21
250.32231056707101
 31
0.0
  0
LINE
  5
1173
  8
0
  6
CONTINUOUS
 62
   250
 10
1953.8050250726551
 20
250.32231056707101
 30
0.0
 11
1954.054776128916
 21
249.7193581798274
 31
0.0
  0
LINE
  5
1174
  8
0
  6
CONTINUOUS
 62
   250
 10
1958.634654204099
 20
250.32231056707101
 30
0.0
 11
1958.3849031478389
 21
249.7193581798274
 31
0.0
  0
LINE
  5
1175
  8
0
  6
CONTINUOUS
 62
   250
 10
1954.054776128916
 20
249.7193581798274
 30
0.0
 11
1954.45207268541
 21
249.2015912268611
 31
0.0
  0
LINE
  5
1176
  8
0
  6
CONTINUOUS
 62
   250
 10
1958.3849031478389
 20
249.7193581798274
 30
0.0
 11
1957.9876065913429
 21
249.2015912268611
 31
0.0
  0
LINE
  5
1177
  8
0
  6
CONTINUOUS
 62
   250
 10
1954.45207268541
 20
249.2015912268611
 30
0.0
 11
1954.9698396383769
 21
248.8042946703662
 31
0.0
  0
LINE
  5
1178
  8
0
  6
CONTINUOUS
 62
   250
 10
1957.9876065913429
 20
249.2015912268611
 30
0.0
 11
1957.4698396383769
 21
248.8042946703662
 31
0.0
  0
LINE
  5
1179
  8
0
  6
CONTINUOUS
 62
   250
 10
1956.866887251133
 20
248.55454361410469
 30
0.0
 11
1956.2198396383769
 21
248.4693581798274
 31
0.0
  0
LINE
  5
117A
  8
0
  6
CONTINUOUS
 62
   250
 10
1956.2198396383769
 20
248.4693581798274
 30
0.0
 11
1955.5727920256211
 21
248.55454361410469
 31
0.0
  0
LINE
  5
117B
  8
0
  6
CONTINUOUS
 62
   250
 10
1954.9698396383769
 20
248.8042946703662
 30
0.0
 11
1955.5727920256211
 21
248.55454361410469
 31
0.0
  0
LINE
  5
117C
  8
0
  6
CONTINUOUS
 62
   250
 10
1957.4698396383769
 20
248.8042946703662
 30
0.0
 11
1956.866887251133
 21
248.55454361410469
 31
0.0
  0
ENDBLK
  5
117E
  8
0
  0
BLOCK
  8
0
  2
*U8
 70
     1
 10
0.0
 20
0.0
 30
0.0
  3
*U8
  1

  0
TEXT
  5
1180
  8
0
 62
   241
 10
1747.664568135795
 20
147.04693695027001
 30
0.0
 40
12.5
  1
Stop end flashing
  7
ARIAL_1
  0
ENDBLK
  5
1182
  8
0
  0
BLOCK
  8
0
  2
*U9
 70
     1
 10
0.0
 20
0.0
 30
0.0
  3
*U9
  1

  0
SOLID
  5
1184
  8
0
  6
CONTINUOUS
 10
183.04784361592479
 20
21.610105014681881
 30
0.0
 11
181.7537483904122
 21
21.439734146127488
 31
0.0
 12
184.3419388414375
 22
21.439734146127488
 32
0.0
 13
184.3419388414375
 23
21.439734146127488
 33
0.0
210
0.0
220
0.0
230
1.0
  0
SOLID
  5
1185
  8
0
  6
CONTINUOUS
 10
181.7537483904122
 20
21.439734146127488
 30
0.0
 11
180.54784361592479
 21
20.940232033604062
 31
0.0
 12
185.54784361592479
 22
20.940232033604062
 32
0.0
 13
185.54784361592479
 23
20.940232033604062
 33
0.0
210
0.0
220
0.0
230
1.0
  0
SOLID
  5
1186
  8
0
  6
CONTINUOUS
 10
-181.7537483904122
 20
21.439734146127488
 30
0.0
 11
-184.3419388414375
 21
21.439734146127488
 31
0.0
 12
-185.54784361592479
 22
20.940232033604062
 32
0.0
 13
-185.54784361592479
 23
20.940232033604062
 33
0.0
210
0.0
220
0.0
230
-1.0
  0
SOLID
  5
1187
  8
0
  6
CONTINUOUS
 10
180.54784361592479
 20
20.940232033604062
 30
0.0
 11
179.512309709992
 21
20.14563892061464
 31
0.0
 12
186.58337752185739
 22
20.14563892061464
 32
0.0
 13
186.58337752185739
 23
20.14563892061464
 33
0.0
210
0.0
220
0.0
230
1.0
  0
SOLID
  5
1188
  8
0
  6
CONTINUOUS
 10
-180.54784361592479
 20
20.940232033604062
 30
0.0
 11
-185.54784361592479
 21
20.940232033604062
 31
0.0
 12
-186.58337752185739
 22
20.14563892061464
 32
0.0
 13
-186.58337752185739
 23
20.14563892061464
 33
0.0
210
0.0
220
0.0
230
-1.0
  0
SOLID
  5
1189
  8
0
  6
CONTINUOUS
 10
179.512309709992
 20
20.14563892061464
 30
0.0
 11
178.71771659700261
 21
19.11010501468191
 31
0.0
 12
187.377970634847
 22
19.11010501468191
 32
0.0
 13
187.377970634847
 23
19.11010501468191
 33
0.0
210
0.0
220
0.0
230
1.0
  0
SOLID
  5
118A
  8
0
  6
CONTINUOUS
 10
-179.512309709992
 20
20.14563892061464
 30
0.0
 11
-186.58337752185739
 21
20.14563892061464
 31
0.0
 12
-187.377970634847
 22
19.11010501468191
 32
0.0
 13
-187.377970634847
 23
19.11010501468191
 33
0.0
210
0.0
220
0.0
230
-1.0
  0
SOLID
  5
118B
  8
0
  6
CONTINUOUS
 10
178.71771659700261
 20
19.11010501468191
 30
0.0
 11
178.2182144844794
 21
17.90420024019452
 31
0.0
 12
187.87747274737009
 22
17.90420024019452
 32
0.0
 13
187.87747274737009
 23
17.90420024019452
 33
0.0
210
0.0
220
0.0
230
1.0
  0
SOLID
  5
118C
  8
0
  6
CONTINUOUS
 10
-178.71771659700261
 20
19.11010501468191
 30
0.0
 11
-187.377970634847
 21
19.11010501468191
 31
0.0
 12
-187.87747274737009
 22
17.90420024019452
 32
0.0
 13
-187.87747274737009
 23
17.90420024019452
 33
0.0
210
0.0
220
0.0
230
-1.0
  0
SOLID
  5
118D
  8
0
  6
CONTINUOUS
 10
178.2182144844794
 20
17.90420024019452
 30
0.0
 11
178.04784361592459
 21
16.610105014681938
 31
0.0
 12
188.04784361592479
 22
16.610105014681938
 32
0.0
 13
188.04784361592479
 23
16.610105014681938
 33
0.0
210
0.0
220
0.0
230
1.0
  0
SOLID
  5
118E
  8
0
  6
CONTINUOUS
 10
-178.2182144844794
 20
17.90420024019452
 30
0.0
 11
-187.87747274737009
 21
17.90420024019452
 31
0.0
 12
-188.04784361592479
 22
16.610105014681938
 32
0.0
 13
-188.04784361592479
 23
16.610105014681938
 33
0.0
210
0.0
220
0.0
230
-1.0
  0
SOLID
  5
118F
  8
0
  6
CONTINUOUS
 10
178.04784361592459
 20
16.610105014681938
 30
0.0
 11
178.21821448447949
 21
15.31600978916909
 31
0.0
 12
187.87747274737009
 22
15.31600978916909
 32
0.0
 13
187.87747274737009
 23
15.31600978916909
 33
0.0
210
0.0
220
0.0
230
1.0
  0
SOLID
  5
1190
  8
0
  6
CONTINUOUS
 10
-178.04784361592459
 20
16.610105014681938
 30
0.0
 11
-188.04784361592479
 21
16.610105014681938
 31
0.0
 12
-187.87747274737009
 22
15.31600978916909
 32
0.0
 13
-187.87747274737009
 23
15.31600978916909
 33
0.0
210
0.0
220
0.0
230
-1.0
  0
SOLID
  5
1191
  8
0
  6
CONTINUOUS
 10
178.2182144844796
 20
15.31600978916909
 30
0.0
 11
178.71771659700261
 21
14.11010501468169
 31
0.0
 12
187.377970634847
 22
14.11010501468169
 32
0.0
 13
187.377970634847
 23
14.11010501468169
 33
0.0
210
0.0
220
0.0
230
1.0
  0
SOLID
  5
1192
  8
0
  6
CONTINUOUS
 10
-178.2182144844796
 20
15.31600978916909
 30
0.0
 11
-187.87747274737009
 21
15.31600978916909
 31
0.0
 12
-187.377970634847
 22
14.11010501468169
 32
0.0
 13
-187.377970634847
 23
14.11010501468169
 33
0.0
210
0.0
220
0.0
230
-1.0
  0
SOLID
  5
1193
  8
0
  6
CONTINUOUS
 10
178.71771659700269
 20
14.11010501468169
 30
0.0
 11
179.512309709992
 21
13.07457110874924
 31
0.0
 12
186.58337752185739
 22
13.07457110874924
 32
0.0
 13
186.58337752185739
 23
13.07457110874924
 33
0.0
210
0.0
220
0.0
230
1.0
  0
SOLID
  5
1194
  8
0
  6
CONTINUOUS
 10
-178.71771659700269
 20
14.11010501468169
 30
0.0
 11
-187.377970634847
 21
14.11010501468169
 31
0.0
 12
-186.58337752185739
 22
13.07457110874924
 32
0.0
 13
-186.58337752185739
 23
13.07457110874924
 33
0.0
210
0.0
220
0.0
230
-1.0
  0
SOLID
  5
1195
  8
0
  6
CONTINUOUS
 10
179.512309709992
 20
13.07457110874924
 30
0.0
 11
180.54784361592479
 21
12.279977995759539
 31
0.0
 12
185.54784361592471
 22
12.279977995759539
 32
0.0
 13
185.54784361592471
 23
12.279977995759539
 33
0.0
210
0.0
220
0.0
230
1.0
  0
SOLID
  5
1196
  8
0
  6
CONTINUOUS
 10
-179.512309709992
 20
13.07457110874924
 30
0.0
 11
-186.58337752185739
 21
13.07457110874924
 31
0.0
 12
-185.54784361592471
 22
12.279977995759539
 32
0.0
 13
-185.54784361592471
 23
12.279977995759539
 33
0.0
210
0.0
220
0.0
230
-1.0
  0
SOLID
  5
1197
  8
0
  6
CONTINUOUS
 10
-181.7537483904122
 20
11.780475883236649
 30
0.0
 11
-184.3419388414373
 21
11.780475883236649
 31
0.0
 12
-183.04784361592471
 22
11.61010501468199
 32
0.0
 13
-183.04784361592471
 23
11.61010501468199
 33
0.0
210
0.0
220
0.0
230
-1.0
  0
SOLID
  5
1198
  8
0
  6
CONTINUOUS
 10
180.54784361592479
 20
12.279977995759539
 30
0.0
 11
181.7537483904122
 21
11.780475883236649
 31
0.0
 12
184.3419388414373
 22
11.780475883236649
 32
0.0
 13
184.3419388414373
 23
11.780475883236649
 33
0.0
210
0.0
220
0.0
230
1.0
  0
SOLID
  5
1199
  8
0
  6
CONTINUOUS
 10
-180.54784361592479
 20
12.279977995759539
 30
0.0
 11
-185.54784361592471
 21
12.279977995759539
 31
0.0
 12
-184.3419388414373
 22
11.780475883236649
 32
0.0
 13
-184.3419388414373
 23
11.780475883236649
 33
0.0
210
0.0
220
0.0
230
-1.0
  0
LINE
  5
119A
  8
0
  6
CONTINUOUS
 10
183.04784361592479
 20
21.610105014681881
 30
0.0
 11
181.7537483904122
 21
21.439734146127488
 31
0.0
  0
LINE
  5
119B
  8
0
  6
CONTINUOUS
 10
184.3419388414375
 20
21.439734146127488
 30
0.0
 11
183.04784361592479
 21
21.610105014681881
 31
0.0
  0
LINE
  5
119C
  8
0
  6
CONTINUOUS
 10
181.7537483904122
 20
21.439734146127488
 30
0.0
 11
180.54784361592479
 21
20.940232033604062
 31
0.0
  0
LINE
  5
119D
  8
0
  6
CONTINUOUS
 10
184.3419388414375
 20
21.439734146127488
 30
0.0
 11
185.54784361592479
 21
20.940232033604062
 31
0.0
  0
LINE
  5
119E
  8
0
  6
CONTINUOUS
 10
180.54784361592479
 20
20.940232033604062
 30
0.0
 11
179.512309709992
 21
20.14563892061464
 31
0.0
  0
LINE
  5
119F
  8
0
  6
CONTINUOUS
 10
185.54784361592479
 20
20.940232033604062
 30
0.0
 11
186.58337752185739
 21
20.14563892061464
 31
0.0
  0
LINE
  5
11A0
  8
0
  6
CONTINUOUS
 10
179.512309709992
 20
20.14563892061464
 30
0.0
 11
178.71771659700261
 21
19.11010501468191
 31
0.0
  0
LINE
  5
11A1
  8
0
  6
CONTINUOUS
 10
186.58337752185739
 20
20.14563892061464
 30
0.0
 11
187.377970634847
 21
19.11010501468191
 31
0.0
  0
LINE
  5
11A2
  8
0
  6
CONTINUOUS
 10
178.71771659700261
 20
19.11010501468191
 30
0.0
 11
178.2182144844794
 21
17.90420024019452
 31
0.0
  0
LINE
  5
11A3
  8
0
  6
CONTINUOUS
 10
187.377970634847
 20
19.11010501468191
 30
0.0
 11
187.87747274737009
 21
17.90420024019452
 31
0.0
  0
LINE
  5
11A4
  8
0
  6
CONTINUOUS
 10
178.2182144844794
 20
17.90420024019452
 30
0.0
 11
178.04784361592459
 21
16.610105014681938
 31
0.0
  0
LINE
  5
11A5
  8
0
  6
CONTINUOUS
 10
187.87747274737009
 20
17.90420024019452
 30
0.0
 11
188.04784361592479
 21
16.610105014681938
 31
0.0
  0
LINE
  5
11A6
  8
0
  6
CONTINUOUS
 10
178.04784361592459
 20
16.610105014681938
 30
0.0
 11
178.21821448447949
 21
15.31600978916909
 31
0.0
  0
LINE
  5
11A7
  8
0
  6
CONTINUOUS
 10
188.04784361592479
 20
16.610105014681938
 30
0.0
 11
187.87747274737009
 21
15.31600978916909
 31
0.0
  0
LINE
  5
11A8
  8
0
  6
CONTINUOUS
 10
178.2182144844796
 20
15.31600978916909
 30
0.0
 11
178.71771659700261
 21
14.11010501468169
 31
0.0
  0
LINE
  5
11A9
  8
0
  6
CONTINUOUS
 10
187.87747274737009
 20
15.31600978916909
 30
0.0
 11
187.377970634847
 21
14.11010501468169
 31
0.0
  0
LINE
  5
11AA
  8
0
  6
CONTINUOUS
 10
178.71771659700269
 20
14.11010501468169
 30
0.0
 11
179.512309709992
 21
13.07457110874924
 31
0.0
  0
LINE
  5
11AB
  8
0
  6
CONTINUOUS
 10
187.377970634847
 20
14.11010501468169
 30
0.0
 11
186.58337752185739
 21
13.07457110874924
 31
0.0
  0
LINE
  5
11AC
  8
0
  6
CONTINUOUS
 10
179.512309709992
 20
13.07457110874924
 30
0.0
 11
180.54784361592479
 21
12.279977995759539
 31
0.0
  0
LINE
  5
11AD
  8
0
  6
CONTINUOUS
 10
186.58337752185739
 20
13.07457110874924
 30
0.0
 11
185.54784361592471
 21
12.279977995759539
 31
0.0
  0
LINE
  5
11AE
  8
0
  6
CONTINUOUS
 10
184.3419388414373
 20
11.780475883236649
 30
0.0
 11
183.04784361592471
 21
11.61010501468199
 31
0.0
  0
LINE
  5
11AF
  8
0
  6
CONTINUOUS
 10
183.04784361592471
 20
11.61010501468199
 30
0.0
 11
181.7537483904122
 21
11.780475883236649
 31
0.0
  0
LINE
  5
11B0
  8
0
  6
CONTINUOUS
 10
180.54784361592479
 20
12.279977995759539
 30
0.0
 11
181.7537483904122
 21
11.780475883236649
 31
0.0
  0
LINE
  5
11B1
  8
0
  6
CONTINUOUS
 10
185.54784361592471
 20
12.279977995759539
 30
0.0
 11
184.3419388414373
 21
11.780475883236649
 31
0.0
  0
ENDBLK
  5
11B3
  8
0
  0
BLOCK
  8
0
  2
*U10
 70
     1
 10
0.0
 20
0.0
 30
0.0
  3
*U10
  1

  0
SOLID
  5
11B5
  8
0
  6
CONTINUOUS
 10
828.74703457821852
 20
-189.97249433154539
 30
0.0
 11
827.45293935270593
 21
-190.14286520010009
 31
0.0
 12
830.041129803731
 22
-190.14286520010009
 32
0.0
 13
830.041129803731
 23
-190.14286520010009
 33
0.0
210
0.0
220
0.0
230
1.0
  0
SOLID
  5
11B6
  8
0
  6
CONTINUOUS
 10
827.45293935270593
 20
-190.14286520010009
 30
0.0
 11
826.24703457821852
 21
-190.64236731262321
 31
0.0
 12
831.24703457821875
 22
-190.64236731262321
 32
0.0
 13
831.24703457821875
 23
-190.64236731262321
 33
0.0
210
0.0
220
0.0
230
1.0
  0
SOLID
  5
11B7
  8
0
  6
CONTINUOUS
 10
-827.45293935270593
 20
-190.14286520010009
 30
0.0
 11
-830.041129803731
 21
-190.14286520010009
 31
0.0
 12
-831.24703457821875
 22
-190.64236731262321
 32
0.0
 13
-831.24703457821875
 23
-190.64236731262321
 33
0.0
210
0.0
220
0.0
230
-1.0
  0
SOLID
  5
11B8
  8
0
  6
CONTINUOUS
 10
826.24703457821852
 20
-190.64236731262321
 30
0.0
 11
825.21150067228564
 21
-191.43696042561271
 31
0.0
 12
832.28256848415106
 22
-191.43696042561271
 32
0.0
 13
832.28256848415106
 23
-191.43696042561271
 33
0.0
210
0.0
220
0.0
230
1.0
  0
SOLID
  5
11B9
  8
0
  6
CONTINUOUS
 10
-826.24703457821852
 20
-190.64236731262321
 30
0.0
 11
-831.24703457821875
 21
-190.64236731262321
 31
0.0
 12
-832.28256848415106
 22
-191.43696042561271
 32
0.0
 13
-832.28256848415106
 23
-191.43696042561271
 33
0.0
210
0.0
220
0.0
230
-1.0
  0
SOLID
  5
11BA
  8
0
  6
CONTINUOUS
 10
825.21150067228564
 20
-191.43696042561271
 30
0.0
 11
824.41690755929642
 21
-192.47249433154539
 31
0.0
 12
833.0771615971405
 22
-192.47249433154539
 32
0.0
 13
833.0771615971405
 23
-192.47249433154539
 33
0.0
210
0.0
220
0.0
230
1.0
  0
SOLID
  5
11BB
  8
0
  6
CONTINUOUS
 10
-825.21150067228564
 20
-191.43696042561271
 30
0.0
 11
-832.28256848415106
 21
-191.43696042561271
 31
0.0
 12
-833.0771615971405
 22
-192.47249433154539
 32
0.0
 13
-833.0771615971405
 23
-192.47249433154539
 33
0.0
210
0.0
220
0.0
230
-1.0
  0
SOLID
  5
11BC
  8
0
  6
CONTINUOUS
 10
824.41690755929642
 20
-192.47249433154539
 30
0.0
 11
823.91740544677305
 21
-193.6783991060328
 31
0.0
 12
833.57666370966376
 22
-193.6783991060328
 32
0.0
 13
833.57666370966376
 23
-193.6783991060328
 33
0.0
210
0.0
220
0.0
230
1.0
  0
SOLID
  5
11BD
  8
0
  6
CONTINUOUS
 10
-824.41690755929642
 20
-192.47249433154539
 30
0.0
 11
-833.0771615971405
 21
-192.47249433154539
 31
0.0
 12
-833.57666370966376
 22
-193.6783991060328
 32
0.0
 13
-833.57666370966376
 23
-193.6783991060328
 33
0.0
210
0.0
220
0.0
230
-1.0
  0
SOLID
  5
11BE
  8
0
  6
CONTINUOUS
 10
823.91740544677305
 20
-193.6783991060328
 30
0.0
 11
823.74703457821852
 21
-194.9724943315457
 31
0.0
 12
833.7470345782184
 22
-194.9724943315457
 32
0.0
 13
833.7470345782184
 23
-194.9724943315457
 33
0.0
210
0.0
220
0.0
230
1.0
  0
SOLID
  5
11BF
  8
0
  6
CONTINUOUS
 10
-823.91740544677305
 20
-193.6783991060328
 30
0.0
 11
-833.57666370966376
 21
-193.6783991060328
 31
0.0
 12
-833.7470345782184
 22
-194.9724943315457
 32
0.0
 13
-833.7470345782184
 23
-194.9724943315457
 33
0.0
210
0.0
220
0.0
230
-1.0
  0
SOLID
  5
11C0
  8
0
  6
CONTINUOUS
 10
823.74703457821852
 20
-194.9724943315457
 30
0.0
 11
823.91740544677305
 21
-196.2665895570579
 31
0.0
 12
833.57666370966376
 22
-196.2665895570579
 32
0.0
 13
833.57666370966376
 23
-196.2665895570579
 33
0.0
  0
SOLID
  5
11C1
  8
0
  6
CONTINUOUS
 10
-823.74703457821852
 20
-194.9724943315457
 30
0.0
 11
-833.7470345782184
 21
-194.9724943315457
 31
0.0
 12
-833.57666370966376
 22
-196.2665895570579
 32
0.0
 13
-833.57666370966376
 23
-196.2665895570579
 33
0.0
210
0.0
220
0.0
230
-1.0
  0
SOLID
  5
11C2
  8
0
  6
CONTINUOUS
 10
823.91740544677305
 20
-196.2665895570579
 30
0.0
 11
824.41690755929642
 21
-197.47249433154531
 31
0.0
 12
833.0771615971405
 22
-197.47249433154531
 32
0.0
 13
833.0771615971405
 23
-197.47249433154531
 33
0.0
210
0.0
220
0.0
230
1.0
  0
SOLID
  5
11C3
  8
0
  6
CONTINUOUS
 10
-823.91740544677305
 20
-196.2665895570579
 30
0.0
 11
-833.57666370966376
 21
-196.2665895570579
 31
0.0
 12
-833.0771615971405
 22
-197.47249433154531
 32
0.0
 13
-833.0771615971405
 23
-197.47249433154531
 33
0.0
210
0.0
220
0.0
230
-1.0
  0
SOLID
  5
11C4
  8
0
  6
CONTINUOUS
 10
824.41690755929642
 20
-197.47249433154531
 30
0.0
 11
825.21150067228564
 21
-198.5080282374781
 31
0.0
 12
832.28256848415106
 22
-198.5080282374781
 32
0.0
 13
832.28256848415106
 23
-198.5080282374781
 33
0.0
210
0.0
220
0.0
230
1.0
  0
SOLID
  5
11C5
  8
0
  6
CONTINUOUS
 10
-824.41690755929642
 20
-197.47249433154531
 30
0.0
 11
-833.0771615971405
 21
-197.47249433154531
 31
0.0
 12
-832.28256848415106
 22
-198.5080282374781
 32
0.0
 13
-832.28256848415106
 23
-198.5080282374781
 33
0.0
210
0.0
220
0.0
230
-1.0
  0
SOLID
  5
11C6
  8
0
  6
CONTINUOUS
 10
825.21150067228564
 20
-198.5080282374781
 30
0.0
 11
826.24703457821852
 21
-199.30262135046749
 31
0.0
 12
831.24703457821875
 22
-199.30262135046749
 32
0.0
 13
831.24703457821875
 23
-199.30262135046749
 33
0.0
210
0.0
220
0.0
230
1.0
  0
SOLID
  5
11C7
  8
0
  6
CONTINUOUS
 10
-825.21150067228564
 20
-198.5080282374781
 30
0.0
 11
-832.28256848415106
 21
-198.5080282374781
 31
0.0
 12
-831.24703457821875
 22
-199.30262135046749
 32
0.0
 13
-831.24703457821875
 23
-199.30262135046749
 33
0.0
210
0.0
220
0.0
230
-1.0
  0
SOLID
  5
11C8
  8
0
  6
CONTINUOUS
 10
-827.45293935270593
 20
-199.80212346299069
 30
0.0
 11
-830.041129803731
 21
-199.80212346299069
 31
0.0
 12
-828.74703457821852
 22
-199.97249433154559
 32
0.0
 13
-828.74703457821852
 23
-199.97249433154559
 33
0.0
210
0.0
220
0.0
230
-1.0
  0
SOLID
  5
11C9
  8
0
  6
CONTINUOUS
 10
826.24703457821852
 20
-199.30262135046749
 30
0.0
 11
827.45293935270593
 21
-199.80212346299069
 31
0.0
 12
830.041129803731
 22
-199.80212346299069
 32
0.0
 13
830.041129803731
 23
-199.80212346299069
 33
0.0
210
0.0
220
0.0
230
1.0
  0
SOLID
  5
11CA
  8
0
  6
CONTINUOUS
 10
-826.24703457821852
 20
-199.30262135046749
 30
0.0
 11
-831.24703457821875
 21
-199.30262135046749
 31
0.0
 12
-830.041129803731
 22
-199.80212346299069
 32
0.0
 13
-830.041129803731
 23
-199.80212346299069
 33
0.0
210
0.0
220
0.0
230
-1.0
  0
LINE
  5
11CB
  8
0
  6
CONTINUOUS
 10
828.74703457821852
 20
-189.97249433154539
 30
0.0
 11
827.45293935270593
 21
-190.14286520010009
 31
0.0
  0
LINE
  5
11CC
  8
0
  6
CONTINUOUS
 10
830.041129803731
 20
-190.14286520010009
 30
0.0
 11
828.74703457821852
 21
-189.97249433154539
 31
0.0
  0
LINE
  5
11CD
  8
0
  6
CONTINUOUS
 10
827.45293935270593
 20
-190.14286520010009
 30
0.0
 11
826.24703457821852
 21
-190.64236731262321
 31
0.0
  0
LINE
  5
11CE
  8
0
  6
CONTINUOUS
 10
830.041129803731
 20
-190.14286520010009
 30
0.0
 11
831.24703457821875
 21
-190.64236731262321
 31
0.0
  0
LINE
  5
11CF
  8
0
  6
CONTINUOUS
 10
826.24703457821852
 20
-190.64236731262321
 30
0.0
 11
825.21150067228564
 21
-191.43696042561271
 31
0.0
  0
LINE
  5
11D0
  8
0
  6
CONTINUOUS
 10
831.24703457821875
 20
-190.64236731262321
 30
0.0
 11
832.28256848415106
 21
-191.43696042561271
 31
0.0
  0
LINE
  5
11D1
  8
0
  6
CONTINUOUS
 10
825.21150067228564
 20
-191.43696042561271
 30
0.0
 11
824.41690755929642
 21
-192.47249433154539
 31
0.0
  0
LINE
  5
11D2
  8
0
  6
CONTINUOUS
 10
832.28256848415106
 20
-191.43696042561271
 30
0.0
 11
833.0771615971405
 21
-192.47249433154539
 31
0.0
  0
LINE
  5
11D3
  8
0
  6
CONTINUOUS
 10
824.41690755929642
 20
-192.47249433154539
 30
0.0
 11
823.91740544677305
 21
-193.6783991060328
 31
0.0
  0
LINE
  5
11D4
  8
0
  6
CONTINUOUS
 10
833.0771615971405
 20
-192.47249433154539
 30
0.0
 11
833.57666370966376
 21
-193.6783991060328
 31
0.0
  0
LINE
  5
11D5
  8
0
  6
CONTINUOUS
 10
823.91740544677305
 20
-193.6783991060328
 30
0.0
 11
823.74703457821852
 21
-194.9724943315457
 31
0.0
  0
LINE
  5
11D6
  8
0
  6
CONTINUOUS
 10
833.57666370966376
 20
-193.6783991060328
 30
0.0
 11
833.7470345782184
 21
-194.9724943315457
 31
0.0
  0
LINE
  5
11D7
  8
0
  6
CONTINUOUS
 10
823.74703457821852
 20
-194.9724943315457
 30
0.0
 11
823.91740544677305
 21
-196.2665895570579
 31
0.0
  0
LINE
  5
11D8
  8
0
  6
CONTINUOUS
 10
833.7470345782184
 20
-194.9724943315457
 30
0.0
 11
833.57666370966376
 21
-196.2665895570579
 31
0.0
  0
LINE
  5
11D9
  8
0
  6
CONTINUOUS
 10
823.91740544677305
 20
-196.2665895570579
 30
0.0
 11
824.41690755929642
 21
-197.47249433154531
 31
0.0
  0
LINE
  5
11DA
  8
0
  6
CONTINUOUS
 10
833.57666370966376
 20
-196.2665895570579
 30
0.0
 11
833.0771615971405
 21
-197.47249433154531
 31
0.0
  0
LINE
  5
11DB
  8
0
  6
CONTINUOUS
 10
824.41690755929642
 20
-197.47249433154531
 30
0.0
 11
825.21150067228564
 21
-198.5080282374781
 31
0.0
  0
LINE
  5
11DC
  8
0
  6
CONTINUOUS
 10
833.0771615971405
 20
-197.47249433154531
 30
0.0
 11
832.28256848415106
 21
-198.5080282374781
 31
0.0
  0
LINE
  5
11DD
  8
0
  6
CONTINUOUS
 10
825.21150067228564
 20
-198.5080282374781
 30
0.0
 11
826.24703457821852
 21
-199.30262135046749
 31
0.0
  0
LINE
  5
11DE
  8
0
  6
CONTINUOUS
 10
832.28256848415106
 20
-198.5080282374781
 30
0.0
 11
831.24703457821875
 21
-199.30262135046749
 31
0.0
  0
LINE
  5
11DF
  8
0
  6
CONTINUOUS
 10
830.041129803731
 20
-199.80212346299069
 30
0.0
 11
828.74703457821852
 21
-199.97249433154559
 31
0.0
  0
LINE
  5
11E0
  8
0
  6
CONTINUOUS
 10
828.74703457821852
 20
-199.97249433154559
 30
0.0
 11
827.45293935270593
 21
-199.80212346299069
 31
0.0
  0
LINE
  5
11E1
  8
0
  6
CONTINUOUS
 10
826.24703457821852
 20
-199.30262135046749
 30
0.0
 11
827.45293935270593
 21
-199.80212346299069
 31
0.0
  0
LINE
  5
11E2
  8
0
  6
CONTINUOUS
 10
831.24703457821875
 20
-199.30262135046749
 30
0.0
 11
830.041129803731
 21
-199.80212346299069
 31
0.0
  0
ENDBLK
  5
11E4
  8
0
  0
BLOCK
  8
0
  2
*U11
 70
     1
 10
0.0
 20
0.0
 30
0.0
  3
*U11
  1

  0
SOLID
  5
11E6
  8
0
  6
CONTINUOUS
 10
1129.919293548616
 20
354.3361656533865
 30
0.0
 11
1128.6251983231041
 21
354.16579478483169
 31
0.0
 12
1131.213388774129
 22
354.16579478483169
 32
0.0
 13
1131.213388774129
 23
354.16579478483169
 33
0.0
210
0.0
220
0.0
230
1.0
  0
SOLID
  5
11E7
  8
0
  6
CONTINUOUS
 10
1128.6251983231041
 20
354.16579478483169
 30
0.0
 11
1127.4192935486169
 21
353.66629267230849
 31
0.0
 12
1132.419293548616
 22
353.66629267230849
 32
0.0
 13
1132.419293548616
 23
353.66629267230849
 33
0.0
210
0.0
220
0.0
230
1.0
  0
SOLID
  5
11E8
  8
0
  6
CONTINUOUS
 10
-1128.6251983231041
 20
354.16579478483169
 30
0.0
 11
-1131.213388774129
 21
354.16579478483169
 31
0.0
 12
-1132.419293548616
 22
353.66629267230849
 32
0.0
 13
-1132.419293548616
 23
353.66629267230849
 33
0.0
210
0.0
220
0.0
230
-1.0
  0
SOLID
  5
11E9
  8
0
  6
CONTINUOUS
 10
1127.4192935486169
 20
353.66629267230849
 30
0.0
 11
1126.383759642684
 21
352.87169955931898
 31
0.0
 12
1133.4548274545491
 22
352.87169955931898
 32
0.0
 13
1133.4548274545491
 23
352.87169955931898
 33
0.0
210
0.0
220
0.0
230
1.0
  0
SOLID
  5
11EA
  8
0
  6
CONTINUOUS
 10
-1127.4192935486169
 20
353.66629267230849
 30
0.0
 11
-1132.419293548616
 21
353.66629267230849
 31
0.0
 12
-1133.4548274545491
 22
352.87169955931898
 32
0.0
 13
-1133.4548274545491
 23
352.87169955931898
 33
0.0
210
0.0
220
0.0
230
-1.0
  0
SOLID
  5
11EB
  8
0
  6
CONTINUOUS
 10
1126.383759642684
 20
352.87169955931898
 30
0.0
 11
1125.589166529694
 21
351.83616565338627
 31
0.0
 12
1134.249420567538
 22
351.83616565338627
 32
0.0
 13
1134.249420567538
 23
351.83616565338627
 33
0.0
210
0.0
220
0.0
230
1.0
  0
SOLID
  5
11EC
  8
0
  6
CONTINUOUS
 10
-1126.383759642684
 20
352.87169955931898
 30
0.0
 11
-1133.4548274545491
 21
352.87169955931898
 31
0.0
 12
-1134.249420567538
 22
351.83616565338627
 32
0.0
 13
-1134.249420567538
 23
351.83616565338627
 33
0.0
210
0.0
220
0.0
230
-1.0
  0
SOLID
  5
11ED
  8
0
  6
CONTINUOUS
 10
1125.589166529694
 20
351.83616565338627
 30
0.0
 11
1125.089664417171
 21
350.63026087889892
 31
0.0
 12
1134.7489226800619
 22
350.63026087889892
 32
0.0
 13
1134.7489226800619
 23
350.63026087889892
 33
0.0
210
0.0
220
0.0
230
1.0
  0
SOLID
  5
11EE
  8
0
  6
CONTINUOUS
 10
-1125.589166529694
 20
351.83616565338627
 30
0.0
 11
-1134.249420567538
 21
351.83616565338627
 31
0.0
 12
-1134.7489226800619
 22
350.63026087889892
 32
0.0
 13
-1134.7489226800619
 23
350.63026087889892
 33
0.0
210
0.0
220
0.0
230
-1.0
  0
SOLID
  5
11EF
  8
0
  6
CONTINUOUS
 10
1125.089664417171
 20
350.63026087889892
 30
0.0
 11
1124.919293548616
 21
349.33616565338622
 31
0.0
 12
1134.919293548616
 22
349.33616565338622
 32
0.0
 13
1134.919293548616
 23
349.33616565338622
 33
0.0
210
0.0
220
0.0
230
1.0
  0
SOLID
  5
11F0
  8
0
  6
CONTINUOUS
 10
-1125.089664417171
 20
350.63026087889892
 30
0.0
 11
-1134.7489226800619
 21
350.63026087889892
 31
0.0
 12
-1134.919293548616
 22
349.33616565338622
 32
0.0
 13
-1134.919293548616
 23
349.33616565338622
 33
0.0
210
0.0
220
0.0
230
-1.0
  0
SOLID
  5
11F1
  8
0
  6
CONTINUOUS
 10
1124.919293548616
 20
349.33616565338622
 30
0.0
 11
1125.089664417171
 21
348.04207042787363
 31
0.0
 12
1134.7489226800619
 22
348.04207042787363
 32
0.0
 13
1134.7489226800619
 23
348.04207042787363
 33
0.0
210
0.0
220
0.0
230
1.0
  0
SOLID
  5
11F2
  8
0
  6
CONTINUOUS
 10
-1124.919293548616
 20
349.33616565338622
 30
0.0
 11
-1134.919293548616
 21
349.33616565338622
 31
0.0
 12
-1134.7489226800619
 22
348.04207042787363
 32
0.0
 13
-1134.7489226800619
 23
348.04207042787363
 33
0.0
210
0.0
220
0.0
230
-1.0
  0
SOLID
  5
11F3
  8
0
  6
CONTINUOUS
 10
1125.089664417171
 20
348.04207042787363
 30
0.0
 11
1125.589166529694
 21
346.83616565338639
 31
0.0
 12
1134.249420567538
 22
346.83616565338639
 32
0.0
 13
1134.249420567538
 23
346.83616565338639
 33
0.0
210
0.0
220
0.0
230
1.0
  0
SOLID
  5
11F4
  8
0
  6
CONTINUOUS
 10
-1125.089664417171
 20
348.04207042787363
 30
0.0
 11
-1134.7489226800619
 21
348.04207042787363
 31
0.0
 12
-1134.249420567538
 22
346.83616565338639
 32
0.0
 13
-1134.249420567538
 23
346.83616565338639
 33
0.0
210
0.0
220
0.0
230
-1.0
  0
SOLID
  5
11F5
  8
0
  6
CONTINUOUS
 10
1125.589166529694
 20
346.83616565338639
 30
0.0
 11
1126.383759642684
 21
345.80063174745362
 31
0.0
 12
1133.4548274545491
 22
345.80063174745362
 32
0.0
 13
1133.4548274545491
 23
345.80063174745362
 33
0.0
210
0.0
220
0.0
230
1.0
  0
SOLID
  5
11F6
  8
0
  6
CONTINUOUS
 10
-1125.589166529694
 20
346.83616565338639
 30
0.0
 11
-1134.249420567538
 21
346.83616565338639
 31
0.0
 12
-1133.4548274545491
 22
345.80063174745362
 32
0.0
 13
-1133.4548274545491
 23
345.80063174745362
 33
0.0
210
0.0
220
0.0
230
-1.0
  0
SOLID
  5
11F7
  8
0
  6
CONTINUOUS
 10
1126.383759642684
 20
345.80063174745362
 30
0.0
 11
1127.4192935486169
 21
345.00603863446412
 31
0.0
 12
1132.419293548616
 22
345.00603863446412
 32
0.0
 13
1132.419293548616
 23
345.00603863446412
 33
0.0
210
0.0
220
0.0
230
1.0
  0
SOLID
  5
11F8
  8
0
  6
CONTINUOUS
 10
-1126.383759642684
 20
345.80063174745362
 30
0.0
 11
-1133.4548274545491
 21
345.80063174745362
 31
0.0
 12
-1132.419293548616
 22
345.00603863446412
 32
0.0
 13
-1132.419293548616
 23
345.00603863446412
 33
0.0
210
0.0
220
0.0
230
-1.0
  0
SOLID
  5
11F9
  8
0
  6
CONTINUOUS
 10
-1128.6251983231041
 20
344.50653652194092
 30
0.0
 11
-1131.213388774129
 21
344.50653652194092
 31
0.0
 12
-1129.919293548616
 22
344.33616565338639
 32
0.0
 13
-1129.919293548616
 23
344.33616565338639
 33
0.0
210
0.0
220
0.0
230
-1.0
  0
SOLID
  5
11FA
  8
0
  6
CONTINUOUS
 10
1127.4192935486169
 20
345.00603863446412
 30
0.0
 11
1128.6251983231041
 21
344.50653652194092
 31
0.0
 12
1131.213388774129
 22
344.50653652194092
 32
0.0
 13
1131.213388774129
 23
344.50653652194092
 33
0.0
210
0.0
220
0.0
230
1.0
  0
SOLID
  5
11FB
  8
0
  6
CONTINUOUS
 10
-1127.4192935486169
 20
345.00603863446412
 30
0.0
 11
-1132.419293548616
 21
345.00603863446412
 31
0.0
 12
-1131.213388774129
 22
344.50653652194092
 32
0.0
 13
-1131.213388774129
 23
344.50653652194092
 33
0.0
210
0.0
220
0.0
230
-1.0
  0
LINE
  5
11FC
  8
0
  6
CONTINUOUS
 10
1129.919293548616
 20
354.3361656533865
 30
0.0
 11
1128.6251983231041
 21
354.16579478483169
 31
0.0
  0
LINE
  5
11FD
  8
0
  6
CONTINUOUS
 10
1131.213388774129
 20
354.16579478483169
 30
0.0
 11
1129.919293548616
 21
354.3361656533865
 31
0.0
  0
LINE
  5
11FE
  8
0
  6
CONTINUOUS
 10
1128.6251983231041
 20
354.16579478483169
 30
0.0
 11
1127.4192935486169
 21
353.66629267230849
 31
0.0
  0
LINE
  5
11FF
  8
0
  6
CONTINUOUS
 10
1131.213388774129
 20
354.16579478483169
 30
0.0
 11
1132.419293548616
 21
353.66629267230849
 31
0.0
  0
LINE
  5
1200
  8
0
  6
CONTINUOUS
 10
1127.4192935486169
 20
353.66629267230849
 30
0.0
 11
1126.383759642684
 21
352.87169955931898
 31
0.0
  0
LINE
  5
1201
  8
0
  6
CONTINUOUS
 10
1132.419293548616
 20
353.66629267230849
 30
0.0
 11
1133.4548274545491
 21
352.87169955931898
 31
0.0
  0
LINE
  5
1202
  8
0
  6
CONTINUOUS
 10
1126.383759642684
 20
352.87169955931898
 30
0.0
 11
1125.589166529694
 21
351.83616565338627
 31
0.0
  0
LINE
  5
1203
  8
0
  6
CONTINUOUS
 10
1133.4548274545491
 20
352.87169955931898
 30
0.0
 11
1134.249420567538
 21
351.83616565338627
 31
0.0
  0
LINE
  5
1204
  8
0
  6
CONTINUOUS
 10
1125.589166529694
 20
351.83616565338627
 30
0.0
 11
1125.089664417171
 21
350.63026087889892
 31
0.0
  0
LINE
  5
1205
  8
0
  6
CONTINUOUS
 10
1134.249420567538
 20
351.83616565338627
 30
0.0
 11
1134.7489226800619
 21
350.63026087889892
 31
0.0
  0
LINE
  5
1206
  8
0
  6
CONTINUOUS
 10
1125.089664417171
 20
350.63026087889892
 30
0.0
 11
1124.919293548616
 21
349.33616565338622
 31
0.0
  0
LINE
  5
1207
  8
0
  6
CONTINUOUS
 10
1134.7489226800619
 20
350.63026087889892
 30
0.0
 11
1134.919293548616
 21
349.33616565338622
 31
0.0
  0
LINE
  5
1208
  8
0
  6
CONTINUOUS
 10
1124.919293548616
 20
349.33616565338622
 30
0.0
 11
1125.089664417171
 21
348.04207042787363
 31
0.0
  0
LINE
  5
1209
  8
0
  6
CONTINUOUS
 10
1134.919293548616
 20
349.33616565338622
 30
0.0
 11
1134.7489226800619
 21
348.04207042787363
 31
0.0
  0
LINE
  5
120A
  8
0
  6
CONTINUOUS
 10
1125.089664417171
 20
348.04207042787363
 30
0.0
 11
1125.589166529694
 21
346.83616565338639
 31
0.0
  0
LINE
  5
120B
  8
0
  6
CONTINUOUS
 10
1134.7489226800619
 20
348.04207042787363
 30
0.0
 11
1134.249420567538
 21
346.83616565338639
 31
0.0
  0
LINE
  5
120C
  8
0
  6
CONTINUOUS
 10
1125.589166529694
 20
346.83616565338639
 30
0.0
 11
1126.383759642684
 21
345.80063174745362
 31
0.0
  0
LINE
  5
120D
  8
0
  6
CONTINUOUS
 10
1134.249420567538
 20
346.83616565338639
 30
0.0
 11
1133.4548274545491
 21
345.80063174745362
 31
0.0
  0
LINE
  5
120E
  8
0
  6
CONTINUOUS
 10
1126.383759642684
 20
345.80063174745362
 30
0.0
 11
1127.4192935486169
 21
345.00603863446412
 31
0.0
  0
LINE
  5
120F
  8
0
  6
CONTINUOUS
 10
1133.4548274545491
 20
345.80063174745362
 30
0.0
 11
1132.419293548616
 21
345.00603863446412
 31
0.0
  0
LINE
  5
1210
  8
0
  6
CONTINUOUS
 10
1131.213388774129
 20
344.50653652194092
 30
0.0
 11
1129.919293548616
 21
344.33616565338639
 31
0.0
  0
LINE
  5
1211
  8
0
  6
CONTINUOUS
 10
1129.919293548616
 20
344.33616565338639
 30
0.0
 11
1128.6251983231041
 21
344.50653652194092
 31
0.0
  0
LINE
  5
1212
  8
0
  6
CONTINUOUS
 10
1127.4192935486169
 20
345.00603863446412
 30
0.0
 11
1128.6251983231041
 21
344.50653652194092
 31
0.0
  0
LINE
  5
1213
  8
0
  6
CONTINUOUS
 10
1132.419293548616
 20
345.00603863446412
 30
0.0
 11
1131.213388774129
 21
344.50653652194092
 31
0.0
  0
ENDBLK
  5
1215
  8
0
  0
BLOCK
  8
0
  2
*U12
 70
     1
 10
0.0
 20
0.0
 30
0.0
  3
*U12
  1

  0
SOLID
  5
1217
  8
0
  6
CONTINUOUS
 10
905.10762165497158
 20
887.33232054309076
 30
0.0
 11
903.81352642945933
 21
887.16194967453623
 31
0.0
 12
906.40171688048451
 22
887.16194967453623
 32
0.0
 13
906.40171688048451
 23
887.16194967453623
 33
0.0
210
0.0
220
0.0
230
1.0
  0
SOLID
  5
1218
  8
0
  6
CONTINUOUS
 10
903.81352642945933
 20
887.16194967453623
 30
0.0
 11
902.60762165497204
 21
886.66244756201286
 31
0.0
 12
907.60762165497192
 22
886.66244756201286
 32
0.0
 13
907.60762165497192
 23
886.66244756201286
 33
0.0
210
0.0
220
0.0
230
1.0
  0
SOLID
  5
1219
  8
0
  6
CONTINUOUS
 10
-903.81352642945933
 20
887.16194967453623
 30
0.0
 11
-906.40171688048451
 21
887.16194967453623
 31
0.0
 12
-907.60762165497192
 22
886.66244756201286
 32
0.0
 13
-907.60762165497192
 23
886.66244756201286
 33
0.0
210
0.0
220
0.0
230
-1.0
  0
SOLID
  5
121A
  8
0
  6
CONTINUOUS
 10
902.60762165497204
 20
886.66244756201286
 30
0.0
 11
901.57208774903927
 21
885.86785444902375
 31
0.0
 12
908.64315556090457
 22
885.86785444902375
 32
0.0
 13
908.64315556090457
 23
885.86785444902375
 33
0.0
210
0.0
220
0.0
230
1.0
  0
SOLID
  5
121B
  8
0
  6
CONTINUOUS
 10
-902.60762165497204
 20
886.66244756201286
 30
0.0
 11
-907.60762165497192
 21
886.66244756201286
 31
0.0
 12
-908.64315556090457
 22
885.86785444902375
 32
0.0
 13
-908.64315556090457
 23
885.86785444902375
 33
0.0
210
0.0
220
0.0
230
-1.0
  0
SOLID
  5
121C
  8
0
  6
CONTINUOUS
 10
901.57208774903927
 20
885.86785444902375
 30
0.0
 11
900.77749463604982
 21
884.83232054309076
 31
0.0
 12
909.43774867389402
 22
884.83232054309076
 32
0.0
 13
909.43774867389402
 23
884.83232054309076
 33
0.0
210
0.0
220
0.0
230
1.0
  0
SOLID
  5
121D
  8
0
  6
CONTINUOUS
 10
-901.57208774903927
 20
885.86785444902375
 30
0.0
 11
-908.64315556090457
 21
885.86785444902375
 31
0.0
 12
-909.43774867389402
 22
884.83232054309076
 32
0.0
 13
-909.43774867389402
 23
884.83232054309076
 33
0.0
210
0.0
220
0.0
230
-1.0
  0
SOLID
  5
121E
  8
0
  6
CONTINUOUS
 10
900.77749463604982
 20
884.83232054309076
 30
0.0
 11
900.27799252352656
 21
883.62641576860335
 31
0.0
 12
909.93725078641717
 22
883.62641576860335
 32
0.0
 13
909.93725078641717
 23
883.62641576860335
 33
0.0
210
0.0
220
0.0
230
1.0
  0
SOLID
  5
121F
  8
0
  6
CONTINUOUS
 10
-900.77749463604982
 20
884.83232054309076
 30
0.0
 11
-909.43774867389402
 21
884.83232054309076
 31
0.0
 12
-909.93725078641717
 22
883.62641576860335
 32
0.0
 13
-909.93725078641717
 23
883.62641576860335
 33
0.0
210
0.0
220
0.0
230
-1.0
  0
SOLID
  5
1220
  8
0
  6
CONTINUOUS
 10
900.27799252352656
 20
883.62641576860335
 30
0.0
 11
900.10762165497192
 21
882.33232054309087
 31
0.0
 12
910.10762165497192
 22
882.33232054309087
 32
0.0
 13
910.10762165497192
 23
882.33232054309087
 33
0.0
210
0.0
220
0.0
230
1.0
  0
SOLID
  5
1221
  8
0
  6
CONTINUOUS
 10
-900.27799252352656
 20
883.62641576860335
 30
0.0
 11
-909.93725078641717
 21
883.62641576860335
 31
0.0
 12
-910.10762165497192
 22
882.33232054309087
 32
0.0
 13
-910.10762165497192
 23
882.33232054309087
 33
0.0
210
0.0
220
0.0
230
-1.0
  0
SOLID
  5
1222
  8
0
  6
CONTINUOUS
 10
900.10762165497192
 20
882.33232054309087
 30
0.0
 11
900.27799252352656
 21
881.03822531757839
 31
0.0
 12
909.93725078641717
 22
881.03822531757839
 32
0.0
 13
909.93725078641717
 23
881.03822531757839
 33
0.0
210
0.0
220
0.0
230
1.0
  0
SOLID
  5
1223
  8
0
  6
CONTINUOUS
 10
-900.10762165497192
 20
882.33232054309087
 30
0.0
 11
-910.10762165497192
 21
882.33232054309087
 31
0.0
 12
-909.93725078641717
 22
881.03822531757839
 32
0.0
 13
-909.93725078641717
 23
881.03822531757839
 33
0.0
210
0.0
220
0.0
230
-1.0
  0
SOLID
  5
1224
  8
0
  6
CONTINUOUS
 10
900.27799252352656
 20
881.03822531757839
 30
0.0
 11
900.77749463604982
 21
879.83232054309087
 31
0.0
 12
909.43774867389402
 22
879.83232054309087
 32
0.0
 13
909.43774867389402
 23
879.83232054309087
 33
0.0
210
0.0
220
0.0
230
1.0
  0
SOLID
  5
1225
  8
0
  6
CONTINUOUS
 10
-900.27799252352656
 20
881.03822531757839
 30
0.0
 11
-909.93725078641717
 21
881.03822531757839
 31
0.0
 12
-909.43774867389402
 22
879.83232054309087
 32
0.0
 13
-909.43774867389402
 23
879.83232054309087
 33
0.0
210
0.0
220
0.0
230
-1.0
  0
SOLID
  5
1226
  8
0
  6
CONTINUOUS
 10
900.77749463604982
 20
879.83232054309087
 30
0.0
 11
901.57208774903927
 21
878.79678663715799
 31
0.0
 12
908.64315556090457
 22
878.79678663715799
 32
0.0
 13
908.64315556090457
 23
878.79678663715799
 33
0.0
210
0.0
220
0.0
230
1.0
  0
SOLID
  5
1227
  8
0
  6
CONTINUOUS
 10
-900.77749463604982
 20
879.83232054309087
 30
0.0
 11
-909.43774867389402
 21
879.83232054309087
 31
0.0
 12
-908.64315556090457
 22
878.79678663715799
 32
0.0
 13
-908.64315556090457
 23
878.79678663715799
 33
0.0
210
0.0
220
0.0
230
-1.0
  0
SOLID
  5
1228
  8
0
  6
CONTINUOUS
 10
901.57208774903927
 20
878.79678663715799
 30
0.0
 11
902.60762165497204
 21
878.00219352416877
 31
0.0
 12
907.60762165497192
 22
878.00219352416877
 32
0.0
 13
907.60762165497192
 23
878.00219352416877
 33
0.0
210
0.0
220
0.0
230
1.0
  0
SOLID
  5
1229
  8
0
  6
CONTINUOUS
 10
-901.57208774903927
 20
878.79678663715799
 30
0.0
 11
-908.64315556090457
 21
878.79678663715799
 31
0.0
 12
-907.60762165497192
 22
878.00219352416877
 32
0.0
 13
-907.60762165497192
 23
878.00219352416877
 33
0.0
210
0.0
220
0.0
230
-1.0
  0
SOLID
  5
122A
  8
0
  6
CONTINUOUS
 10
-903.81352642945933
 20
877.50269141164551
 30
0.0
 11
-906.40171688048451
 21
877.50269141164551
 31
0.0
 12
-905.10762165497158
 22
877.33232054309099
 32
0.0
 13
-905.10762165497158
 23
877.33232054309099
 33
0.0
210
0.0
220
0.0
230
-1.0
  0
SOLID
  5
122B
  8
0
  6
CONTINUOUS
 10
902.60762165497204
 20
878.00219352416877
 30
0.0
 11
903.81352642945933
 21
877.50269141164551
 31
0.0
 12
906.40171688048451
 22
877.50269141164551
 32
0.0
 13
906.40171688048451
 23
877.50269141164551
 33
0.0
210
0.0
220
0.0
230
1.0
  0
SOLID
  5
122C
  8
0
  6
CONTINUOUS
 10
-902.60762165497204
 20
878.00219352416877
 30
0.0
 11
-907.60762165497192
 21
878.00219352416877
 31
0.0
 12
-906.40171688048451
 22
877.50269141164551
 32
0.0
 13
-906.40171688048451
 23
877.50269141164551
 33
0.0
210
0.0
220
0.0
230
-1.0
  0
LINE
  5
122D
  8
0
  6
CONTINUOUS
 10
905.10762165497158
 20
887.33232054309076
 30
0.0
 11
903.81352642945933
 21
887.16194967453623
 31
0.0
  0
LINE
  5
122E
  8
0
  6
CONTINUOUS
 10
906.40171688048451
 20
887.16194967453623
 30
0.0
 11
905.10762165497158
 21
887.33232054309076
 31
0.0
  0
LINE
  5
122F
  8
0
  6
CONTINUOUS
 10
903.81352642945933
 20
887.16194967453623
 30
0.0
 11
902.60762165497204
 21
886.66244756201286
 31
0.0
  0
LINE
  5
1230
  8
0
  6
CONTINUOUS
 10
906.40171688048451
 20
887.16194967453623
 30
0.0
 11
907.60762165497192
 21
886.66244756201286
 31
0.0
  0
LINE
  5
1231
  8
0
  6
CONTINUOUS
 10
902.60762165497204
 20
886.66244756201286
 30
0.0
 11
901.57208774903927
 21
885.86785444902375
 31
0.0
  0
LINE
  5
1232
  8
0
  6
CONTINUOUS
 10
907.60762165497192
 20
886.66244756201286
 30
0.0
 11
908.64315556090457
 21
885.86785444902375
 31
0.0
  0
LINE
  5
1233
  8
0
  6
CONTINUOUS
 10
901.57208774903927
 20
885.86785444902375
 30
0.0
 11
900.77749463604982
 21
884.83232054309076
 31
0.0
  0
LINE
  5
1234
  8
0
  6
CONTINUOUS
 10
908.64315556090457
 20
885.86785444902375
 30
0.0
 11
909.43774867389402
 21
884.83232054309076
 31
0.0
  0
LINE
  5
1235
  8
0
  6
CONTINUOUS
 10
900.77749463604982
 20
884.83232054309076
 30
0.0
 11
900.27799252352656
 21
883.62641576860335
 31
0.0
  0
LINE
  5
1236
  8
0
  6
CONTINUOUS
 10
909.43774867389402
 20
884.83232054309076
 30
0.0
 11
909.93725078641717
 21
883.62641576860335
 31
0.0
  0
LINE
  5
1237
  8
0
  6
CONTINUOUS
 10
900.27799252352656
 20
883.62641576860335
 30
0.0
 11
900.10762165497192
 21
882.33232054309087
 31
0.0
  0
LINE
  5
1238
  8
0
  6
CONTINUOUS
 10
909.93725078641717
 20
883.62641576860335
 30
0.0
 11
910.10762165497192
 21
882.33232054309087
 31
0.0
  0
LINE
  5
1239
  8
0
  6
CONTINUOUS
 10
900.10762165497192
 20
882.33232054309087
 30
0.0
 11
900.27799252352656
 21
881.03822531757839
 31
0.0
  0
LINE
  5
123A
  8
0
  6
CONTINUOUS
 10
910.10762165497192
 20
882.33232054309087
 30
0.0
 11
909.93725078641717
 21
881.03822531757839
 31
0.0
  0
LINE
  5
123B
  8
0
  6
CONTINUOUS
 10
900.27799252352656
 20
881.03822531757839
 30
0.0
 11
900.77749463604982
 21
879.83232054309087
 31
0.0
  0
LINE
  5
123C
  8
0
  6
CONTINUOUS
 10
909.93725078641717
 20
881.03822531757839
 30
0.0
 11
909.43774867389402
 21
879.83232054309087
 31
0.0
  0
LINE
  5
123D
  8
0
  6
CONTINUOUS
 10
900.77749463604982
 20
879.83232054309087
 30
0.0
 11
901.57208774903927
 21
878.79678663715799
 31
0.0
  0
LINE
  5
123E
  8
0
  6
CONTINUOUS
 10
909.43774867389402
 20
879.83232054309087
 30
0.0
 11
908.64315556090457
 21
878.79678663715799
 31
0.0
  0
LINE
  5
123F
  8
0
  6
CONTINUOUS
 10
901.57208774903927
 20
878.79678663715799
 30
0.0
 11
902.60762165497204
 21
878.00219352416877
 31
0.0
  0
LINE
  5
1240
  8
0
  6
CONTINUOUS
 10
908.64315556090457
 20
878.79678663715799
 30
0.0
 11
907.60762165497192
 21
878.00219352416877
 31
0.0
  0
LINE
  5
1241
  8
0
  6
CONTINUOUS
 10
906.40171688048451
 20
877.50269141164551
 30
0.0
 11
905.10762165497158
 21
877.33232054309099
 31
0.0
  0
LINE
  5
1242
  8
0
  6
CONTINUOUS
 10
905.10762165497158
 20
877.33232054309099
 30
0.0
 11
903.81352642945933
 21
877.50269141164551
 31
0.0
  0
LINE
  5
1243
  8
0
  6
CONTINUOUS
 10
902.60762165497204
 20
878.00219352416877
 30
0.0
 11
903.81352642945933
 21
877.50269141164551
 31
0.0
  0
LINE
  5
1244
  8
0
  6
CONTINUOUS
 10
907.60762165497192
 20
878.00219352416877
 30
0.0
 11
906.40171688048451
 21
877.50269141164551
 31
0.0
  0
ENDBLK
  5
1246
  8
0
  0
BLOCK
  8
0
  2
*U13
 70
     1
 10
0.0
 20
0.0
 30
0.0
  3
*U13
  1

  0
SOLID
  5
1248
  8
0
  6
CONTINUOUS
 10
1038.0492577123509
 20
808.55492026244337
 30
0.0
 11
1036.755162486839
 21
808.38454939388885
 31
0.0
 12
1039.343352937864
 22
808.38454939388885
 32
0.0
 13
1039.343352937864
 23
808.38454939388885
 33
0.0
210
0.0
220
0.0
230
1.0
  0
SOLID
  5
1249
  8
0
  6
CONTINUOUS
 10
1036.755162486839
 20
808.38454939388885
 30
0.0
 11
1035.5492577123509
 21
807.8850472813657
 31
0.0
 12
1040.5492577123509
 22
807.8850472813657
 32
0.0
 13
1040.5492577123509
 23
807.8850472813657
 33
0.0
210
0.0
220
0.0
230
1.0
  0
SOLID
  5
124A
  8
0
  6
CONTINUOUS
 10
-1036.755162486839
 20
808.38454939388885
 30
0.0
 11
-1039.343352937864
 21
808.38454939388885
 31
0.0
 12
-1040.5492577123509
 22
807.8850472813657
 32
0.0
 13
-1040.5492577123509
 23
807.8850472813657
 33
0.0
210
0.0
220
0.0
230
-1.0
  0
SOLID
  5
124B
  8
0
  6
CONTINUOUS
 10
1035.5492577123509
 20
807.8850472813657
 30
0.0
 11
1034.513723806419
 21
807.09045416837625
 31
0.0
 12
1041.584791618284
 22
807.09045416837625
 32
0.0
 13
1041.584791618284
 23
807.09045416837625
 33
0.0
210
0.0
220
0.0
230
1.0
  0
SOLID
  5
124C
  8
0
  6
CONTINUOUS
 10
-1035.5492577123509
 20
807.8850472813657
 30
0.0
 11
-1040.5492577123509
 21
807.8850472813657
 31
0.0
 12
-1041.584791618284
 22
807.09045416837625
 32
0.0
 13
-1041.584791618284
 23
807.09045416837625
 33
0.0
210
0.0
220
0.0
230
-1.0
  0
SOLID
  5
124D
  8
0
  6
CONTINUOUS
 10
1034.513723806419
 20
807.09045416837625
 30
0.0
 11
1033.719130693429
 21
806.05492026244337
 31
0.0
 12
1042.3793847312729
 22
806.05492026244337
 32
0.0
 13
1042.3793847312729
 23
806.05492026244337
 33
0.0
210
0.0
220
0.0
230
1.0
  0
SOLID
  5
124E
  8
0
  6
CONTINUOUS
 10
-1034.513723806419
 20
807.09045416837625
 30
0.0
 11
-1041.584791618284
 21
807.09045416837625
 31
0.0
 12
-1042.3793847312729
 22
806.05492026244337
 32
0.0
 13
-1042.3793847312729
 23
806.05492026244337
 33
0.0
210
0.0
220
0.0
230
-1.0
  0
SOLID
  5
124F
  8
0
  6
CONTINUOUS
 10
1033.719130693429
 20
806.05492026244337
 30
0.0
 11
1033.2196285809059
 21
804.84901548795597
 31
0.0
 12
1042.8788868437971
 22
804.84901548795597
 32
0.0
 13
1042.8788868437971
 23
804.84901548795597
 33
0.0
210
0.0
220
0.0
230
1.0
  0
SOLID
  5
1250
  8
0
  6
CONTINUOUS
 10
-1033.719130693429
 20
806.05492026244337
 30
0.0
 11
-1042.3793847312729
 21
806.05492026244337
 31
0.0
 12
-1042.8788868437971
 22
804.84901548795597
 32
0.0
 13
-1042.8788868437971
 23
804.84901548795597
 33
0.0
210
0.0
220
0.0
230
-1.0
  0
SOLID
  5
1251
  8
0
  6
CONTINUOUS
 10
1033.2196285809059
 20
804.84901548795597
 30
0.0
 11
1033.0492577123521
 21
803.55492026244337
 31
0.0
 12
1043.0492577123509
 22
803.55492026244337
 32
0.0
 13
1043.0492577123509
 23
803.55492026244337
 33
0.0
210
0.0
220
0.0
230
1.0
  0
SOLID
  5
1252
  8
0
  6
CONTINUOUS
 10
-1033.2196285809059
 20
804.84901548795597
 30
0.0
 11
-1042.8788868437971
 21
804.84901548795597
 31
0.0
 12
-1043.0492577123509
 22
803.55492026244337
 32
0.0
 13
-1043.0492577123509
 23
803.55492026244337
 33
0.0
210
0.0
220
0.0
230
-1.0
  0
SOLID
  5
1253
  8
0
  6
CONTINUOUS
 10
1033.0492577123521
 20
803.55492026244337
 30
0.0
 11
1033.2196285809059
 21
802.26082503693112
 31
0.0
 12
1042.8788868437971
 22
802.26082503693112
 32
0.0
 13
1042.8788868437971
 23
802.26082503693112
 33
0.0
210
0.0
220
0.0
230
1.0
  0
SOLID
  5
1254
  8
0
  6
CONTINUOUS
 10
-1033.0492577123521
 20
803.55492026244337
 30
0.0
 11
-1043.0492577123509
 21
803.55492026244337
 31
0.0
 12
-1042.8788868437971
 22
802.26082503693112
 32
0.0
 13
-1042.8788868437971
 23
802.26082503693112
 33
0.0
210
0.0
220
0.0
230
-1.0
  0
SOLID
  5
1255
  8
0
  6
CONTINUOUS
 10
1033.2196285809059
 20
802.26082503693112
 30
0.0
 11
1033.719130693429
 21
801.05492026244349
 31
0.0
 12
1042.3793847312729
 22
801.05492026244349
 32
0.0
 13
1042.3793847312729
 23
801.05492026244349
 33
0.0
210
0.0
220
0.0
230
1.0
  0
SOLID
  5
1256
  8
0
  6
CONTINUOUS
 10
-1033.2196285809059
 20
802.26082503693112
 30
0.0
 11
-1042.8788868437971
 21
802.26082503693112
 31
0.0
 12
-1042.3793847312729
 22
801.05492026244349
 32
0.0
 13
-1042.3793847312729
 23
801.05492026244349
 33
0.0
210
0.0
220
0.0
230
-1.0
  0
SOLID
  5
1257
  8
0
  6
CONTINUOUS
 10
1033.719130693429
 20
801.05492026244349
 30
0.0
 11
1034.513723806419
 21
800.01938635651084
 31
0.0
 12
1041.584791618284
 22
800.01938635651084
 32
0.0
 13
1041.584791618284
 23
800.01938635651084
 33
0.0
210
0.0
220
0.0
230
1.0
  0
SOLID
  5
1258
  8
0
  6
CONTINUOUS
 10
-1033.719130693429
 20
801.05492026244349
 30
0.0
 11
-1042.3793847312729
 21
801.05492026244349
 31
0.0
 12
-1041.584791618284
 22
800.01938635651084
 32
0.0
 13
-1041.584791618284
 23
800.01938635651084
 33
0.0
210
0.0
220
0.0
230
-1.0
  0
SOLID
  5
1259
  8
0
  6
CONTINUOUS
 10
1034.513723806419
 20
800.01938635651084
 30
0.0
 11
1035.5492577123509
 21
799.22479324352139
 31
0.0
 12
1040.5492577123509
 22
799.22479324352139
 32
0.0
 13
1040.5492577123509
 23
799.22479324352139
 33
0.0
210
0.0
220
0.0
230
1.0
  0
SOLID
  5
125A
  8
0
  6
CONTINUOUS
 10
-1034.513723806419
 20
800.01938635651084
 30
0.0
 11
-1041.584791618284
 21
800.01938635651084
 31
0.0
 12
-1040.5492577123509
 22
799.22479324352139
 32
0.0
 13
-1040.5492577123509
 23
799.22479324352139
 33
0.0
210
0.0
220
0.0
230
-1.0
  0
SOLID
  5
125B
  8
0
  6
CONTINUOUS
 10
-1036.755162486839
 20
798.72529113099824
 30
0.0
 11
-1039.343352937864
 21
798.72529113099824
 31
0.0
 12
-1038.0492577123509
 22
798.5549202624436
 32
0.0
 13
-1038.0492577123509
 23
798.5549202624436
 33
0.0
210
0.0
220
0.0
230
-1.0
  0
SOLID
  5
125C
  8
0
  6
CONTINUOUS
 10
1035.5492577123509
 20
799.22479324352139
 30
0.0
 11
1036.755162486839
 21
798.72529113099824
 31
0.0
 12
1039.343352937864
 22
798.72529113099824
 32
0.0
 13
1039.343352937864
 23
798.72529113099824
 33
0.0
210
0.0
220
0.0
230
1.0
  0
SOLID
  5
125D
  8
0
  6
CONTINUOUS
 10
-1035.5492577123509
 20
799.22479324352139
 30
0.0
 11
-1040.5492577123509
 21
799.22479324352139
 31
0.0
 12
-1039.343352937864
 22
798.72529113099824
 32
0.0
 13
-1039.343352937864
 23
798.72529113099824
 33
0.0
210
0.0
220
0.0
230
-1.0
  0
LINE
  5
125E
  8
0
  6
CONTINUOUS
 10
1038.0492577123509
 20
808.55492026244337
 30
0.0
 11
1036.755162486839
 21
808.38454939388885
 31
0.0
  0
LINE
  5
125F
  8
0
  6
CONTINUOUS
 10
1039.343352937864
 20
808.38454939388885
 30
0.0
 11
1038.0492577123509
 21
808.55492026244337
 31
0.0
  0
LINE
  5
1260
  8
0
  6
CONTINUOUS
 10
1036.755162486839
 20
808.38454939388885
 30
0.0
 11
1035.5492577123509
 21
807.8850472813657
 31
0.0
  0
LINE
  5
1261
  8
0
  6
CONTINUOUS
 10
1039.343352937864
 20
808.38454939388885
 30
0.0
 11
1040.5492577123509
 21
807.8850472813657
 31
0.0
  0
LINE
  5
1262
  8
0
  6
CONTINUOUS
 10
1035.5492577123509
 20
807.8850472813657
 30
0.0
 11
1034.513723806419
 21
807.09045416837625
 31
0.0
  0
LINE
  5
1263
  8
0
  6
CONTINUOUS
 10
1040.5492577123509
 20
807.8850472813657
 30
0.0
 11
1041.584791618284
 21
807.09045416837625
 31
0.0
  0
LINE
  5
1264
  8
0
  6
CONTINUOUS
 10
1034.513723806419
 20
807.09045416837625
 30
0.0
 11
1033.719130693429
 21
806.05492026244337
 31
0.0
  0
LINE
  5
1265
  8
0
  6
CONTINUOUS
 10
1041.584791618284
 20
807.09045416837625
 30
0.0
 11
1042.3793847312729
 21
806.05492026244337
 31
0.0
  0
LINE
  5
1266
  8
0
  6
CONTINUOUS
 10
1033.719130693429
 20
806.05492026244337
 30
0.0
 11
1033.2196285809059
 21
804.84901548795597
 31
0.0
  0
LINE
  5
1267
  8
0
  6
CONTINUOUS
 10
1042.3793847312729
 20
806.05492026244337
 30
0.0
 11
1042.8788868437971
 21
804.84901548795597
 31
0.0
  0
LINE
  5
1268
  8
0
  6
CONTINUOUS
 10
1033.2196285809059
 20
804.84901548795597
 30
0.0
 11
1033.0492577123521
 21
803.55492026244337
 31
0.0
  0
LINE
  5
1269
  8
0
  6
CONTINUOUS
 10
1042.8788868437971
 20
804.84901548795597
 30
0.0
 11
1043.0492577123509
 21
803.55492026244337
 31
0.0
  0
LINE
  5
126A
  8
0
  6
CONTINUOUS
 10
1033.0492577123521
 20
803.55492026244337
 30
0.0
 11
1033.2196285809059
 21
802.26082503693112
 31
0.0
  0
LINE
  5
126B
  8
0
  6
CONTINUOUS
 10
1043.0492577123509
 20
803.55492026244337
 30
0.0
 11
1042.8788868437971
 21
802.26082503693112
 31
0.0
  0
LINE
  5
126C
  8
0
  6
CONTINUOUS
 10
1033.2196285809059
 20
802.26082503693112
 30
0.0
 11
1033.719130693429
 21
801.05492026244349
 31
0.0
  0
LINE
  5
126D
  8
0
  6
CONTINUOUS
 10
1042.8788868437971
 20
802.26082503693112
 30
0.0
 11
1042.3793847312729
 21
801.05492026244349
 31
0.0
  0
LINE
  5
126E
  8
0
  6
CONTINUOUS
 10
1033.719130693429
 20
801.05492026244349
 30
0.0
 11
1034.513723806419
 21
800.01938635651084
 31
0.0
  0
LINE
  5
126F
  8
0
  6
CONTINUOUS
 10
1042.3793847312729
 20
801.05492026244349
 30
0.0
 11
1041.584791618284
 21
800.01938635651084
 31
0.0
  0
LINE
  5
1270
  8
0
  6
CONTINUOUS
 10
1034.513723806419
 20
800.01938635651084
 30
0.0
 11
1035.5492577123509
 21
799.22479324352139
 31
0.0
  0
LINE
  5
1271
  8
0
  6
CONTINUOUS
 10
1041.584791618284
 20
800.01938635651084
 30
0.0
 11
1040.5492577123509
 21
799.22479324352139
 31
0.0
  0
LINE
  5
1272
  8
0
  6
CONTINUOUS
 10
1039.343352937864
 20
798.72529113099824
 30
0.0
 11
1038.0492577123509
 21
798.5549202624436
 31
0.0
  0
LINE
  5
1273
  8
0
  6
CONTINUOUS
 10
1038.0492577123509
 20
798.5549202624436
 30
0.0
 11
1036.755162486839
 21
798.72529113099824
 31
0.0
  0
LINE
  5
1274
  8
0
  6
CONTINUOUS
 10
1035.5492577123509
 20
799.22479324352139
 30
0.0
 11
1036.755162486839
 21
798.72529113099824
 31
0.0
  0
LINE
  5
1275
  8
0
  6
CONTINUOUS
 10
1040.5492577123509
 20
799.22479324352139
 30
0.0
 11
1039.343352937864
 21
798.72529113099824
 31
0.0
  0
ENDBLK
  5
1277
  8
0
  0
BLOCK
  8
0
  2
*U14
 70
     1
 10
0.0
 20
0.0
 30
0.0
  3
*U14
  1

  0
SOLID
  5
1279
  8
0
  6
CONTINUOUS
 10
289.49191099092769
 20
279.10260253700261
 30
0.0
 11
288.1978157654151
 21
278.93223166844791
 31
0.0
 12
290.78600621644023
 22
278.93223166844791
 32
0.0
 13
290.78600621644023
 23
278.93223166844791
 33
0.0
210
0.0
220
0.0
230
1.0
  0
SOLID
  5
127A
  8
0
  6
CONTINUOUS
 10
288.1978157654151
 20
278.93223166844791
 30
0.0
 11
286.99191099092769
 21
278.43272955592471
 31
0.0
 12
291.99191099092758
 22
278.43272955592471
 32
0.0
 13
291.99191099092758
 23
278.43272955592471
 33
0.0
210
0.0
220
0.0
230
1.0
  0
SOLID
  5
127B
  8
0
  6
CONTINUOUS
 10
-288.1978157654151
 20
278.93223166844791
 30
0.0
 11
-290.78600621644023
 21
278.93223166844791
 31
0.0
 12
-291.99191099092758
 22
278.43272955592471
 32
0.0
 13
-291.99191099092758
 23
278.43272955592471
 33
0.0
210
0.0
220
0.0
230
-1.0
  0
SOLID
  5
127C
  8
0
  6
CONTINUOUS
 10
286.99191099092769
 20
278.43272955592471
 30
0.0
 11
285.95637708499481
 21
277.63813644293532
 31
0.0
 12
293.02744489686029
 22
277.63813644293532
 32
0.0
 13
293.02744489686029
 23
277.63813644293532
 33
0.0
210
0.0
220
0.0
230
1.0
  0
SOLID
  5
127D
  8
0
  6
CONTINUOUS
 10
-286.99191099092769
 20
278.43272955592471
 30
0.0
 11
-291.99191099092758
 21
278.43272955592471
 31
0.0
 12
-293.02744489686029
 22
277.63813644293532
 32
0.0
 13
-293.02744489686029
 23
277.63813644293532
 33
0.0
210
0.0
220
0.0
230
-1.0
  0
SOLID
  5
127E
  8
0
  6
CONTINUOUS
 10
285.95637708499481
 20
277.63813644293532
 30
0.0
 11
285.16178397200542
 21
276.60260253700261
 31
0.0
 12
293.82203800984979
 22
276.60260253700261
 32
0.0
 13
293.82203800984979
 23
276.60260253700261
 33
0.0
210
0.0
220
0.0
230
1.0
  0
SOLID
  5
127F
  8
0
  6
CONTINUOUS
 10
-285.95637708499481
 20
277.63813644293532
 30
0.0
 11
-293.02744489686029
 21
277.63813644293532
 31
0.0
 12
-293.82203800984979
 22
276.60260253700261
 32
0.0
 13
-293.82203800984979
 23
276.60260253700261
 33
0.0
210
0.0
220
0.0
230
-1.0
  0
SOLID
  5
1280
  8
0
  6
CONTINUOUS
 10
285.16178397200542
 20
276.60260253700261
 30
0.0
 11
284.66228185948228
 21
275.3966977625152
 31
0.0
 12
294.32154012237288
 22
275.3966977625152
 32
0.0
 13
294.32154012237288
 23
275.3966977625152
 33
0.0
210
0.0
220
0.0
230
1.0
  0
SOLID
  5
1281
  8
0
  6
CONTINUOUS
 10
-285.16178397200542
 20
276.60260253700261
 30
0.0
 11
-293.82203800984979
 21
276.60260253700261
 31
0.0
 12
-294.32154012237288
 22
275.3966977625152
 32
0.0
 13
-294.32154012237288
 23
275.3966977625152
 33
0.0
210
0.0
220
0.0
230
-1.0
  0
SOLID
  5
1282
  8
0
  6
CONTINUOUS
 10
284.66228185948228
 20
275.3966977625152
 30
0.0
 11
284.49191099092781
 21
274.10260253700233
 31
0.0
 12
294.49191099092752
 22
274.10260253700233
 32
0.0
 13
294.49191099092752
 23
274.10260253700233
 33
0.0
210
0.0
220
0.0
230
1.0
  0
SOLID
  5
1283
  8
0
  6
CONTINUOUS
 10
-284.66228185948228
 20
275.3966977625152
 30
0.0
 11
-294.32154012237288
 21
275.3966977625152
 31
0.0
 12
-294.49191099092752
 22
274.10260253700233
 32
0.0
 13
-294.49191099092752
 23
274.10260253700233
 33
0.0
210
0.0
220
0.0
230
-1.0
  0
SOLID
  5
1284
  8
0
  6
CONTINUOUS
 10
284.49191099092781
 20
274.10260253700233
 30
0.0
 11
284.66228185948228
 21
272.80850731149002
 31
0.0
 12
294.32154012237288
 22
272.80850731149002
 32
0.0
 13
294.32154012237288
 23
272.80850731149002
 33
0.0
210
0.0
220
0.0
230
1.0
  0
SOLID
  5
1285
  8
0
  6
CONTINUOUS
 10
-284.49191099092781
 20
274.10260253700233
 30
0.0
 11
-294.49191099092752
 21
274.10260253700233
 31
0.0
 12
-294.32154012237288
 22
272.80850731149002
 32
0.0
 13
-294.32154012237288
 23
272.80850731149002
 33
0.0
210
0.0
220
0.0
230
-1.0
  0
SOLID
  5
1286
  8
0
  6
CONTINUOUS
 10
284.66228185948228
 20
272.80850731149002
 30
0.0
 11
285.16178397200542
 21
271.60260253700272
 31
0.0
 12
293.82203800984979
 22
271.60260253700272
 32
0.0
 13
293.82203800984979
 23
271.60260253700272
 33
0.0
210
0.0
220
0.0
230
1.0
  0
SOLID
  5
1287
  8
0
  6
CONTINUOUS
 10
-284.66228185948228
 20
272.80850731149002
 30
0.0
 11
-294.32154012237288
 21
272.80850731149002
 31
0.0
 12
-293.82203800984979
 22
271.60260253700272
 32
0.0
 13
-293.82203800984979
 23
271.60260253700272
 33
0.0
210
0.0
220
0.0
230
-1.0
  0
SOLID
  5
1288
  8
0
  6
CONTINUOUS
 10
285.16178397200542
 20
271.60260253700272
 30
0.0
 11
285.95637708499481
 21
270.56706863106967
 31
0.0
 12
293.02744489686029
 22
270.56706863106967
 32
0.0
 13
293.02744489686029
 23
270.56706863106967
 33
0.0
210
0.0
220
0.0
230
1.0
  0
SOLID
  5
1289
  8
0
  6
CONTINUOUS
 10
-285.16178397200542
 20
271.60260253700272
 30
0.0
 11
-293.82203800984979
 21
271.60260253700272
 31
0.0
 12
-293.02744489686029
 22
270.56706863106967
 32
0.0
 13
-293.02744489686029
 23
270.56706863106967
 33
0.0
210
0.0
220
0.0
230
-1.0
  0
SOLID
  5
128A
  8
0
  6
CONTINUOUS
 10
285.95637708499481
 20
270.56706863106967
 30
0.0
 11
286.99191099092798
 21
269.77247551808023
 31
0.0
 12
291.99191099092752
 22
269.77247551808023
 32
0.0
 13
291.99191099092752
 23
269.77247551808023
 33
0.0
210
0.0
220
0.0
230
1.0
  0
SOLID
  5
128B
  8
0
  6
CONTINUOUS
 10
-285.95637708499481
 20
270.56706863106967
 30
0.0
 11
-293.02744489686029
 21
270.56706863106967
 31
0.0
 12
-291.99191099092752
 22
269.77247551808023
 32
0.0
 13
-291.99191099092752
 23
269.77247551808023
 33
0.0
210
0.0
220
0.0
230
-1.0
  0
SOLID
  5
128C
  8
0
  6
CONTINUOUS
 10
-288.19781576541487
 20
269.27297340555708
 30
0.0
 11
-290.78600621644023
 21
269.27297340555708
 31
0.0
 12
-289.49191099092769
 22
269.10260253700238
 32
0.0
 13
-289.49191099092769
 23
269.10260253700238
 33
0.0
210
0.0
220
0.0
230
-1.0
  0
SOLID
  5
128D
  8
0
  6
CONTINUOUS
 10
286.9919109909282
 20
269.77247551808023
 30
0.0
 11
288.19781576541487
 21
269.27297340555708
 31
0.0
 12
290.78600621644023
 22
269.27297340555708
 32
0.0
 13
290.78600621644023
 23
269.27297340555708
 33
0.0
210
0.0
220
0.0
230
1.0
  0
SOLID
  5
128E
  8
0
  6
CONTINUOUS
 10
-286.9919109909282
 20
269.77247551808023
 30
0.0
 11
-291.99191099092752
 21
269.77247551808023
 31
0.0
 12
-290.78600621644023
 22
269.27297340555708
 32
0.0
 13
-290.78600621644023
 23
269.27297340555708
 33
0.0
210
0.0
220
0.0
230
-1.0
  0
LINE
  5
128F
  8
0
  6
CONTINUOUS
 10
289.49191099092769
 20
279.10260253700261
 30
0.0
 11
288.1978157654151
 21
278.93223166844791
 31
0.0
  0
LINE
  5
1290
  8
0
  6
CONTINUOUS
 10
290.78600621644023
 20
278.93223166844791
 30
0.0
 11
289.49191099092769
 21
279.10260253700261
 31
0.0
  0
LINE
  5
1291
  8
0
  6
CONTINUOUS
 10
288.1978157654151
 20
278.93223166844791
 30
0.0
 11
286.99191099092769
 21
278.43272955592471
 31
0.0
  0
LINE
  5
1292
  8
0
  6
CONTINUOUS
 10
290.78600621644023
 20
278.93223166844791
 30
0.0
 11
291.99191099092758
 21
278.43272955592471
 31
0.0
  0
LINE
  5
1293
  8
0
  6
CONTINUOUS
 10
286.99191099092769
 20
278.43272955592471
 30
0.0
 11
285.95637708499481
 21
277.63813644293532
 31
0.0
  0
LINE
  5
1294
  8
0
  6
CONTINUOUS
 10
291.99191099092758
 20
278.43272955592471
 30
0.0
 11
293.02744489686029
 21
277.63813644293532
 31
0.0
  0
LINE
  5
1295
  8
0
  6
CONTINUOUS
 10
285.95637708499481
 20
277.63813644293532
 30
0.0
 11
285.16178397200542
 21
276.60260253700261
 31
0.0
  0
LINE
  5
1296
  8
0
  6
CONTINUOUS
 10
293.02744489686029
 20
277.63813644293532
 30
0.0
 11
293.82203800984979
 21
276.60260253700261
 31
0.0
  0
LINE
  5
1297
  8
0
  6
CONTINUOUS
 10
285.16178397200542
 20
276.60260253700261
 30
0.0
 11
284.66228185948228
 21
275.3966977625152
 31
0.0
  0
LINE
  5
1298
  8
0
  6
CONTINUOUS
 10
293.82203800984979
 20
276.60260253700261
 30
0.0
 11
294.32154012237288
 21
275.3966977625152
 31
0.0
  0
LINE
  5
1299
  8
0
  6
CONTINUOUS
 10
284.66228185948228
 20
275.3966977625152
 30
0.0
 11
284.49191099092781
 21
274.10260253700233
 31
0.0
  0
LINE
  5
129A
  8
0
  6
CONTINUOUS
 10
294.32154012237288
 20
275.3966977625152
 30
0.0
 11
294.49191099092752
 21
274.10260253700233
 31
0.0
  0
LINE
  5
129B
  8
0
  6
CONTINUOUS
 10
284.49191099092781
 20
274.10260253700233
 30
0.0
 11
284.66228185948228
 21
272.80850731149002
 31
0.0
  0
LINE
  5
129C
  8
0
  6
CONTINUOUS
 10
294.49191099092752
 20
274.10260253700233
 30
0.0
 11
294.32154012237288
 21
272.80850731149002
 31
0.0
  0
LINE
  5
129D
  8
0
  6
CONTINUOUS
 10
284.66228185948228
 20
272.80850731149002
 30
0.0
 11
285.16178397200542
 21
271.60260253700272
 31
0.0
  0
LINE
  5
129E
  8
0
  6
CONTINUOUS
 10
294.32154012237288
 20
272.80850731149002
 30
0.0
 11
293.82203800984979
 21
271.60260253700272
 31
0.0
  0
LINE
  5
129F
  8
0
  6
CONTINUOUS
 10
285.16178397200542
 20
271.60260253700272
 30
0.0
 11
285.95637708499481
 21
270.56706863106967
 31
0.0
  0
LINE
  5
12A0
  8
0
  6
CONTINUOUS
 10
293.82203800984979
 20
271.60260253700272
 30
0.0
 11
293.02744489686029
 21
270.56706863106967
 31
0.0
  0
LINE
  5
12A1
  8
0
  6
CONTINUOUS
 10
285.95637708499481
 20
270.56706863106967
 30
0.0
 11
286.99191099092798
 21
269.77247551808023
 31
0.0
  0
LINE
  5
12A2
  8
0
  6
CONTINUOUS
 10
293.02744489686029
 20
270.56706863106967
 30
0.0
 11
291.99191099092752
 21
269.77247551808023
 31
0.0
  0
LINE
  5
12A3
  8
0
  6
CONTINUOUS
 10
290.78600621644023
 20
269.27297340555708
 30
0.0
 11
289.49191099092769
 21
269.10260253700238
 31
0.0
  0
LINE
  5
12A4
  8
0
  6
CONTINUOUS
 10
289.49191099092769
 20
269.10260253700238
 30
0.0
 11
288.19781576541487
 21
269.27297340555708
 31
0.0
  0
LINE
  5
12A5
  8
0
  6
CONTINUOUS
 10
286.9919109909282
 20
269.77247551808023
 30
0.0
 11
288.19781576541487
 21
269.27297340555708
 31
0.0
  0
LINE
  5
12A6
  8
0
  6
CONTINUOUS
 10
291.99191099092752
 20
269.77247551808023
 30
0.0
 11
290.78600621644023
 21
269.27297340555708
 31
0.0
  0
ENDBLK
  5
12A8
  8
0
  0
BLOCK
  8
0
  2
*U15
 70
     1
 10
0.0
 20
0.0
 30
0.0
  3
*U15
  1

  0
SOLID
  5
12AA
  8
0
  6
CONTINUOUS
 10
1116.4569724222281
 20
756.34286879073716
 30
0.0
 11
1115.162877196715
 21
756.17249792218263
 31
0.0
 12
1117.75106764774
 22
756.17249792218263
 32
0.0
 13
1117.75106764774
 23
756.17249792218263
 33
0.0
210
0.0
220
0.0
230
1.0
  0
SOLID
  5
12AB
  8
0
  6
CONTINUOUS
 10
1115.162877196715
 20
756.17249792218263
 30
0.0
 11
1113.9569724222281
 21
755.67299580965937
 31
0.0
 12
1118.9569724222281
 22
755.67299580965937
 32
0.0
 13
1118.9569724222281
 23
755.67299580965937
 33
0.0
210
0.0
220
0.0
230
1.0
  0
SOLID
  5
12AC
  8
0
  6
CONTINUOUS
 10
-1115.162877196715
 20
756.17249792218263
 30
0.0
 11
-1117.75106764774
 21
756.17249792218263
 31
0.0
 12
-1118.9569724222281
 22
755.67299580965937
 32
0.0
 13
-1118.9569724222281
 23
755.67299580965937
 33
0.0
210
0.0
220
0.0
230
-1.0
  0
SOLID
  5
12AD
  8
0
  6
CONTINUOUS
 10
1113.9569724222281
 20
755.67299580965937
 30
0.0
 11
1112.921438516295
 21
754.87840269667004
 31
0.0
 12
1119.9925063281601
 22
754.87840269667004
 32
0.0
 13
1119.9925063281601
 23
754.87840269667004
 33
0.0
210
0.0
220
0.0
230
1.0
  0
SOLID
  5
12AE
  8
0
  6
CONTINUOUS
 10
-1113.9569724222281
 20
755.67299580965937
 30
0.0
 11
-1118.9569724222281
 21
755.67299580965937
 31
0.0
 12
-1119.9925063281601
 22
754.87840269667004
 32
0.0
 13
-1119.9925063281601
 23
754.87840269667004
 33
0.0
210
0.0
220
0.0
230
-1.0
  0
SOLID
  5
12AF
  8
0
  6
CONTINUOUS
 10
1112.921438516295
 20
754.87840269667004
 30
0.0
 11
1112.126845403305
 21
753.84286879073716
 31
0.0
 12
1120.7870994411501
 22
753.84286879073716
 32
0.0
 13
1120.7870994411501
 23
753.84286879073716
 33
0.0
210
0.0
220
0.0
230
1.0
  0
SOLID
  5
12B0
  8
0
  6
CONTINUOUS
 10
-1112.921438516295
 20
754.87840269667004
 30
0.0
 11
-1119.9925063281601
 21
754.87840269667004
 31
0.0
 12
-1120.7870994411501
 22
753.84286879073716
 32
0.0
 13
-1120.7870994411501
 23
753.84286879073716
 33
0.0
210
0.0
220
0.0
230
-1.0
  0
SOLID
  5
12B1
  8
0
  6
CONTINUOUS
 10
1112.126845403305
 20
753.84286879073716
 30
0.0
 11
1111.6273432907819
 21
752.63696401624975
 31
0.0
 12
1121.2866015536731
 22
752.63696401624975
 32
0.0
 13
1121.2866015536731
 23
752.63696401624975
 33
0.0
210
0.0
220
0.0
230
1.0
  0
SOLID
  5
12B2
  8
0
  6
CONTINUOUS
 10
-1112.126845403305
 20
753.84286879073716
 30
0.0
 11
-1120.7870994411501
 21
753.84286879073716
 31
0.0
 12
-1121.2866015536731
 22
752.63696401624975
 32
0.0
 13
-1121.2866015536731
 23
752.63696401624975
 33
0.0
210
0.0
220
0.0
230
-1.0
  0
SOLID
  5
12B3
  8
0
  6
CONTINUOUS
 10
1111.6273432907819
 20
752.63696401624975
 30
0.0
 11
1111.456972422227
 21
751.34286879073727
 31
0.0
 12
1121.456972422227
 22
751.34286879073727
 32
0.0
 13
1121.456972422227
 23
751.34286879073727
 33
0.0
210
0.0
220
0.0
230
1.0
  0
SOLID
  5
12B4
  8
0
  6
CONTINUOUS
 10
-1111.6273432907819
 20
752.63696401624975
 30
0.0
 11
-1121.2866015536731
 21
752.63696401624975
 31
0.0
 12
-1121.456972422227
 22
751.34286879073727
 32
0.0
 13
-1121.456972422227
 23
751.34286879073727
 33
0.0
210
0.0
220
0.0
230
-1.0
  0
SOLID
  5
12B5
  8
0
  6
CONTINUOUS
 10
1111.456972422227
 20
751.34286879073727
 30
0.0
 11
1111.6273432907819
 21
750.04877356522479
 31
0.0
 12
1121.2866015536731
 22
750.04877356522479
 32
0.0
 13
1121.2866015536731
 23
750.04877356522479
 33
0.0
210
0.0
220
0.0
230
1.0
  0
SOLID
  5
12B6
  8
0
  6
CONTINUOUS
 10
-1111.456972422227
 20
751.34286879073727
 30
0.0
 11
-1121.456972422227
 21
751.34286879073727
 31
0.0
 12
-1121.2866015536731
 22
750.04877356522479
 32
0.0
 13
-1121.2866015536731
 23
750.04877356522479
 33
0.0
210
0.0
220
0.0
230
-1.0
  0
SOLID
  5
12B7
  8
0
  6
CONTINUOUS
 10
1111.6273432907819
 20
750.04877356522479
 30
0.0
 11
1112.126845403305
 21
748.84286879073727
 31
0.0
 12
1120.7870994411501
 22
748.84286879073727
 32
0.0
 13
1120.7870994411501
 23
748.84286879073727
 33
0.0
210
0.0
220
0.0
230
1.0
  0
SOLID
  5
12B8
  8
0
  6
CONTINUOUS
 10
-1111.6273432907819
 20
750.04877356522479
 30
0.0
 11
-1121.2866015536731
 21
750.04877356522479
 31
0.0
 12
-1120.7870994411501
 22
748.84286879073727
 32
0.0
 13
-1120.7870994411501
 23
748.84286879073727
 33
0.0
210
0.0
220
0.0
230
-1.0
  0
SOLID
  5
12B9
  8
0
  6
CONTINUOUS
 10
1112.126845403305
 20
748.84286879073727
 30
0.0
 11
1112.921438516295
 21
747.80733488480462
 31
0.0
 12
1119.9925063281601
 22
747.80733488480462
 32
0.0
 13
1119.9925063281601
 23
747.80733488480462
 33
0.0
210
0.0
220
0.0
230
1.0
  0
SOLID
  5
12BA
  8
0
  6
CONTINUOUS
 10
-1112.126845403305
 20
748.84286879073727
 30
0.0
 11
-1120.7870994411501
 21
748.84286879073727
 31
0.0
 12
-1119.9925063281601
 22
747.80733488480462
 32
0.0
 13
-1119.9925063281601
 23
747.80733488480462
 33
0.0
210
0.0
220
0.0
230
-1.0
  0
SOLID
  5
12BB
  8
0
  6
CONTINUOUS
 10
1112.921438516295
 20
747.80733488480462
 30
0.0
 11
1113.9569724222281
 21
747.01274177181517
 31
0.0
 12
1118.9569724222281
 22
747.01274177181517
 32
0.0
 13
1118.9569724222281
 23
747.01274177181517
 33
0.0
210
0.0
220
0.0
230
1.0
  0
SOLID
  5
12BC
  8
0
  6
CONTINUOUS
 10
-1112.921438516295
 20
747.80733488480462
 30
0.0
 11
-1119.9925063281601
 21
747.80733488480462
 31
0.0
 12
-1118.9569724222281
 22
747.01274177181517
 32
0.0
 13
-1118.9569724222281
 23
747.01274177181517
 33
0.0
210
0.0
220
0.0
230
-1.0
  0
SOLID
  5
12BD
  8
0
  6
CONTINUOUS
 10
-1115.162877196715
 20
746.51323965929203
 30
0.0
 11
-1117.75106764774
 21
746.51323965929203
 31
0.0
 12
-1116.4569724222281
 22
746.34286879073727
 32
0.0
 13
-1116.4569724222281
 23
746.34286879073727
 33
0.0
210
0.0
220
0.0
230
-1.0
  0
SOLID
  5
12BE
  8
0
  6
CONTINUOUS
 10
1113.9569724222281
 20
747.01274177181517
 30
0.0
 11
1115.162877196715
 21
746.51323965929203
 31
0.0
 12
1117.75106764774
 22
746.51323965929203
 32
0.0
 13
1117.75106764774
 23
746.51323965929203
 33
0.0
210
0.0
220
0.0
230
1.0
  0
SOLID
  5
12BF
  8
0
  6
CONTINUOUS
 10
-1113.9569724222281
 20
747.01274177181517
 30
0.0
 11
-1118.9569724222281
 21
747.01274177181517
 31
0.0
 12
-1117.75106764774
 22
746.51323965929203
 32
0.0
 13
-1117.75106764774
 23
746.51323965929203
 33
0.0
210
0.0
220
0.0
230
-1.0
  0
LINE
  5
12C0
  8
0
  6
CONTINUOUS
 10
1116.4569724222281
 20
756.34286879073716
 30
0.0
 11
1115.162877196715
 21
756.17249792218263
 31
0.0
  0
LINE
  5
12C1
  8
0
  6
CONTINUOUS
 10
1117.75106764774
 20
756.17249792218263
 30
0.0
 11
1116.4569724222281
 21
756.34286879073716
 31
0.0
  0
LINE
  5
12C2
  8
0
  6
CONTINUOUS
 10
1115.162877196715
 20
756.17249792218263
 30
0.0
 11
1113.9569724222281
 21
755.67299580965937
 31
0.0
  0
LINE
  5
12C3
  8
0
  6
CONTINUOUS
 10
1117.75106764774
 20
756.17249792218263
 30
0.0
 11
1118.9569724222281
 21
755.67299580965937
 31
0.0
  0
LINE
  5
12C4
  8
0
  6
CONTINUOUS
 10
1113.9569724222281
 20
755.67299580965937
 30
0.0
 11
1112.921438516295
 21
754.87840269667004
 31
0.0
  0
LINE
  5
12C5
  8
0
  6
CONTINUOUS
 10
1118.9569724222281
 20
755.67299580965937
 30
0.0
 11
1119.9925063281601
 21
754.87840269667004
 31
0.0
  0
LINE
  5
12C6
  8
0
  6
CONTINUOUS
 10
1112.921438516295
 20
754.87840269667004
 30
0.0
 11
1112.126845403305
 21
753.84286879073716
 31
0.0
  0
LINE
  5
12C7
  8
0
  6
CONTINUOUS
 10
1119.9925063281601
 20
754.87840269667004
 30
0.0
 11
1120.7870994411501
 21
753.84286879073716
 31
0.0
  0
LINE
  5
12C8
  8
0
  6
CONTINUOUS
 10
1112.126845403305
 20
753.84286879073716
 30
0.0
 11
1111.6273432907819
 21
752.63696401624975
 31
0.0
  0
LINE
  5
12C9
  8
0
  6
CONTINUOUS
 10
1120.7870994411501
 20
753.84286879073716
 30
0.0
 11
1121.2866015536731
 21
752.63696401624975
 31
0.0
  0
LINE
  5
12CA
  8
0
  6
CONTINUOUS
 10
1111.6273432907819
 20
752.63696401624975
 30
0.0
 11
1111.456972422227
 21
751.34286879073727
 31
0.0
  0
LINE
  5
12CB
  8
0
  6
CONTINUOUS
 10
1121.2866015536731
 20
752.63696401624975
 30
0.0
 11
1121.456972422227
 21
751.34286879073727
 31
0.0
  0
LINE
  5
12CC
  8
0
  6
CONTINUOUS
 10
1111.456972422227
 20
751.34286879073727
 30
0.0
 11
1111.6273432907819
 21
750.04877356522479
 31
0.0
  0
LINE
  5
12CD
  8
0
  6
CONTINUOUS
 10
1121.456972422227
 20
751.34286879073727
 30
0.0
 11
1121.2866015536731
 21
750.04877356522479
 31
0.0
  0
LINE
  5
12CE
  8
0
  6
CONTINUOUS
 10
1111.6273432907819
 20
750.04877356522479
 30
0.0
 11
1112.126845403305
 21
748.84286879073727
 31
0.0
  0
LINE
  5
12CF
  8
0
  6
CONTINUOUS
 10
1121.2866015536731
 20
750.04877356522479
 30
0.0
 11
1120.7870994411501
 21
748.84286879073727
 31
0.0
  0
LINE
  5
12D0
  8
0
  6
CONTINUOUS
 10
1112.126845403305
 20
748.84286879073727
 30
0.0
 11
1112.921438516295
 21
747.80733488480462
 31
0.0
  0
LINE
  5
12D1
  8
0
  6
CONTINUOUS
 10
1120.7870994411501
 20
748.84286879073727
 30
0.0
 11
1119.9925063281601
 21
747.80733488480462
 31
0.0
  0
LINE
  5
12D2
  8
0
  6
CONTINUOUS
 10
1112.921438516295
 20
747.80733488480462
 30
0.0
 11
1113.9569724222281
 21
747.01274177181517
 31
0.0
  0
LINE
  5
12D3
  8
0
  6
CONTINUOUS
 10
1119.9925063281601
 20
747.80733488480462
 30
0.0
 11
1118.9569724222281
 21
747.01274177181517
 31
0.0
  0
LINE
  5
12D4
  8
0
  6
CONTINUOUS
 10
1117.75106764774
 20
746.51323965929203
 30
0.0
 11
1116.4569724222281
 21
746.34286879073727
 31
0.0
  0
LINE
  5
12D5
  8
0
  6
CONTINUOUS
 10
1116.4569724222281
 20
746.34286879073727
 30
0.0
 11
1115.162877196715
 21
746.51323965929203
 31
0.0
  0
LINE
  5
12D6
  8
0
  6
CONTINUOUS
 10
1113.9569724222281
 20
747.01274177181517
 30
0.0
 11
1115.162877196715
 21
746.51323965929203
 31
0.0
  0
LINE
  5
12D7
  8
0
  6
CONTINUOUS
 10
1118.9569724222281
 20
747.01274177181517
 30
0.0
 11
1117.75106764774
 21
746.51323965929203
 31
0.0
  0
ENDBLK
  5
12D9
  8
0
  0
BLOCK
  8
0
  2
*U16
 70
     1
 10
0.0
 20
0.0
 30
0.0
  3
*U16
  1

  0
SOLID
  5
12DB
  8
0
  6
CONTINUOUS
 10
544.12193497804185
 20
750.31608225443017
 30
0.0
 11
542.82783975252937
 21
750.14571138587564
 31
0.0
 12
545.41603020355456
 22
750.14571138587564
 32
0.0
 13
545.41603020355456
 23
750.14571138587564
 33
0.0
210
0.0
220
0.0
230
1.0
  0
SOLID
  5
12DC
  8
0
  6
CONTINUOUS
 10
542.82783975252937
 20
750.14571138587564
 30
0.0
 11
541.62193497804185
 21
749.6462092733525
 31
0.0
 12
546.62193497804185
 22
749.6462092733525
 32
0.0
 13
546.62193497804185
 23
749.6462092733525
 33
0.0
210
0.0
220
0.0
230
1.0
  0
SOLID
  5
12DD
  8
0
  6
CONTINUOUS
 10
-542.82783975252937
 20
750.14571138587564
 30
0.0
 11
-545.41603020355456
 21
750.14571138587564
 31
0.0
 12
-546.62193497804185
 22
749.6462092733525
 32
0.0
 13
-546.62193497804185
 23
749.6462092733525
 33
0.0
210
0.0
220
0.0
230
-1.0
  0
SOLID
  5
12DE
  8
0
  6
CONTINUOUS
 10
541.62193497804185
 20
749.6462092733525
 30
0.0
 11
540.58640107210908
 21
748.85161616036305
 31
0.0
 12
547.65746888397462
 22
748.85161616036305
 32
0.0
 13
547.65746888397462
 23
748.85161616036305
 33
0.0
210
0.0
220
0.0
230
1.0
  0
SOLID
  5
12DF
  8
0
  6
CONTINUOUS
 10
-541.62193497804185
 20
749.6462092733525
 30
0.0
 11
-546.62193497804185
 21
749.6462092733525
 31
0.0
 12
-547.65746888397462
 22
748.85161616036305
 32
0.0
 13
-547.65746888397462
 23
748.85161616036305
 33
0.0
210
0.0
220
0.0
230
-1.0
  0
SOLID
  5
12E0
  8
0
  6
CONTINUOUS
 10
540.58640107210908
 20
748.85161616036305
 30
0.0
 11
539.79180795911975
 21
747.81608225443028
 31
0.0
 12
548.45206199696395
 22
747.81608225443028
 32
0.0
 13
548.45206199696395
 23
747.81608225443028
 33
0.0
210
0.0
220
0.0
230
1.0
  0
SOLID
  5
12E1
  8
0
  6
CONTINUOUS
 10
-540.58640107210908
 20
748.85161616036305
 30
0.0
 11
-547.65746888397462
 21
748.85161616036305
 31
0.0
 12
-548.45206199696395
 22
747.81608225443028
 32
0.0
 13
-548.45206199696395
 23
747.81608225443028
 33
0.0
210
0.0
220
0.0
230
-1.0
  0
SOLID
  5
12E2
  8
0
  6
CONTINUOUS
 10
539.79180795911975
 20
747.81608225443028
 30
0.0
 11
539.29230584659649
 21
746.61017747994299
 31
0.0
 12
548.95156410948732
 22
746.61017747994299
 32
0.0
 13
548.95156410948732
 23
746.61017747994299
 33
0.0
210
0.0
220
0.0
230
1.0
  0
SOLID
  5
12E3
  8
0
  6
CONTINUOUS
 10
-539.79180795911975
 20
747.81608225443028
 30
0.0
 11
-548.45206199696395
 21
747.81608225443028
 31
0.0
 12
-548.95156410948732
 22
746.61017747994299
 32
0.0
 13
-548.95156410948732
 23
746.61017747994299
 33
0.0
210
0.0
220
0.0
230
-1.0
  0
SOLID
  5
12E4
  8
0
  6
CONTINUOUS
 10
539.29230584659649
 20
746.61017747994299
 30
0.0
 11
539.12193497804185
 21
745.3160822544304
 31
0.0
 12
549.12193497804185
 22
745.3160822544304
 32
0.0
 13
549.12193497804185
 23
745.3160822544304
 33
0.0
210
0.0
220
0.0
230
1.0
  0
SOLID
  5
12E5
  8
0
  6
CONTINUOUS
 10
-539.29230584659649
 20
746.61017747994299
 30
0.0
 11
-548.95156410948732
 21
746.61017747994299
 31
0.0
 12
-549.12193497804185
 22
745.3160822544304
 32
0.0
 13
-549.12193497804185
 23
745.3160822544304
 33
0.0
210
0.0
220
0.0
230
-1.0
  0
SOLID
  5
12E6
  8
0
  6
CONTINUOUS
 10
539.12193497804185
 20
745.3160822544304
 30
0.0
 11
539.29230584659649
 21
744.02198702891781
 31
0.0
 12
548.95156410948732
 22
744.02198702891781
 32
0.0
 13
548.95156410948732
 23
744.02198702891781
 33
0.0
210
0.0
220
0.0
230
1.0
  0
SOLID
  5
12E7
  8
0
  6
CONTINUOUS
 10
-539.12193497804185
 20
745.3160822544304
 30
0.0
 11
-549.12193497804185
 21
745.3160822544304
 31
0.0
 12
-548.95156410948732
 22
744.02198702891781
 32
0.0
 13
-548.95156410948732
 23
744.02198702891781
 33
0.0
210
0.0
220
0.0
230
-1.0
  0
SOLID
  5
12E8
  8
0
  6
CONTINUOUS
 10
539.29230584659649
 20
744.02198702891781
 30
0.0
 11
539.79180795911975
 21
742.81608225443028
 31
0.0
 12
548.45206199696395
 22
742.81608225443028
 32
0.0
 13
548.45206199696395
 23
742.81608225443028
 33
0.0
210
0.0
220
0.0
230
1.0
  0
SOLID
  5
12E9
  8
0
  6
CONTINUOUS
 10
-539.29230584659649
 20
744.02198702891781
 30
0.0
 11
-548.95156410948732
 21
744.02198702891781
 31
0.0
 12
-548.45206199696395
 22
742.81608225443028
 32
0.0
 13
-548.45206199696395
 23
742.81608225443028
 33
0.0
210
0.0
220
0.0
230
-1.0
  0
SOLID
  5
12EA
  8
0
  6
CONTINUOUS
 10
539.79180795911975
 20
742.81608225443028
 30
0.0
 11
540.58640107210908
 21
741.78054834849775
 31
0.0
 12
547.65746888397462
 22
741.78054834849775
 32
0.0
 13
547.65746888397462
 23
741.78054834849775
 33
0.0
210
0.0
220
0.0
230
1.0
  0
SOLID
  5
12EB
  8
0
  6
CONTINUOUS
 10
-539.79180795911975
 20
742.81608225443028
 30
0.0
 11
-548.45206199696395
 21
742.81608225443028
 31
0.0
 12
-547.65746888397462
 22
741.78054834849775
 32
0.0
 13
-547.65746888397462
 23
741.78054834849775
 33
0.0
210
0.0
220
0.0
230
-1.0
  0
SOLID
  5
12EC
  8
0
  6
CONTINUOUS
 10
540.58640107210908
 20
741.78054834849775
 30
0.0
 11
541.62193497804185
 21
740.9859552355083
 31
0.0
 12
546.62193497804185
 22
740.9859552355083
 32
0.0
 13
546.62193497804185
 23
740.9859552355083
 33
0.0
210
0.0
220
0.0
230
1.0
  0
SOLID
  5
12ED
  8
0
  6
CONTINUOUS
 10
-540.58640107210908
 20
741.78054834849775
 30
0.0
 11
-547.65746888397462
 21
741.78054834849775
 31
0.0
 12
-546.62193497804185
 22
740.9859552355083
 32
0.0
 13
-546.62193497804185
 23
740.9859552355083
 33
0.0
210
0.0
220
0.0
230
-1.0
  0
SOLID
  5
12EE
  8
0
  6
CONTINUOUS
 10
-542.82783975252937
 20
740.48645312298515
 30
0.0
 11
-545.41603020355456
 21
740.48645312298515
 31
0.0
 12
-544.12193497804185
 22
740.31608225443051
 32
0.0
 13
-544.12193497804185
 23
740.31608225443051
 33
0.0
210
0.0
220
0.0
230
-1.0
  0
SOLID
  5
12EF
  8
0
  6
CONTINUOUS
 10
541.62193497804185
 20
740.9859552355083
 30
0.0
 11
542.82783975252937
 21
740.48645312298515
 31
0.0
 12
545.41603020355456
 22
740.48645312298515
 32
0.0
 13
545.41603020355456
 23
740.48645312298515
 33
0.0
210
0.0
220
0.0
230
1.0
  0
SOLID
  5
12F0
  8
0
  6
CONTINUOUS
 10
-541.62193497804185
 20
740.9859552355083
 30
0.0
 11
-546.62193497804185
 21
740.9859552355083
 31
0.0
 12
-545.41603020355456
 22
740.48645312298515
 32
0.0
 13
-545.41603020355456
 23
740.48645312298515
 33
0.0
210
0.0
220
0.0
230
-1.0
  0
LINE
  5
12F1
  8
0
  6
CONTINUOUS
 10
544.12193497804185
 20
750.31608225443017
 30
0.0
 11
542.82783975252937
 21
750.14571138587564
 31
0.0
  0
LINE
  5
12F2
  8
0
  6
CONTINUOUS
 10
545.41603020355456
 20
750.14571138587564
 30
0.0
 11
544.12193497804185
 21
750.31608225443017
 31
0.0
  0
LINE
  5
12F3
  8
0
  6
CONTINUOUS
 10
542.82783975252937
 20
750.14571138587564
 30
0.0
 11
541.62193497804185
 21
749.6462092733525
 31
0.0
  0
LINE
  5
12F4
  8
0
  6
CONTINUOUS
 10
545.41603020355456
 20
750.14571138587564
 30
0.0
 11
546.62193497804185
 21
749.6462092733525
 31
0.0
  0
LINE
  5
12F5
  8
0
  6
CONTINUOUS
 10
541.62193497804185
 20
749.6462092733525
 30
0.0
 11
540.58640107210908
 21
748.85161616036305
 31
0.0
  0
LINE
  5
12F6
  8
0
  6
CONTINUOUS
 10
546.62193497804185
 20
749.6462092733525
 30
0.0
 11
547.65746888397462
 21
748.85161616036305
 31
0.0
  0
LINE
  5
12F7
  8
0
  6
CONTINUOUS
 10
540.58640107210908
 20
748.85161616036305
 30
0.0
 11
539.79180795911975
 21
747.81608225443028
 31
0.0
  0
LINE
  5
12F8
  8
0
  6
CONTINUOUS
 10
547.65746888397462
 20
748.85161616036305
 30
0.0
 11
548.45206199696395
 21
747.81608225443028
 31
0.0
  0
LINE
  5
12F9
  8
0
  6
CONTINUOUS
 10
539.79180795911975
 20
747.81608225443028
 30
0.0
 11
539.29230584659649
 21
746.61017747994299
 31
0.0
  0
LINE
  5
12FA
  8
0
  6
CONTINUOUS
 10
548.45206199696395
 20
747.81608225443028
 30
0.0
 11
548.95156410948732
 21
746.61017747994299
 31
0.0
  0
LINE
  5
12FB
  8
0
  6
CONTINUOUS
 10
539.29230584659649
 20
746.61017747994299
 30
0.0
 11
539.12193497804185
 21
745.3160822544304
 31
0.0
  0
LINE
  5
12FC
  8
0
  6
CONTINUOUS
 10
548.95156410948732
 20
746.61017747994299
 30
0.0
 11
549.12193497804185
 21
745.3160822544304
 31
0.0
  0
LINE
  5
12FD
  8
0
  6
CONTINUOUS
 10
539.12193497804185
 20
745.3160822544304
 30
0.0
 11
539.29230584659649
 21
744.02198702891781
 31
0.0
  0
LINE
  5
12FE
  8
0
  6
CONTINUOUS
 10
549.12193497804185
 20
745.3160822544304
 30
0.0
 11
548.95156410948732
 21
744.02198702891781
 31
0.0
  0
LINE
  5
12FF
  8
0
  6
CONTINUOUS
 10
539.29230584659649
 20
744.02198702891781
 30
0.0
 11
539.79180795911975
 21
742.81608225443028
 31
0.0
  0
LINE
  5
1300
  8
0
  6
CONTINUOUS
 10
548.95156410948732
 20
744.02198702891781
 30
0.0
 11
548.45206199696395
 21
742.81608225443028
 31
0.0
  0
LINE
  5
1301
  8
0
  6
CONTINUOUS
 10
539.79180795911975
 20
742.81608225443028
 30
0.0
 11
540.58640107210908
 21
741.78054834849775
 31
0.0
  0
LINE
  5
1302
  8
0
  6
CONTINUOUS
 10
548.45206199696395
 20
742.81608225443028
 30
0.0
 11
547.65746888397462
 21
741.78054834849775
 31
0.0
  0
LINE
  5
1303
  8
0
  6
CONTINUOUS
 10
540.58640107210908
 20
741.78054834849775
 30
0.0
 11
541.62193497804185
 21
740.9859552355083
 31
0.0
  0
LINE
  5
1304
  8
0
  6
CONTINUOUS
 10
547.65746888397462
 20
741.78054834849775
 30
0.0
 11
546.62193497804185
 21
740.9859552355083
 31
0.0
  0
LINE
  5
1305
  8
0
  6
CONTINUOUS
 10
545.41603020355456
 20
740.48645312298515
 30
0.0
 11
544.12193497804185
 21
740.31608225443051
 31
0.0
  0
LINE
  5
1306
  8
0
  6
CONTINUOUS
 10
544.12193497804185
 20
740.31608225443051
 30
0.0
 11
542.82783975252937
 21
740.48645312298515
 31
0.0
  0
LINE
  5
1307
  8
0
  6
CONTINUOUS
 10
541.62193497804185
 20
740.9859552355083
 30
0.0
 11
542.82783975252937
 21
740.48645312298515
 31
0.0
  0
LINE
  5
1308
  8
0
  6
CONTINUOUS
 10
546.62193497804185
 20
740.9859552355083
 30
0.0
 11
545.41603020355456
 21
740.48645312298515
 31
0.0
  0
ENDBLK
  5
130A
  8
0
  0
BLOCK
  8
0
  2
*U17
 70
     1
 10
0.0
 20
0.0
 30
0.0
  3
*U17
  1

  0
SOLID
  5
130C
  8
0
  6
CONTINUOUS
 10
391.06800016752692
 20
530.06320094629939
 30
0.0
 11
389.77390494201433
 21
529.89283007774475
 31
0.0
 12
392.36209539303951
 22
529.89283007774475
 32
0.0
 13
392.36209539303951
 23
529.89283007774475
 33
0.0
210
0.0
220
0.0
230
1.0
  0
SOLID
  5
130D
  8
0
  6
CONTINUOUS
 10
389.77390494201433
 20
529.89283007774475
 30
0.0
 11
388.56800016752641
 21
529.3933279652216
 31
0.0
 12
393.56800016752692
 22
529.3933279652216
 32
0.0
 13
393.56800016752692
 23
529.3933279652216
 33
0.0
210
0.0
220
0.0
230
1.0
  0
SOLID
  5
130E
  8
0
  6
CONTINUOUS
 10
-389.77390494201433
 20
529.89283007774475
 30
0.0
 11
-392.36209539303951
 21
529.89283007774475
 31
0.0
 12
-393.56800016752692
 22
529.3933279652216
 32
0.0
 13
-393.56800016752692
 23
529.3933279652216
 33
0.0
210
0.0
220
0.0
230
-1.0
  0
SOLID
  5
130F
  8
0
  6
CONTINUOUS
 10
388.56800016752658
 20
529.3933279652216
 30
0.0
 11
387.53246626159421
 21
528.59873485223238
 31
0.0
 12
394.60353407345963
 22
528.59873485223238
 32
0.0
 13
394.60353407345963
 23
528.59873485223238
 33
0.0
210
0.0
220
0.0
230
1.0
  0
SOLID
  5
1310
  8
0
  6
CONTINUOUS
 10
-388.56800016752658
 20
529.3933279652216
 30
0.0
 11
-393.56800016752692
 21
529.3933279652216
 31
0.0
 12
-394.60353407345963
 22
528.59873485223238
 32
0.0
 13
-394.60353407345963
 23
528.59873485223238
 33
0.0
210
0.0
220
0.0
230
-1.0
  0
SOLID
  5
1311
  8
0
  6
CONTINUOUS
 10
387.53246626159421
 20
528.59873485223238
 30
0.0
 11
386.73787314860459
 21
527.56320094629962
 31
0.0
 12
395.39812718644902
 22
527.56320094629962
 32
0.0
 13
395.39812718644902
 23
527.56320094629962
 33
0.0
210
0.0
220
0.0
230
1.0
  0
SOLID
  5
1312
  8
0
  6
CONTINUOUS
 10
-387.53246626159421
 20
528.59873485223238
 30
0.0
 11
-394.60353407345963
 21
528.59873485223238
 31
0.0
 12
-395.39812718644902
 22
527.56320094629962
 32
0.0
 13
-395.39812718644902
 23
527.56320094629962
 33
0.0
210
0.0
220
0.0
230
-1.0
  0
SOLID
  5
1313
  8
0
  6
CONTINUOUS
 10
386.73787314860459
 20
527.56320094629962
 30
0.0
 11
386.23837103608139
 21
526.3572961718121
 31
0.0
 12
395.89762929897211
 22
526.3572961718121
 32
0.0
 13
395.89762929897211
 23
526.3572961718121
 33
0.0
210
0.0
220
0.0
230
1.0
  0
SOLID
  5
1314
  8
0
  6
CONTINUOUS
 10
-386.73787314860459
 20
527.56320094629962
 30
0.0
 11
-395.39812718644902
 21
527.56320094629962
 31
0.0
 12
-395.89762929897211
 22
526.3572961718121
 32
0.0
 13
-395.89762929897211
 23
526.3572961718121
 33
0.0
210
0.0
220
0.0
230
-1.0
  0
SOLID
  5
1315
  8
0
  6
CONTINUOUS
 10
386.23837103608139
 20
526.3572961718121
 30
0.0
 11
386.0680001675268
 21
525.06320094629973
 31
0.0
 12
396.06800016752669
 22
525.06320094629973
 32
0.0
 13
396.06800016752669
 23
525.06320094629973
 33
0.0
210
0.0
220
0.0
230
1.0
  0
SOLID
  5
1316
  8
0
  6
CONTINUOUS
 10
-386.23837103608139
 20
526.3572961718121
 30
0.0
 11
-395.89762929897211
 21
526.3572961718121
 31
0.0
 12
-396.06800016752669
 22
525.06320094629973
 32
0.0
 13
-396.06800016752669
 23
525.06320094629973
 33
0.0
210
0.0
220
0.0
230
-1.0
  0
SOLID
  5
1317
  8
0
  6
CONTINUOUS
 10
386.0680001675268
 20
525.06320094629973
 30
0.0
 11
386.2383710360815
 21
523.76910572078702
 31
0.0
 12
395.89762929897211
 22
523.76910572078702
 32
0.0
 13
395.89762929897211
 23
523.76910572078702
 33
0.0
  0
SOLID
  5
1318
  8
0
  6
CONTINUOUS
 10
-386.0680001675268
 20
525.06320094629973
 30
0.0
 11
-396.06800016752669
 21
525.06320094629973
 31
0.0
 12
-395.89762929897211
 22
523.76910572078702
 32
0.0
 13
-395.89762929897211
 23
523.76910572078702
 33
0.0
210
0.0
220
0.0
230
-1.0
  0
SOLID
  5
1319
  8
0
  6
CONTINUOUS
 10
386.2383710360815
 20
523.76910572078702
 30
0.0
 11
386.73787314860482
 21
522.56320094629973
 31
0.0
 12
395.39812718644902
 22
522.56320094629973
 32
0.0
 13
395.39812718644902
 23
522.56320094629973
 33
0.0
210
0.0
220
0.0
230
1.0
  0
SOLID
  5
131A
  8
0
  6
CONTINUOUS
 10
-386.2383710360815
 20
523.76910572078702
 30
0.0
 11
-395.89762929897211
 21
523.76910572078702
 31
0.0
 12
-395.39812718644902
 22
522.56320094629973
 32
0.0
 13
-395.39812718644902
 23
522.56320094629973
 33
0.0
210
0.0
220
0.0
230
-1.0
  0
SOLID
  5
131B
  8
0
  6
CONTINUOUS
 10
386.73787314860482
 20
522.56320094629973
 30
0.0
 11
387.53246626159421
 21
521.52766704036685
 31
0.0
 12
394.60353407345963
 22
521.52766704036685
 32
0.0
 13
394.60353407345963
 23
521.52766704036685
 33
0.0
210
0.0
220
0.0
230
1.0
  0
SOLID
  5
131C
  8
0
  6
CONTINUOUS
 10
-386.73787314860482
 20
522.56320094629973
 30
0.0
 11
-395.39812718644902
 21
522.56320094629973
 31
0.0
 12
-394.60353407345963
 22
521.52766704036685
 32
0.0
 13
-394.60353407345963
 23
521.52766704036685
 33
0.0
210
0.0
220
0.0
230
-1.0
  0
SOLID
  5
131D
  8
0
  6
CONTINUOUS
 10
387.53246626159421
 20
521.52766704036685
 30
0.0
 11
388.56800016752692
 21
520.73307392737752
 31
0.0
 12
393.56800016752692
 22
520.73307392737752
 32
0.0
 13
393.56800016752692
 23
520.73307392737752
 33
0.0
210
0.0
220
0.0
230
1.0
  0
SOLID
  5
131E
  8
0
  6
CONTINUOUS
 10
-387.53246626159421
 20
521.52766704036685
 30
0.0
 11
-394.60353407345963
 21
521.52766704036685
 31
0.0
 12
-393.56800016752692
 22
520.73307392737752
 32
0.0
 13
-393.56800016752692
 23
520.73307392737752
 33
0.0
210
0.0
220
0.0
230
-1.0
  0
SOLID
  5
131F
  8
0
  6
CONTINUOUS
 10
-389.77390494201433
 20
520.23357181485426
 30
0.0
 11
-392.36209539303951
 21
520.23357181485426
 31
0.0
 12
-391.0680001675268
 22
520.06320094629962
 32
0.0
 13
-391.0680001675268
 23
520.06320094629962
 33
0.0
210
0.0
220
0.0
230
-1.0
  0
SOLID
  5
1320
  8
0
  6
CONTINUOUS
 10
388.56800016752692
 20
520.73307392737752
 30
0.0
 11
389.77390494201433
 21
520.23357181485426
 31
0.0
 12
392.36209539303951
 22
520.23357181485426
 32
0.0
 13
392.36209539303951
 23
520.23357181485426
 33
0.0
210
0.0
220
0.0
230
1.0
  0
SOLID
  5
1321
  8
0
  6
CONTINUOUS
 10
-388.56800016752692
 20
520.73307392737752
 30
0.0
 11
-393.56800016752692
 21
520.73307392737752
 31
0.0
 12
-392.36209539303951
 22
520.23357181485426
 32
0.0
 13
-392.36209539303951
 23
520.23357181485426
 33
0.0
210
0.0
220
0.0
230
-1.0
  0
LINE
  5
1322
  8
0
  6
CONTINUOUS
 10
391.06800016752692
 20
530.06320094629939
 30
0.0
 11
389.77390494201433
 21
529.89283007774475
 31
0.0
  0
LINE
  5
1323
  8
0
  6
CONTINUOUS
 10
392.36209539303951
 20
529.89283007774475
 30
0.0
 11
391.06800016752692
 21
530.06320094629939
 31
0.0
  0
LINE
  5
1324
  8
0
  6
CONTINUOUS
 10
389.77390494201433
 20
529.89283007774475
 30
0.0
 11
388.56800016752641
 21
529.3933279652216
 31
0.0
  0
LINE
  5
1325
  8
0
  6
CONTINUOUS
 10
392.36209539303951
 20
529.89283007774475
 30
0.0
 11
393.56800016752692
 21
529.3933279652216
 31
0.0
  0
LINE
  5
1326
  8
0
  6
CONTINUOUS
 10
388.56800016752658
 20
529.3933279652216
 30
0.0
 11
387.53246626159421
 21
528.59873485223238
 31
0.0
  0
LINE
  5
1327
  8
0
  6
CONTINUOUS
 10
393.56800016752692
 20
529.3933279652216
 30
0.0
 11
394.60353407345963
 21
528.59873485223238
 31
0.0
  0
LINE
  5
1328
  8
0
  6
CONTINUOUS
 10
387.53246626159421
 20
528.59873485223238
 30
0.0
 11
386.73787314860459
 21
527.56320094629962
 31
0.0
  0
LINE
  5
1329
  8
0
  6
CONTINUOUS
 10
394.60353407345963
 20
528.59873485223238
 30
0.0
 11
395.39812718644902
 21
527.56320094629962
 31
0.0
  0
LINE
  5
132A
  8
0
  6
CONTINUOUS
 10
386.73787314860459
 20
527.56320094629962
 30
0.0
 11
386.23837103608139
 21
526.3572961718121
 31
0.0
  0
LINE
  5
132B
  8
0
  6
CONTINUOUS
 10
395.39812718644902
 20
527.56320094629962
 30
0.0
 11
395.89762929897211
 21
526.3572961718121
 31
0.0
  0
LINE
  5
132C
  8
0
  6
CONTINUOUS
 10
386.23837103608139
 20
526.3572961718121
 30
0.0
 11
386.0680001675268
 21
525.06320094629973
 31
0.0
  0
LINE
  5
132D
  8
0
  6
CONTINUOUS
 10
395.89762929897211
 20
526.3572961718121
 30
0.0
 11
396.06800016752669
 21
525.06320094629973
 31
0.0
  0
LINE
  5
132E
  8
0
  6
CONTINUOUS
 10
386.0680001675268
 20
525.06320094629973
 30
0.0
 11
386.2383710360815
 21
523.76910572078702
 31
0.0
  0
LINE
  5
132F
  8
0
  6
CONTINUOUS
 10
396.06800016752669
 20
525.06320094629973
 30
0.0
 11
395.89762929897211
 21
523.76910572078702
 31
0.0
  0
LINE
  5
1330
  8
0
  6
CONTINUOUS
 10
386.2383710360815
 20
523.76910572078702
 30
0.0
 11
386.73787314860482
 21
522.56320094629973
 31
0.0
  0
LINE
  5
1331
  8
0
  6
CONTINUOUS
 10
395.89762929897211
 20
523.76910572078702
 30
0.0
 11
395.39812718644902
 21
522.56320094629973
 31
0.0
  0
LINE
  5
1332
  8
0
  6
CONTINUOUS
 10
386.73787314860482
 20
522.56320094629973
 30
0.0
 11
387.53246626159421
 21
521.52766704036685
 31
0.0
  0
LINE
  5
1333
  8
0
  6
CONTINUOUS
 10
395.39812718644902
 20
522.56320094629973
 30
0.0
 11
394.60353407345963
 21
521.52766704036685
 31
0.0
  0
LINE
  5
1334
  8
0
  6
CONTINUOUS
 10
387.53246626159421
 20
521.52766704036685
 30
0.0
 11
388.56800016752692
 21
520.73307392737752
 31
0.0
  0
LINE
  5
1335
  8
0
  6
CONTINUOUS
 10
394.60353407345963
 20
521.52766704036685
 30
0.0
 11
393.56800016752692
 21
520.73307392737752
 31
0.0
  0
LINE
  5
1336
  8
0
  6
CONTINUOUS
 10
392.36209539303951
 20
520.23357181485426
 30
0.0
 11
391.0680001675268
 21
520.06320094629962
 31
0.0
  0
LINE
  5
1337
  8
0
  6
CONTINUOUS
 10
391.0680001675268
 20
520.06320094629962
 30
0.0
 11
389.77390494201433
 21
520.23357181485426
 31
0.0
  0
LINE
  5
1338
  8
0
  6
CONTINUOUS
 10
388.56800016752692
 20
520.73307392737752
 30
0.0
 11
389.77390494201433
 21
520.23357181485426
 31
0.0
  0
LINE
  5
1339
  8
0
  6
CONTINUOUS
 10
393.56800016752692
 20
520.73307392737752
 30
0.0
 11
392.36209539303951
 21
520.23357181485426
 31
0.0
  0
ENDBLK
  5
133B
  8
0
  0
BLOCK
  8
0
  2
*U18
 70
     1
 10
0.0
 20
0.0
 30
0.0
  3
*U18
  1

  0
TEXT
  5
133D
  8
0
 10
341.12126305199672
 20
-396.46785288654888
 30
0.0
 40
25.0
  1
Stop end flashing
  7
ARIAL
  0
ENDBLK
  5
133F
  8
0
  0
BLOCK
  8
0
  2
*U19
 70
     1
 10
0.0
 20
0.0
 30
0.0
  3
*U19
  1

  0
TEXT
  5
1341
  8
0
 10
1053.4662014661101
 20
-313.0924389911138
 30
0.0
 40
25.0
  1
Underlay over first batten
  7
ARIAL
  0
ENDBLK
  5
1343
  8
0
  0
BLOCK
  8
0
  2
*U20
 70
     1
 10
0.0
 20
0.0
 30
0.0
  3
*U20
  1

  0
TEXT
  5
1345
  8
0
 10
1220.8944452776659
 20
0.9906790276917689
 30
0.0
 40
25.0
  1
Tile batten
  7
ARIAL
  0
ENDBLK
  5
1347
  8
0
  0
BLOCK
  8
0
  2
*U21
 70
     1
 10
0.0
 20
0.0
 30
0.0
  3
*U21
  1

  0
TEXT
  5
1349
  8
0
 10
1339.1003229496571
 20
1094.1563149263809
 30
0.0
 40
25.0
  1
Wall cladding
  7
ARIAL
  0
ENDBLK
  5
134B
  8
0
  0
BLOCK
  8
0
  2
*U22
 70
     1
 10
0.0
 20
0.0
 30
0.0
  3
*U22
  1

  0
TEXT
  5
134D
  8
0
 10
1342.279677111447
 20
957.72699691821754
 30
0.0
 40
25.0
  1
Building paper
  7
ARIAL
  0
ENDBLK
  5
134F
  8
0
  0
BLOCK
  8
0
  2
*U23
 70
     1
 10
0.0
 20
0.0
 30
0.0
  3
*U23
  1

  0
TEXT
  5
1351
  8
0
 10
347.81901186515438
 20
-297.80807713126029
 30
0.0
 40
25.0
  1
The turn-up
  7
ARIAL
  0
ENDBLK
  5
1353
  8
0
  0
BLOCK
  8
0
  2
*U24
 70
     1
 10
0.0
 20
0.0
 30
0.0
  3
*U24
  1

  0
TEXT
  5
1355
  8
0
 10
1341.034793073248
 20
826.32210604255999
 30
0.0
 40
25.0
  1
112 A.E.Apron Flashing
  7
ARIAL
  0
TEXT
  5
1356
  8
0
 10
1342.7230604675181
 20
787.21661488227426
 30
0.0
 40
25.0
  1
(Side Flashing)
  7
ARIAL
  0
ENDBLK
  5
1358
  8
0
  0
BLOCK
  8
0
  2
*U25
 70
     1
 10
0.0
 20
0.0
 30
0.0
  3
*U25
  1

  0
TEXT
  5
135A
  8
0
 10
35.115730275204001
 20
782.47857992903153
 30
0.0
 40
25.0
  1
Wall cladding
  7
ARIAL
  0
ENDBLK
  5
135C
  8
0
  0
BLOCK
  8
0
  2
*U26
 70
     1
 10
0.0
 20
0.0
 30
0.0
  3
*U26
  1

  0
TEXT
  5
135E
  8
0
 10
33.900080447673723
 20
672.75805617854382
 30
0.0
 40
25.0
  1
Building paper
  7
ARIAL
  0
ENDBLK
  5
1360
  8
0
  0
ENDSEC
  0
SECTION
  2
ENTITIES
  0
INSERT
  5
8D0
  8
0
  2
*U6
 10
0.0
 20
0.0
 30
0.0
  0
INSERT
  5
937
  8
0
  6
CONTINUOUS
 62
   250
  2
*U7
 10
0.0
 20
0.0
 30
0.0
1001
REVIT
1002
{
1070
     3
1000
274314
1002
}
1001
ACAD
1002
{
1000
R14_HATCH_DATA
1000
937
1011
1.0
1021
0.0
1031
0.0
1021
0.0
1031
0.0
1011
0.0
1021
0.0
1031
0.0
1021
1.0
1031
0.0
1011
0.0
1021
0.0
1031
0.0
1021
0.0
1031
1.0
1040
0.0
1010
0.0
1020
0.0
1030
1.0
1000
SOLID
1070
     1
1070
     0
1071
        1
1071
        0
1071
       24
1070
     1
1040
1956.2198396383769
1040
248.4693581798274
1040
1956.866887251133
1040
248.55454361410469
1070
     1
1040
1956.866887251133
1040
248.55454361410469
1040
1957.4698396383769
1040
248.8042946703662
1070
     1
1040
1957.4698396383769
1040
248.8042946703662
1040
1957.9876065913429
1040
249.2015912268611
1070
     1
1040
1957.9876065913429
1040
249.2015912268611
1040
1958.3849031478389
1040
249.7193581798274
1070
     1
1040
1958.3849031478389
1040
249.7193581798274
1040
1958.634654204099
1040
250.32231056707101
1070
     1
1040
1958.634654204099
1040
250.32231056707101
1040
1958.7198396383769
1040
250.96935817982731
1070
     1
1040
1958.7198396383769
1040
250.96935817982731
1040
1958.634654204099
1040
251.61640579258361
1070
     1
1040
1958.634654204099
1040
251.61640579258361
1040
1958.3849031478389
1040
252.21935817982731
1070
     1
1040
1958.3849031478389
1040
252.21935817982731
1040
1957.9876065913429
1040
252.73712513279361
1070
     1
1040
1957.9876065913429
1040
252.73712513279361
1040
1957.4698396383781
1040
253.1344216892883
1070
     1
1040
1957.4698396383781
1040
253.1344216892883
1040
1956.866887251133
1040
253.38417274554999
1070
     1
1040
1956.866887251133
1040
253.38417274554999
1040
1956.2198396383769
1040
253.46935817982731
1070
     1
1040
1956.2198396383769
1040
253.46935817982731
1040
1955.5727920256211
1040
253.38417274554999
1070
     1
1040
1955.5727920256211
1040
253.38417274554999
1040
1954.9698396383769
1040
253.1344216892885
1070
     1
1040
1954.9698396383769
1040
253.1344216892885
1040
1954.45207268541
1040
252.73712513279361
1070
     1
1040
1954.45207268541
1040
252.73712513279361
1040
1954.054776128916
1040
252.2193581798274
1070
     1
1040
1954.054776128916
1040
252.2193581798274
1040
1953.8050250726551
1040
251.61640579258369
1070
     1
1040
1953.8050250726551
1040
251.61640579258369
1040
1953.7198396383769
1040
250.96935817982731
1070
     1
1040
1953.7198396383769
1040
250.96935817982731
1040
1953.8050250726551
1040
250.3223105670711
1070
     1
1040
1953.8050250726551
1040
250.3223105670711
1040
1954.054776128916
1040
249.7193581798274
1070
     1
1040
1954.054776128916
1040
249.7193581798274
1040
1954.45207268541
1040
249.2015912268611
1070
     1
1040
1954.45207268541
1040
249.2015912268611
1040
1954.9698396383769
1040
248.8042946703664
1070
     1
1040
1954.9698396383769
1040
248.8042946703664
1040
1955.5727920256211
1040
248.55454361410469
1070
     1
1040
1955.5727920256211
1040
248.55454361410469
1040
1956.2198396383769
1040
248.4693581798274
1071
        0
1070
     0
1070
     1
1071
        1
1040
-676.25418798418445
1040
0.0
1040
0.0
1002
}
  0
LINE
  5
938
  8
0
 62
   250
 10
1954.842867512019
 20
248.8827466291938
 30
0.0
 11
1891.446969227201
 21
152.8149968964122
 31
0.0
1001
REVIT
1002
{
1070
     3
1000
274314
1002
}
  0
INSERT
  5
939
  8
0
  2
*U8
 10
0.0
 20
0.0
 30
0.0
  0
INSERT
  5
93B
  8
0
  6
CONTINUOUS
  2
*U9
 10
0.0
 20
0.0
 30
0.0
1001
REVIT
1002
{
1070
     3
1000
422589
1002
}
1001
ACAD
1002
{
1000
R14_HATCH_DATA
1000
93B
1011
1.0
1021
0.0
1031
0.0
1021
0.0
1031
0.0
1011
0.0
1021
0.0
1031
0.0
1021
1.0
1031
0.0
1011
0.0
1021
0.0
1031
0.0
1021
0.0
1031
1.0
1040
0.0
1010
0.0
1020
0.0
1030
1.0
1000
SOLID
1070
     1
1070
     0
1071
        1
1071
        0
1071
       24
1070
     1
1040
183.04784361592471
1040
11.61010501468199
1040
184.3419388414373
1040
11.780475883236649
1070
     1
1040
184.3419388414373
1040
11.780475883236649
1040
185.54784361592471
1040
12.279977995759539
1070
     1
1040
185.54784361592471
1040
12.279977995759539
1040
186.58337752185739
1040
13.07457110874924
1070
     1
1040
186.58337752185739
1040
13.07457110874924
1040
187.377970634847
1040
14.11010501468169
1070
     1
1040
187.377970634847
1040
14.11010501468169
1040
187.87747274737009
1040
15.31600978916909
1070
     1
1040
187.87747274737009
1040
15.31600978916909
1040
188.04784361592479
1040
16.610105014681938
1070
     1
1040
188.04784361592479
1040
16.610105014681938
1040
187.87747274737009
1040
17.90420024019452
1070
     1
1040
187.87747274737009
1040
17.90420024019452
1040
187.377970634847
1040
19.11010501468191
1070
     1
1040
187.377970634847
1040
19.11010501468191
1040
186.58337752185739
1040
20.14563892061464
1070
     1
1040
186.58337752185739
1040
20.14563892061464
1040
185.54784361592479
1040
20.940232033604062
1070
     1
1040
185.54784361592479
1040
20.940232033604062
1040
184.3419388414375
1040
21.439734146127488
1070
     1
1040
184.3419388414375
1040
21.439734146127488
1040
183.04784361592479
1040
21.610105014681881
1070
     1
1040
183.04784361592479
1040
21.610105014681881
1040
181.7537483904122
1040
21.439734146127488
1070
     1
1040
181.7537483904122
1040
21.439734146127488
1040
180.54784361592479
1040
20.940232033604062
1070
     1
1040
180.54784361592479
1040
20.940232033604062
1040
179.512309709992
1040
20.14563892061464
1070
     1
1040
179.512309709992
1040
20.14563892061464
1040
178.71771659700261
1040
19.11010501468191
1070
     1
1040
178.71771659700261
1040
19.11010501468191
1040
178.2182144844794
1040
17.90420024019452
1070
     1
1040
178.2182144844794
1040
17.90420024019452
1040
178.04784361592459
1040
16.610105014681938
1070
     1
1040
178.04784361592459
1040
16.610105014681938
1040
178.2182144844794
1040
15.31600978916936
1070
     1
1040
178.2182144844794
1040
15.31600978916936
1040
178.71771659700249
1040
14.11010501468196
1070
     1
1040
178.71771659700249
1040
14.11010501468196
1040
179.512309709992
1040
13.07457110874924
1070
     1
1040
179.512309709992
1040
13.07457110874924
1040
180.54784361592479
1040
12.279977995759539
1070
     1
1040
180.54784361592479
1040
12.279977995759539
1040
181.7537483904122
1040
11.780475883236649
1070
     1
1040
181.7537483904122
1040
11.780475883236649
1040
183.04784361592471
1040
11.61010501468199
1071
        0
1070
     0
1070
     1
1071
        1
1040
0.0
1040
0.0
1040
0.0
1002
}
  0
INSERT
  5
93C
  8
0
  6
CONTINUOUS
  2
*U10
 10
0.0
 20
0.0
 30
0.0
1001
REVIT
1002
{
1070
     3
1000
422589
1002
}
1001
ACAD
1002
{
1000
R14_HATCH_DATA
1000
93C
1011
1.0
1021
0.0
1031
0.0
1021
0.0
1031
0.0
1011
0.0
1021
0.0
1031
0.0
1021
1.0
1031
0.0
1011
0.0
1021
0.0
1031
0.0
1021
0.0
1031
1.0
1040
0.0
1010
0.0
1020
0.0
1030
1.0
1000
SOLID
1070
     1
1070
     0
1071
        1
1071
        0
1071
       24
1070
     1
1040
828.74703457821852
1040
-199.97249433154559
1040
830.041129803731
1040
-199.80212346299069
1070
     1
1040
830.041129803731
1040
-199.80212346299069
1040
831.24703457821875
1040
-199.30262135046749
1070
     1
1040
831.24703457821875
1040
-199.30262135046749
1040
832.28256848415106
1040
-198.5080282374781
1070
     1
1040
832.28256848415106
1040
-198.5080282374781
1040
833.0771615971405
1040
-197.47249433154531
1070
     1
1040
833.0771615971405
1040
-197.47249433154531
1040
833.57666370966376
1040
-196.2665895570579
1070
     1
1040
833.57666370966376
1040
-196.2665895570579
1040
833.7470345782184
1040
-194.9724943315457
1070
     1
1040
833.7470345782184
1040
-194.9724943315457
1040
833.57666370966376
1040
-193.6783991060328
1070
     1
1040
833.57666370966376
1040
-193.6783991060328
1040
833.0771615971405
1040
-192.47249433154539
1070
     1
1040
833.0771615971405
1040
-192.47249433154539
1040
832.28256848415106
1040
-191.43696042561271
1070
     1
1040
832.28256848415106
1040
-191.43696042561271
1040
831.24703457821875
1040
-190.64236731262321
1070
     1
1040
831.24703457821875
1040
-190.64236731262321
1040
830.041129803731
1040
-190.14286520010009
1070
     1
1040
830.041129803731
1040
-190.14286520010009
1040
828.74703457821852
1040
-189.97249433154539
1070
     1
1040
828.74703457821852
1040
-189.97249433154539
1040
827.45293935270593
1040
-190.14286520010009
1070
     1
1040
827.45293935270593
1040
-190.14286520010009
1040
826.24703457821852
1040
-190.64236731262321
1070
     1
1040
826.24703457821852
1040
-190.64236731262321
1040
825.21150067228564
1040
-191.43696042561271
1070
     1
1040
825.21150067228564
1040
-191.43696042561271
1040
824.41690755929642
1040
-192.47249433154539
1070
     1
1040
824.41690755929642
1040
-192.47249433154539
1040
823.91740544677305
1040
-193.6783991060328
1070
     1
1040
823.91740544677305
1040
-193.6783991060328
1040
823.74703457821852
1040
-194.9724943315457
1070
     1
1040
823.74703457821852
1040
-194.9724943315457
1040
823.91740544677305
1040
-196.2665895570579
1070
     1
1040
823.91740544677305
1040
-196.2665895570579
1040
824.41690755929642
1040
-197.47249433154531
1070
     1
1040
824.41690755929642
1040
-197.47249433154531
1040
825.21150067228564
1040
-198.5080282374781
1070
     1
1040
825.21150067228564
1040
-198.5080282374781
1040
826.24703457821852
1040
-199.30262135046749
1070
     1
1040
826.24703457821852
1040
-199.30262135046749
1040
827.45293935270593
1040
-199.80212346299069
1070
     1
1040
827.45293935270593
1040
-199.80212346299069
1040
828.74703457821852
1040
-199.97249433154559
1071
        0
1070
     0
1070
     1
1071
        1
1040
0.0
1040
0.0
1040
0.0
1002
}
  0
INSERT
  5
93D
  8
0
  6
CONTINUOUS
  2
*U11
 10
0.0
 20
0.0
 30
0.0
1001
REVIT
1002
{
1070
     3
1000
422589
1002
}
1001
ACAD
1002
{
1000
R14_HATCH_DATA
1000
93D
1011
1.0
1021
0.0
1031
0.0
1021
0.0
1031
0.0
1011
0.0
1021
0.0
1031
0.0
1021
1.0
1031
0.0
1011
0.0
1021
0.0
1031
0.0
1021
0.0
1031
1.0
1040
0.0
1010
0.0
1020
0.0
1030
1.0
1000
SOLID
1070
     1
1070
     0
1071
        1
1071
        0
1071
       24
1070
     1
1040
1129.919293548616
1040
344.33616565338639
1040
1131.213388774129
1040
344.50653652194092
1070
     1
1040
1131.213388774129
1040
344.50653652194092
1040
1132.419293548616
1040
345.00603863446412
1070
     1
1040
1132.419293548616
1040
345.00603863446412
1040
1133.4548274545491
1040
345.80063174745362
1070
     1
1040
1133.4548274545491
1040
345.80063174745362
1040
1134.249420567538
1040
346.83616565338639
1070
     1
1040
1134.249420567538
1040
346.83616565338639
1040
1134.7489226800619
1040
348.04207042787363
1070
     1
1040
1134.7489226800619
1040
348.04207042787363
1040
1134.919293548616
1040
349.33616565338622
1070
     1
1040
1134.919293548616
1040
349.33616565338622
1040
1134.7489226800619
1040
350.63026087889892
1070
     1
1040
1134.7489226800619
1040
350.63026087889892
1040
1134.249420567538
1040
351.83616565338627
1070
     1
1040
1134.249420567538
1040
351.83616565338627
1040
1133.4548274545491
1040
352.87169955931898
1070
     1
1040
1133.4548274545491
1040
352.87169955931898
1040
1132.419293548616
1040
353.66629267230849
1070
     1
1040
1132.419293548616
1040
353.66629267230849
1040
1131.213388774129
1040
354.16579478483169
1070
     1
1040
1131.213388774129
1040
354.16579478483169
1040
1129.919293548616
1040
354.3361656533865
1070
     1
1040
1129.919293548616
1040
354.3361656533865
1040
1128.6251983231041
1040
354.16579478483169
1070
     1
1040
1128.6251983231041
1040
354.16579478483169
1040
1127.4192935486169
1040
353.66629267230849
1070
     1
1040
1127.4192935486169
1040
353.66629267230849
1040
1126.383759642684
1040
352.87169955931898
1070
     1
1040
1126.383759642684
1040
352.87169955931898
1040
1125.589166529694
1040
351.83616565338627
1070
     1
1040
1125.589166529694
1040
351.83616565338627
1040
1125.089664417171
1040
350.63026087889892
1070
     1
1040
1125.089664417171
1040
350.63026087889892
1040
1124.919293548616
1040
349.33616565338622
1070
     1
1040
1124.919293548616
1040
349.33616565338622
1040
1125.089664417171
1040
348.0420704278738
1070
     1
1040
1125.089664417171
1040
348.0420704278738
1040
1125.589166529694
1040
346.83616565338639
1070
     1
1040
1125.589166529694
1040
346.83616565338639
1040
1126.383759642684
1040
345.80063174745362
1070
     1
1040
1126.383759642684
1040
345.80063174745362
1040
1127.4192935486169
1040
345.00603863446418
1070
     1
1040
1127.4192935486169
1040
345.00603863446418
1040
1128.6251983231041
1040
344.50653652194092
1070
     1
1040
1128.6251983231041
1040
344.50653652194092
1040
1129.919293548616
1040
344.33616565338639
1071
        0
1070
     0
1070
     1
1071
        1
1040
0.0
1040
0.0
1040
0.0
1002
}
  0
INSERT
  5
93E
  8
0
  6
CONTINUOUS
  2
*U12
 10
0.0
 20
0.0
 30
0.0
1001
REVIT
1002
{
1070
     3
1000
422589
1002
}
1001
ACAD
1002
{
1000
R14_HATCH_DATA
1000
93E
1011
1.0
1021
0.0
1031
0.0
1021
0.0
1031
0.0
1011
0.0
1021
0.0
1031
0.0
1021
1.0
1031
0.0
1011
0.0
1021
0.0
1031
0.0
1021
0.0
1031
1.0
1040
0.0
1010
0.0
1020
0.0
1030
1.0
1000
SOLID
1070
     1
1070
     0
1071
        1
1071
        0
1071
       24
1070
     1
1040
905.10762165497158
1040
877.33232054309099
1040
906.40171688048451
1040
877.50269141164551
1070
     1
1040
906.40171688048451
1040
877.50269141164551
1040
907.60762165497192
1040
878.00219352416877
1070
     1
1040
907.60762165497192
1040
878.00219352416877
1040
908.64315556090457
1040
878.79678663715799
1070
     1
1040
908.64315556090457
1040
878.79678663715799
1040
909.43774867389402
1040
879.83232054309087
1070
     1
1040
909.43774867389402
1040
879.83232054309087
1040
909.93725078641717
1040
881.03822531757839
1070
     1
1040
909.93725078641717
1040
881.03822531757839
1040
910.10762165497192
1040
882.33232054309087
1070
     1
1040
910.10762165497192
1040
882.33232054309087
1040
909.93725078641717
1040
883.62641576860335
1070
     1
1040
909.93725078641717
1040
883.62641576860335
1040
909.43774867389402
1040
884.83232054309076
1070
     1
1040
909.43774867389402
1040
884.83232054309076
1040
908.64315556090457
1040
885.86785444902375
1070
     1
1040
908.64315556090457
1040
885.86785444902375
1040
907.60762165497192
1040
886.66244756201286
1070
     1
1040
907.60762165497192
1040
886.66244756201286
1040
906.40171688048451
1040
887.16194967453623
1070
     1
1040
906.40171688048451
1040
887.16194967453623
1040
905.10762165497158
1040
887.33232054309076
1070
     1
1040
905.10762165497158
1040
887.33232054309076
1040
903.81352642945933
1040
887.16194967453623
1070
     1
1040
903.81352642945933
1040
887.16194967453623
1040
902.60762165497204
1040
886.66244756201286
1070
     1
1040
902.60762165497204
1040
886.66244756201286
1040
901.57208774903927
1040
885.86785444902375
1070
     1
1040
901.57208774903927
1040
885.86785444902375
1040
900.77749463604982
1040
884.83232054309076
1070
     1
1040
900.77749463604982
1040
884.83232054309076
1040
900.27799252352656
1040
883.62641576860335
1070
     1
1040
900.27799252352656
1040
883.62641576860335
1040
900.10762165497192
1040
882.33232054309087
1070
     1
1040
900.10762165497192
1040
882.33232054309087
1040
900.27799252352656
1040
881.03822531757839
1070
     1
1040
900.27799252352656
1040
881.03822531757839
1040
900.77749463604982
1040
879.83232054309087
1070
     1
1040
900.77749463604982
1040
879.83232054309087
1040
901.57208774903927
1040
878.79678663715799
1070
     1
1040
901.57208774903927
1040
878.79678663715799
1040
902.60762165497204
1040
878.00219352416877
1070
     1
1040
902.60762165497204
1040
878.00219352416877
1040
903.81352642945933
1040
877.50269141164551
1070
     1
1040
903.81352642945933
1040
877.50269141164551
1040
905.10762165497158
1040
877.33232054309099
1071
        0
1070
     0
1070
     1
1071
        1
1040
0.0
1040
0.0
1040
0.0
1002
}
  0
INSERT
  5
93F
  8
0
  6
CONTINUOUS
  2
*U13
 10
0.0
 20
0.0
 30
0.0
1001
REVIT
1002
{
1070
     3
1000
422589
1002
}
1001
ACAD
1002
{
1000
R14_HATCH_DATA
1000
93F
1011
1.0
1021
0.0
1031
0.0
1021
0.0
1031
0.0
1011
0.0
1021
0.0
1031
0.0
1021
1.0
1031
0.0
1011
0.0
1021
0.0
1031
0.0
1021
0.0
1031
1.0
1040
0.0
1010
0.0
1020
0.0
1030
1.0
1000
SOLID
1070
     1
1070
     0
1071
        1
1071
        0
1071
       24
1070
     1
1040
1038.0492577123509
1040
798.5549202624436
1040
1039.343352937864
1040
798.72529113099824
1070
     1
1040
1039.343352937864
1040
798.72529113099824
1040
1040.5492577123509
1040
799.22479324352139
1070
     1
1040
1040.5492577123509
1040
799.22479324352139
1040
1041.584791618284
1040
800.01938635651084
1070
     1
1040
1041.584791618284
1040
800.01938635651084
1040
1042.3793847312729
1040
801.05492026244349
1070
     1
1040
1042.3793847312729
1040
801.05492026244349
1040
1042.8788868437971
1040
802.26082503693112
1070
     1
1040
1042.8788868437971
1040
802.26082503693112
1040
1043.0492577123509
1040
803.55492026244337
1070
     1
1040
1043.0492577123509
1040
803.55492026244337
1040
1042.8788868437971
1040
804.84901548795597
1070
     1
1040
1042.8788868437971
1040
804.84901548795597
1040
1042.3793847312729
1040
806.05492026244337
1070
     1
1040
1042.3793847312729
1040
806.05492026244337
1040
1041.584791618284
1040
807.09045416837625
1070
     1
1040
1041.584791618284
1040
807.09045416837625
1040
1040.5492577123509
1040
807.8850472813657
1070
     1
1040
1040.5492577123509
1040
807.8850472813657
1040
1039.343352937864
1040
808.38454939388885
1070
     1
1040
1039.343352937864
1040
808.38454939388885
1040
1038.0492577123509
1040
808.55492026244337
1070
     1
1040
1038.0492577123509
1040
808.55492026244337
1040
1036.755162486839
1040
808.38454939388885
1070
     1
1040
1036.755162486839
1040
808.38454939388885
1040
1035.5492577123509
1040
807.8850472813657
1070
     1
1040
1035.5492577123509
1040
807.8850472813657
1040
1034.513723806419
1040
807.09045416837625
1070
     1
1040
1034.513723806419
1040
807.09045416837625
1040
1033.719130693429
1040
806.05492026244337
1070
     1
1040
1033.719130693429
1040
806.05492026244337
1040
1033.2196285809059
1040
804.84901548795597
1070
     1
1040
1033.2196285809059
1040
804.84901548795597
1040
1033.0492577123521
1040
803.55492026244337
1070
     1
1040
1033.0492577123521
1040
803.55492026244337
1040
1033.2196285809059
1040
802.26082503693112
1070
     1
1040
1033.2196285809059
1040
802.26082503693112
1040
1033.719130693429
1040
801.05492026244349
1070
     1
1040
1033.719130693429
1040
801.05492026244349
1040
1034.513723806419
1040
800.01938635651084
1070
     1
1040
1034.513723806419
1040
800.01938635651084
1040
1035.5492577123509
1040
799.22479324352139
1070
     1
1040
1035.5492577123509
1040
799.22479324352139
1040
1036.755162486839
1040
798.72529113099824
1070
     1
1040
1036.755162486839
1040
798.72529113099824
1040
1038.0492577123509
1040
798.5549202624436
1071
        0
1070
     0
1070
     1
1071
        1
1040
0.0
1040
0.0
1040
0.0
1002
}
  0
INSERT
  5
940
  8
0
  6
CONTINUOUS
  2
*U14
 10
0.0
 20
0.0
 30
0.0
1001
REVIT
1002
{
1070
     3
1000
422589
1002
}
1001
ACAD
1002
{
1000
R14_HATCH_DATA
1000
940
1011
1.0
1021
0.0
1031
0.0
1021
0.0
1031
0.0
1011
0.0
1021
0.0
1031
0.0
1021
1.0
1031
0.0
1011
0.0
1021
0.0
1031
0.0
1021
0.0
1031
1.0
1040
0.0
1010
0.0
1020
0.0
1030
1.0
1000
SOLID
1070
     1
1070
     0
1071
        1
1071
        0
1071
       24
1070
     1
1040
289.49191099092769
1040
269.10260253700238
1040
290.78600621644023
1040
269.27297340555708
1070
     1
1040
290.78600621644023
1040
269.27297340555708
1040
291.99191099092752
1040
269.77247551808023
1070
     1
1040
291.99191099092752
1040
269.77247551808023
1040
293.02744489686029
1040
270.56706863106967
1070
     1
1040
293.02744489686029
1040
270.56706863106967
1040
293.82203800984979
1040
271.60260253700272
1070
     1
1040
293.82203800984979
1040
271.60260253700272
1040
294.32154012237288
1040
272.80850731149002
1070
     1
1040
294.32154012237288
1040
272.80850731149002
1040
294.49191099092752
1040
274.10260253700233
1070
     1
1040
294.49191099092752
1040
274.10260253700233
1040
294.32154012237288
1040
275.3966977625152
1070
     1
1040
294.32154012237288
1040
275.3966977625152
1040
293.82203800984979
1040
276.60260253700261
1070
     1
1040
293.82203800984979
1040
276.60260253700261
1040
293.02744489686029
1040
277.63813644293532
1070
     1
1040
293.02744489686029
1040
277.63813644293532
1040
291.99191099092758
1040
278.43272955592471
1070
     1
1040
291.99191099092758
1040
278.43272955592471
1040
290.78600621644023
1040
278.93223166844791
1070
     1
1040
290.78600621644023
1040
278.93223166844791
1040
289.49191099092769
1040
279.10260253700261
1070
     1
1040
289.49191099092769
1040
279.10260253700261
1040
288.1978157654151
1040
278.93223166844791
1070
     1
1040
288.1978157654151
1040
278.93223166844791
1040
286.99191099092769
1040
278.43272955592471
1070
     1
1040
286.99191099092769
1040
278.43272955592471
1040
285.95637708499481
1040
277.63813644293532
1070
     1
1040
285.95637708499481
1040
277.63813644293532
1040
285.16178397200542
1040
276.60260253700261
1070
     1
1040
285.16178397200542
1040
276.60260253700261
1040
284.66228185948228
1040
275.3966977625152
1070
     1
1040
284.66228185948228
1040
275.3966977625152
1040
284.49191099092781
1040
274.10260253700233
1070
     1
1040
284.49191099092781
1040
274.10260253700233
1040
284.66228185948228
1040
272.80850731149002
1070
     1
1040
284.66228185948228
1040
272.80850731149002
1040
285.16178397200542
1040
271.60260253700272
1070
     1
1040
285.16178397200542
1040
271.60260253700272
1040
285.95637708499481
1040
270.56706863106967
1070
     1
1040
285.95637708499481
1040
270.56706863106967
1040
286.99191099092758
1040
269.77247551808051
1070
     1
1040
286.99191099092758
1040
269.77247551808051
1040
288.19781576541487
1040
269.27297340555708
1070
     1
1040
288.19781576541487
1040
269.27297340555708
1040
289.49191099092769
1040
269.10260253700238
1071
        0
1070
     0
1070
     1
1071
        1
1040
0.0
1040
0.0
1040
0.0
1002
}
  0
INSERT
  5
941
  8
0
  6
CONTINUOUS
  2
*U15
 10
0.0
 20
0.0
 30
0.0
1001
REVIT
1002
{
1070
     3
1000
422589
1002
}
1001
ACAD
1002
{
1000
R14_HATCH_DATA
1000
941
1011
1.0
1021
0.0
1031
0.0
1021
0.0
1031
0.0
1011
0.0
1021
0.0
1031
0.0
1021
1.0
1031
0.0
1011
0.0
1021
0.0
1031
0.0
1021
0.0
1031
1.0
1040
0.0
1010
0.0
1020
0.0
1030
1.0
1000
SOLID
1070
     1
1070
     0
1071
        1
1071
        0
1071
       24
1070
     1
1040
1116.4569724222281
1040
746.34286879073727
1040
1117.75106764774
1040
746.51323965929203
1070
     1
1040
1117.75106764774
1040
746.51323965929203
1040
1118.9569724222281
1040
747.01274177181517
1070
     1
1040
1118.9569724222281
1040
747.01274177181517
1040
1119.9925063281601
1040
747.80733488480462
1070
     1
1040
1119.9925063281601
1040
747.80733488480462
1040
1120.7870994411501
1040
748.84286879073727
1070
     1
1040
1120.7870994411501
1040
748.84286879073727
1040
1121.2866015536731
1040
750.04877356522479
1070
     1
1040
1121.2866015536731
1040
750.04877356522479
1040
1121.456972422227
1040
751.34286879073727
1070
     1
1040
1121.456972422227
1040
751.34286879073727
1040
1121.2866015536731
1040
752.63696401624975
1070
     1
1040
1121.2866015536731
1040
752.63696401624975
1040
1120.7870994411501
1040
753.84286879073716
1070
     1
1040
1120.7870994411501
1040
753.84286879073716
1040
1119.9925063281601
1040
754.87840269667004
1070
     1
1040
1119.9925063281601
1040
754.87840269667004
1040
1118.9569724222281
1040
755.67299580965937
1070
     1
1040
1118.9569724222281
1040
755.67299580965937
1040
1117.75106764774
1040
756.17249792218263
1070
     1
1040
1117.75106764774
1040
756.17249792218263
1040
1116.4569724222281
1040
756.34286879073716
1070
     1
1040
1116.4569724222281
1040
756.34286879073716
1040
1115.162877196715
1040
756.17249792218263
1070
     1
1040
1115.162877196715
1040
756.17249792218263
1040
1113.9569724222281
1040
755.67299580965937
1070
     1
1040
1113.9569724222281
1040
755.67299580965937
1040
1112.921438516295
1040
754.87840269667004
1070
     1
1040
1112.921438516295
1040
754.87840269667004
1040
1112.126845403305
1040
753.84286879073716
1070
     1
1040
1112.126845403305
1040
753.84286879073716
1040
1111.6273432907819
1040
752.63696401624975
1070
     1
1040
1111.6273432907819
1040
752.63696401624975
1040
1111.456972422227
1040
751.34286879073727
1070
     1
1040
1111.456972422227
1040
751.34286879073727
1040
1111.6273432907819
1040
750.04877356522479
1070
     1
1040
1111.6273432907819
1040
750.04877356522479
1040
1112.126845403305
1040
748.84286879073727
1070
     1
1040
1112.126845403305
1040
748.84286879073727
1040
1112.921438516295
1040
747.80733488480462
1070
     1
1040
1112.921438516295
1040
747.80733488480462
1040
1113.9569724222281
1040
747.01274177181517
1070
     1
1040
1113.9569724222281
1040
747.01274177181517
1040
1115.162877196715
1040
746.51323965929203
1070
     1
1040
1115.162877196715
1040
746.51323965929203
1040
1116.4569724222281
1040
746.34286879073727
1071
        0
1070
     0
1070
     1
1071
        1
1040
0.0
1040
0.0
1040
0.0
1002
}
  0
INSERT
  5
942
  8
0
  6
CONTINUOUS
  2
*U16
 10
0.0
 20
0.0
 30
0.0
1001
REVIT
1002
{
1070
     3
1000
422583
1002
}
1001
ACAD
1002
{
1000
R14_HATCH_DATA
1000
942
1011
1.0
1021
0.0
1031
0.0
1021
0.0
1031
0.0
1011
0.0
1021
0.0
1031
0.0
1021
1.0
1031
0.0
1011
0.0
1021
0.0
1031
0.0
1021
0.0
1031
1.0
1040
0.0
1010
0.0
1020
0.0
1030
1.0
1000
SOLID
1070
     1
1070
     0
1071
        1
1071
        0
1071
       24
1070
     1
1040
544.12193497804185
1040
740.31608225443051
1040
545.41603020355456
1040
740.48645312298515
1070
     1
1040
545.41603020355456
1040
740.48645312298515
1040
546.62193497804185
1040
740.9859552355083
1070
     1
1040
546.62193497804185
1040
740.9859552355083
1040
547.65746888397462
1040
741.78054834849775
1070
     1
1040
547.65746888397462
1040
741.78054834849775
1040
548.45206199696395
1040
742.81608225443028
1070
     1
1040
548.45206199696395
1040
742.81608225443028
1040
548.95156410948732
1040
744.02198702891781
1070
     1
1040
548.95156410948732
1040
744.02198702891781
1040
549.12193497804185
1040
745.3160822544304
1070
     1
1040
549.12193497804185
1040
745.3160822544304
1040
548.95156410948732
1040
746.61017747994299
1070
     1
1040
548.95156410948732
1040
746.61017747994299
1040
548.45206199696395
1040
747.81608225443028
1070
     1
1040
548.45206199696395
1040
747.81608225443028
1040
547.65746888397462
1040
748.85161616036305
1070
     1
1040
547.65746888397462
1040
748.85161616036305
1040
546.62193497804185
1040
749.6462092733525
1070
     1
1040
546.62193497804185
1040
749.6462092733525
1040
545.41603020355456
1040
750.14571138587564
1070
     1
1040
545.41603020355456
1040
750.14571138587564
1040
544.12193497804185
1040
750.31608225443017
1070
     1
1040
544.12193497804185
1040
750.31608225443017
1040
542.82783975252937
1040
750.14571138587564
1070
     1
1040
542.82783975252937
1040
750.14571138587564
1040
541.62193497804185
1040
749.6462092733525
1070
     1
1040
541.62193497804185
1040
749.6462092733525
1040
540.58640107210908
1040
748.85161616036305
1070
     1
1040
540.58640107210908
1040
748.85161616036305
1040
539.79180795911975
1040
747.81608225443028
1070
     1
1040
539.79180795911975
1040
747.81608225443028
1040
539.29230584659649
1040
746.61017747994299
1070
     1
1040
539.29230584659649
1040
746.61017747994299
1040
539.12193497804185
1040
745.3160822544304
1070
     1
1040
539.12193497804185
1040
745.3160822544304
1040
539.29230584659649
1040
744.02198702891781
1070
     1
1040
539.29230584659649
1040
744.02198702891781
1040
539.79180795911975
1040
742.81608225443028
1070
     1
1040
539.79180795911975
1040
742.81608225443028
1040
540.58640107210908
1040
741.78054834849775
1070
     1
1040
540.58640107210908
1040
741.78054834849775
1040
541.62193497804185
1040
740.9859552355083
1070
     1
1040
541.62193497804185
1040
740.9859552355083
1040
542.82783975252937
1040
740.48645312298515
1070
     1
1040
542.82783975252937
1040
740.48645312298515
1040
544.12193497804185
1040
740.31608225443051
1071
        0
1070
     0
1070
     1
1071
        1
1040
0.0
1040
0.0
1040
0.0
1002
}
  0
INSERT
  5
943
  8
0
  6
CONTINUOUS
  2
*U17
 10
0.0
 20
0.0
 30
0.0
1001
REVIT
1002
{
1070
     3
1000
422583
1002
}
1001
ACAD
1002
{
1000
R14_HATCH_DATA
1000
943
1011
1.0
1021
0.0
1031
0.0
1021
0.0
1031
0.0
1011
0.0
1021
0.0
1031
0.0
1021
1.0
1031
0.0
1011
0.0
1021
0.0
1031
0.0
1021
0.0
1031
1.0
1040
0.0
1010
0.0
1020
0.0
1030
1.0
1000
SOLID
1070
     1
1070
     0
1071
        1
1071
        0
1071
       24
1070
     1
1040
391.0680001675268
1040
520.06320094629962
1040
392.36209539303951
1040
520.23357181485426
1070
     1
1040
392.36209539303951
1040
520.23357181485426
1040
393.56800016752692
1040
520.73307392737752
1070
     1
1040
393.56800016752692
1040
520.73307392737752
1040
394.60353407345963
1040
521.52766704036685
1070
     1
1040
394.60353407345963
1040
521.52766704036685
1040
395.39812718644902
1040
522.56320094629973
1070
     1
1040
395.39812718644902
1040
522.56320094629973
1040
395.89762929897211
1040
523.76910572078702
1070
     1
1040
395.89762929897211
1040
523.76910572078702
1040
396.06800016752669
1040
525.06320094629973
1070
     1
1040
396.06800016752669
1040
525.06320094629973
1040
395.89762929897211
1040
526.3572961718121
1070
     1
1040
395.89762929897211
1040
526.3572961718121
1040
395.39812718644902
1040
527.56320094629962
1070
     1
1040
395.39812718644902
1040
527.56320094629962
1040
394.60353407345963
1040
528.59873485223238
1070
     1
1040
394.60353407345963
1040
528.59873485223238
1040
393.56800016752692
1040
529.3933279652216
1070
     1
1040
393.56800016752692
1040
529.3933279652216
1040
392.36209539303951
1040
529.89283007774475
1070
     1
1040
392.36209539303951
1040
529.89283007774475
1040
391.06800016752692
1040
530.06320094629939
1070
     1
1040
391.06800016752692
1040
530.06320094629939
1040
389.77390494201433
1040
529.89283007774475
1070
     1
1040
389.77390494201433
1040
529.89283007774475
1040
388.56800016752692
1040
529.39332796522194
1070
     1
1040
388.56800016752692
1040
529.39332796522194
1040
387.53246626159421
1040
528.59873485223238
1070
     1
1040
387.53246626159421
1040
528.59873485223238
1040
386.73787314860482
1040
527.56320094629984
1070
     1
1040
386.73787314860482
1040
527.56320094629984
1040
386.2383710360815
1040
526.35729617181244
1070
     1
1040
386.2383710360815
1040
526.35729617181244
1040
386.0680001675268
1040
525.06320094629973
1070
     1
1040
386.0680001675268
1040
525.06320094629973
1040
386.2383710360815
1040
523.76910572078702
1070
     1
1040
386.2383710360815
1040
523.76910572078702
1040
386.73787314860482
1040
522.56320094629973
1070
     1
1040
386.73787314860482
1040
522.56320094629973
1040
387.53246626159421
1040
521.52766704036685
1070
     1
1040
387.53246626159421
1040
521.52766704036685
1040
388.56800016752692
1040
520.73307392737752
1070
     1
1040
388.56800016752692
1040
520.73307392737752
1040
389.77390494201433
1040
520.23357181485426
1070
     1
1040
389.77390494201433
1040
520.23357181485426
1040
391.0680001675268
1040
520.06320094629962
1071
        0
1070
     0
1070
     1
1071
        1
1040
0.0
1040
0.0
1040
0.0
1002
}
  0
LINE
  5
944
  8
0
 10
184.79388356681631
 20
11.924878820580689
 30
0.0
 11
332.69015800424768
 21
-384.93173299426462
 31
0.0
1001
REVIT
1002
{
1070
     3
1000
422589
1002
}
  0
LINE
  5
945
  8
0
 10
833.23677310176561
 20
-197.1730051790916
 30
0.0
 11
1046.211767632549
 21
-301.55631909882959
 31
0.0
1001
REVIT
1002
{
1070
     3
1000
422589
1002
}
  0
LINE
  5
946
  8
0
 10
1131.0992412986791
 20
344.47738768900842
 30
0.0
 11
1211.7129991657971
 21
12.52679891997604
 31
0.0
1001
REVIT
1002
{
1070
     3
1000
422589
1002
}
  0
LINE
  5
947
  8
0
 10
909.53229149485514
 20
884.66090311796643
 30
0.0
 11
1329.5266530997251
 21
1105.692434818666
 31
0.0
1001
REVIT
1002
{
1070
     3
1000
422589
1002
}
  0
LINE
  5
948
  8
0
 10
1042.4148777349169
 20
805.99241114828442
 30
0.0
 11
1334.837658011857
 21
969.26311681050186
 31
0.0
1001
REVIT
1002
{
1070
     3
1000
422589
1002
}
  0
LINE
  5
949
  8
0
 10
289.92874144941129
 20
269.12172117417663
 30
0.0
 11
338.6375657532854
 21
-286.27195723897597
 31
0.0
1001
REVIT
1002
{
1070
     3
1000
422589
1002
}
  0
LINE
  5
94A
  8
0
 10
1121.2408763816211
 20
752.79691930818444
 30
0.0
 11
1334.837658011857
 21
817.71889798729705
 31
0.0
1001
REVIT
1002
{
1070
     3
1000
422589
1002
}
  0
LINE
  5
94B
  8
0
 10
539.21017569872583
 20
746.2512938786399
 30
0.0
 11
288.35534639884099
 21
794.01469982131584
 31
0.0
1001
REVIT
1002
{
1070
     3
1000
422583
1002
}
  0
LINE
  5
94C
  8
0
 10
388.32010423159562
 20
529.24040909592395
 30
0.0
 11
288.35534639884099
 21
681.20162263177292
 31
0.0
1001
REVIT
1002
{
1070
     3
1000
422583
1002
}
  0
INSERT
  5
94D
  8
0
  2
*U18
 10
0.0
 20
0.0
 30
0.0
  0
INSERT
  5
94E
  8
0
  2
*U19
 10
0.0
 20
0.0
 30
0.0
  0
INSERT
  5
94F
  8
0
  2
*U20
 10
0.0
 20
0.0
 30
0.0
  0
INSERT
  5
950
  8
0
  2
*U21
 10
0.0
 20
0.0
 30
0.0
  0
INSERT
  5
951
  8
0
  2
*U22
 10
0.0
 20
0.0
 30
0.0
  0
INSERT
  5
952
  8
0
  2
*U23
 10
0.0
 20
0.0
 30
0.0
  0
INSERT
  5
953
  8
0
  2
*U24
 10
0.0
 20
0.0
 30
0.0
  0
INSERT
  5
954
  8
0
  2
*U25
 10
0.0
 20
0.0
 30
0.0
  0
INSERT
  5
955
  8
0
  2
*U26
 10
0.0
 20
0.0
 30
0.0
  0
ARC
  5
EA6
  8
0
 10
179.5204009541155
 20
15.8741580519865
 30
0.0
 40
3.6000000000000019
 50
196.14657674123089
 51
244.01748877495061
1001
REVIT
1002
{
1070
     3
1000
422583
1002
}
  0
POLYLINE
  5
EA8
  8
0
 66
     1
 10
0.0
 20
0.0
 30
0.0
 70
   128
1001
REVIT
1002
{
1070
     3
1000
422583
1002
}
  0
VERTEX
  5
1361
  8
0
 10
833.2767618811796
 20
-226.42765454102661
 30
0.0
  0
VERTEX
  5
1362
  8
0
 10
932.60599049396717
 20
-270.78554435527462
 30
0.0
  0
VERTEX
  5
1363
  8
0
 10
932.60599049396717
 20
-280.66840794635522
 30
0.0
  0
VERTEX
  5
1364
  8
0
 10
929.15208626899414
 20
-284.25772251629388
 30
0.0
  0
VERTEX
  5
1365
  8
0
 10
929.15208626899414
 20
-286.89315280724878
 30
0.0
  0
VERTEX
  5
1366
  8
0
 10
932.60599049396717
 20
-285.28041095552618
 30
0.0
  0
VERTEX
  5
1367
  8
0
 10
929.50189374237937
 20
-283.89420083789349
 30
0.0
  0
SEQEND
  5
1368
  8
0
  0
POLYLINE
  5
EA9
  8
0
 66
     1
 10
0.0
 20
0.0
 30
0.0
 70
   128
1001
REVIT
1002
{
1070
     3
1000
422583
1002
}
  0
VERTEX
  5
1369
  8
0
 10
827.9579606210981
 20
-235.7821049559349
 30
0.0
  0
VERTEX
  5
136A
  8
0
 10
924.71135226545653
 20
-278.98969194370591
 30
0.0
  0
VERTEX
  5
136B
  8
0
 10
932.60599049396717
 20
-270.78554435527462
 30
0.0
  0
SEQEND
  5
136C
  8
0
  0
POLYLINE
  5
EAA
  8
0
 66
     1
 10
0.0
 20
0.0
 30
0.0
 70
   128
1001
REVIT
1002
{
1070
     3
1000
422583
1002
}
  0
VERTEX
  5
136D
  8
0
 10
827.12400112645378
 20
-238.1936065039676
 30
0.0
  0
VERTEX
  5
136E
  8
0
 10
923.72452248689285
 20
-281.33292553773731
 30
0.0
  0
VERTEX
  5
136F
  8
0
 10
923.72452248689285
 20
-397.29185833975009
 30
0.0
  0
VERTEX
  5
1370
  8
0
 10
188.76497280939211
 20
-69.077744751768805
 30
0.0
  0
VERTEX
  5
1371
  8
0
 10
188.76497280939211
 20
7.364000641532864
 30
0.0
  0
SEQEND
  5
1372
  8
0
  0
POLYLINE
  5
EAB
  8
0
 66
     1
 10
0.0
 20
0.0
 30
0.0
 70
   128
1001
REVIT
1002
{
1070
     3
1000
422583
1002
}
  0
VERTEX
  5
1373
  8
0
 10
930.36503432375196
 20
-378.49629021933282
 30
0.0
  0
VERTEX
  5
1374
  8
0
 10
932.60599049396717
 20
-379.49704385716149
 30
0.0
  0
VERTEX
  5
1375
  8
0
 10
932.60599049396717
 20
-389.37990744824219
 30
0.0
  0
VERTEX
  5
1376
  8
0
 10
924.71135226545653
 20
-397.58405503667348
 30
0.0
  0
SEQEND
  5
1377
  8
0
  0
POLYLINE
  5
EAC
  8
0
 66
     1
 10
0.0
 20
0.0
 30
0.0
 70
   128
1001
REVIT
1002
{
1070
     3
1000
422583
1002
}
  0
VERTEX
  5
1378
  8
0
 10
932.60599049396717
 20
-285.28041095552618
 30
0.0
  0
VERTEX
  5
1379
  8
0
 10
932.60599049396717
 20
-374.88504084799058
 30
0.0
  0
VERTEX
  5
137A
  8
0
 10
929.15208626899368
 20
-380.45092813614542
 30
0.0
  0
VERTEX
  5
137B
  8
0
 10
929.15208626899368
 20
-383.08635842710032
 30
0.0
  0
VERTEX
  5
137C
  8
0
 10
932.60599049396717
 20
-379.49704385716149
 30
0.0
  0
SEQEND
  5
137D
  8
0
  0
POLYLINE
  5
EAD
  8
0
 66
     1
 10
0.0
 20
0.0
 30
0.0
 70
   128
1001
REVIT
1002
{
1070
     3
1000
422583
1002
}
  0
VERTEX
  5
137E
  8
0
 10
166.34739160978111
 20
48.42907473748226
 30
0.0
  0
VERTEX
  5
137F
  8
0
 10
61.459830017249118
 20
-141.4322646967006
 30
0.0
  0
VERTEX
  5
1380
  8
0
 10
-13.80913749492812
 20
-107.8190713399614
 30
0.0
  0
VERTEX
  5
1381
  8
0
 10
-26.144509726975802
 20
-92.108682173511653
 30
0.0
  0
VERTEX
  5
1382
  8
0
 10
49.124457785201379
 20
-125.7218755302507
 30
0.0
  0
VERTEX
  5
1383
  8
0
 10
61.459830017249089
 20
-141.4322646967006
 30
0.0
  0
SEQEND
  5
1384
  8
0
  0
POLYLINE
  5
EAE
  8
0
 66
     1
 10
0.0
 20
0.0
 30
0.0
 70
   128
1001
REVIT
1002
{
1070
     3
1000
422583
1002
}
  0
VERTEX
  5
1385
  8
0
 10
-26.144509726975802
 20
-92.108682173511596
 30
0.0
  0
VERTEX
  5
1386
  8
0
 10
122.377473304289
 20
176.73713906202249
 30
0.0
  0
VERTEX
  5
1387
  8
0
 10
177.5482194980878
 20
152.09929665840889
 30
0.0
  0
SEQEND
  5
1388
  8
0
  0
POLYLINE
  5
EAF
  8
0
 66
     1
 10
0.0
 20
0.0
 30
0.0
 70
   128
1001
REVIT
1002
{
1070
     3
1000
422583
1002
}
  0
VERTEX
  5
1389
  8
0
 10
222.3171852805618
 20
357.64217003408959
 30
0.0
  0
VERTEX
  5
138A
  8
0
 10
409.5449388663618
 20
696.55091703259097
 30
0.0
  0
VERTEX
  5
138B
  8
0
 10
412.88646511342711
 20
695.05867698251905
 30
0.0
  0
SEQEND
  5
138C
  8
0
  0
LINE
  5
EB0
  8
0
 10
49.124457785201358
 20
-125.7218755302507
 30
0.0
 11
159.1213572214532
 21
73.388088925828782
 31
0.0
1001
REVIT
1002
{
1070
     3
1000
422583
1002
}
  0
POLYLINE
  5
EB1
  8
0
 66
     1
 10
0.0
 20
0.0
 30
0.0
 70
   128
1001
REVIT
1002
{
1070
     3
1000
422583
1002
}
  0
VERTEX
  5
138D
  8
0
 10
857.25842685188218
 20
-184.2986393972536
 30
0.0
  0
VERTEX
  5
138E
  8
0
 10
953.97148193014846
 20
-227.48821310757231
 30
0.0
  0
VERTEX
  5
138F
  8
0
 10
963.83977971578679
 20
-240.05652444073209
 30
0.0
  0
VERTEX
  5
1390
  8
0
 10
942.4742882796055
 20
-278.731089471632
 30
0.0
  0
VERTEX
  5
1391
  8
0
 10
932.60599049396717
 20
-274.32416039402932
 30
0.0
  0
SEQEND
  5
1392
  8
0
  0
POLYLINE
  5
EB2
  8
0
 66
     1
 10
0.0
 20
0.0
 30
0.0
 70
   128
1001
REVIT
1002
{
1070
     3
1000
422583
1002
}
  0
VERTEX
  5
1393
  8
0
 10
835.37487962559135
 20
-222.74185397898341
 30
0.0
  0
VERTEX
  5
1394
  8
0
 10
932.60599049396751
 20
-266.16277813847211
 30
0.0
  0
VERTEX
  5
1395
  8
0
 10
953.97148193014846
 20
-227.48821310757231
 30
0.0
  0
SEQEND
  5
1396
  8
0
  0
LINE
  5
EB3
  8
0
 10
942.4742882796055
 20
-278.731089471632
 30
0.0
 11
932.60599049396751
 21
-266.16277813847211
 31
0.0
1001
REVIT
1002
{
1070
     3
1000
422583
1002
}
  0
LINE
  5
EB4
  8
0
 10
905.12075456273044
 20
-205.6727292648751
 30
0.0
 11
1026.788010710047
 21
14.562233457873541
 31
0.0
1001
REVIT
1002
{
1070
     3
1000
422583
1002
}
  0
LINE
  5
EB5
  8
0
 10
1051.7699883397149
 20
59.78315062353095
 30
0.0
 11
1184.0380276803389
 21
299.20703208529721
 31
0.0
1001
REVIT
1002
{
1070
     3
1000
422583
1002
}
  0
LINE
  5
EB6
  8
0
 10
1209.0200053100091
 20
344.4279492509549
 30
0.0
 11
1341.2880446506319
 21
583.85183071272093
 31
0.0
1001
REVIT
1002
{
1070
     3
1000
422583
1002
}
  0
LINE
  5
EB7
  8
0
 10
1353.7821848663921
 20
684.03769972524663
 30
0.0
 11
1353.7821848663921
 21
634.64949627117835
 31
0.0
1001
REVIT
1002
{
1070
     3
1000
422583
1002
}
  0
POLYLINE
  5
EB8
  8
0
 66
     1
 10
0.0
 20
0.0
 30
0.0
 70
   128
1001
REVIT
1002
{
1070
     3
1000
422583
1002
}
  0
VERTEX
  5
1397
  8
0
 10
1183.208294713337
 20
710.82342745202288
 30
0.0
  0
VERTEX
  5
1398
  8
0
 10
1445.0184956883791
 20
593.90569629386562
 30
0.0
  0
VERTEX
  5
1399
  8
0
 10
1454.8867934740169
 20
581.33738496070578
 30
0.0
  0
VERTEX
  5
139A
  8
0
 10
1433.521302037836
 20
542.66281992980555
 30
0.0
  0
VERTEX
  5
139B
  8
0
 10
1254.6769387635049
 20
622.53013261122942
 30
0.0
  0
SEQEND
  5
139C
  8
0
  0
POLYLINE
  5
EB9
  8
0
 66
     1
 10
0.0
 20
0.0
 30
0.0
 70
   128
1001
REVIT
1002
{
1070
     3
1000
422583
1002
}
  0
VERTEX
  5
139D
  8
0
 10
1258.5124709135539
 20
628.97866443125065
 30
0.0
  0
VERTEX
  5
139E
  8
0
 10
1423.653004252197
 20
555.23113126296573
 30
0.0
  0
VERTEX
  5
139F
  8
0
 10
1445.0184956883791
 20
593.90569629386562
 30
0.0
  0
SEQEND
  5
13A0
  8
0
  0
LINE
  5
EBA
  8
0
 10
1433.521302037836
 20
542.66281992980555
 30
0.0
 11
1423.653004252197
 21
555.23113126296573
 31
0.0
1001
REVIT
1002
{
1070
     3
1000
422583
1002
}
  0
LINE
  5
EBB
  8
0
 10
820.39932296824031
 20
-167.42862456337409
 30
0.0
 11
857.10489812543847
 21
-183.82039444954441
 31
0.0
1001
REVIT
1002
{
1070
     3
1000
422583
1002
}
  0
POLYLINE
  5
EBC
  8
0
 66
     1
 10
0.0
 20
0.0
 30
0.0
 70
   128
1001
REVIT
1002
{
1070
     3
1000
422583
1002
}
  0
VERTEX
  5
13A1
  8
0
 10
790.12641152969343
 20
-218.32529940774211
 30
0.0
  0
VERTEX
  5
13A2
  8
0
 10
827.86874631253102
 20
-235.18005959274171
 30
0.0
  0
VERTEX
  5
13A3
  8
0
 10
857.10489812543847
 20
-183.82039444954441
 30
0.0
  0
VERTEX
  5
13A4
  8
0
 10
975.38365082227494
 20
-0.1564480824757766
 30
0.0
  0
VERTEX
  5
13A5
  8
0
 10
992.07806530622179
 20
30.062806201506032
 30
0.0
  0
SEQEND
  5
13A6
  8
0
  0
POLYLINE
  5
EBD
  8
0
 66
     1
 10
0.0
 20
0.0
 30
0.0
 70
   128
1001
REVIT
1002
{
1070
     3
1000
422583
1002
}
  0
VERTEX
  5
13A7
  8
0
 10
788.38961123891465
 20
-221.24531454566011
 30
0.0
  0
VERTEX
  5
13A8
  8
0
 10
826.67952897109137
 20
-238.34461125299259
 30
0.0
  0
VERTEX
  5
13A9
  8
0
 10
824.41858782303621
 20
-250.45786174662339
 30
0.0
  0
VERTEX
  5
13AA
  8
0
 10
782.22234518471021
 20
-231.61410037178479
 30
0.0
  0
SEQEND
  5
13AB
  8
0
  0
LINE
  5
EBE
  8
0
 10
1306.9152188462861
 20
599.20185447639346
 30
0.0
 11
1174.6471795056621
 21
359.77797301462721
 31
0.0
1001
REVIT
1002
{
1070
     3
1000
422583
1002
}
  0
LINE
  5
EBF
  8
0
 10
1149.6652018759919
 20
314.55705584896958
 30
0.0
 11
1017.397162535368
 21
75.13317438720351
 31
0.0
1001
REVIT
1002
{
1070
     3
1000
422583
1002
}
  0
POLYLINE
  5
EC0
  8
0
 66
     1
 10
0.0
 20
0.0
 30
0.0
 70
   128
1001
REVIT
1002
{
1070
     3
1000
422583
1002
}
  0
VERTEX
  5
13AC
  8
0
 10
992.4151849056999
 20
29.91225722154595
 30
0.0
  0
VERTEX
  5
13AD
  8
0
 10
975.59687228431733
 20
-0.5312702362023032
 30
0.0
  0
VERTEX
  5
13AE
  8
0
 10
857.31105530342859
 20
-184.20618606530641
 30
0.0
  0
VERTEX
  5
13AF
  8
0
 10
828.10229670487934
 20
-235.51772906419311
 30
0.0
  0
SEQEND
  5
13B0
  8
0
  0
POLYLINE
  5
EC1
  8
0
 66
     1
 10
0.0
 20
0.0
 30
0.0
 70
   128
1001
REVIT
1002
{
1070
     3
1000
422583
1002
}
  0
VERTEX
  5
13B1
  8
0
 10
827.15092283172771
 20
-238.0493703923938
 30
0.0
  0
VERTEX
  5
13B2
  8
0
 10
824.88998168367243
 20
-250.1626208860246
 30
0.0
  0
VERTEX
  5
13B3
  8
0
 10
824.41858782303621
 20
-250.45786174662339
 30
0.0
  0
SEQEND
  5
13B4
  8
0
  0
LINE
  5
EC2
  8
0
 10
348.6673198262867
 20
-37.999528791525577
 30
0.0
 11
359.90154758355249
 21
-43.016447214878859
 31
0.0
1001
REVIT
1002
{
1070
     3
1000
422583
1002
}
  0
LINE
  5
EC3
  8
0
 10
368.25170063749141
 20
-46.745411732892343
 30
0.0
 11
378.4097746342278
 21
-51.281747445603131
 31
0.0
1001
REVIT
1002
{
1070
     3
1000
422583
1002
}
  0
LINE
  5
EC4
  8
0
 10
467.5922884955267
 20
-91.108374295173476
 30
0.0
 11
478.82651625279033
 21
-96.125292718525941
 31
0.0
1001
REVIT
1002
{
1070
     3
1000
422583
1002
}
  0
LINE
  5
EC5
  8
0
 10
487.17666930673221
 20
-99.854257236540562
 30
0.0
 11
497.33474330346729
 21
-104.3905929492509
 31
0.0
1001
REVIT
1002
{
1070
     3
1000
422583
1002
}
  0
LINE
  5
EC6
  8
0
 10
586.51725716476653
 20
-144.21721979882139
 30
0.0
 11
597.75148492202914
 21
-149.2341382221733
 31
0.0
1001
REVIT
1002
{
1070
     3
1000
422583
1002
}
  0
LINE
  5
EC7
  8
0
 10
606.10163797597249
 20
-152.96310274018859
 30
0.0
 11
616.2597119727053
 21
-157.499438452898
 31
0.0
1001
REVIT
1002
{
1070
     3
1000
422583
1002
}
  0
LINE
  5
EC8
  8
0
 10
705.44222583400688
 20
-197.3260653024696
 30
0.0
 11
716.67645359126789
 21
-202.3429837258206
 31
0.0
1001
REVIT
1002
{
1070
     3
1000
422583
1002
}
  0
LINE
  5
EC9
  8
0
 10
725.02660664521295
 20
-206.0719482438368
 30
0.0
 11
735.18468064194428
 21
-210.60828395654551
 31
0.0
1001
REVIT
1002
{
1070
     3
1000
422583
1002
}
  0
LINE
  5
ECA
  8
0
 10
1017.06004293589
 20
75.283723367163333
 30
0.0
 11
1149.328082276515
 21
314.70760482892968
 31
0.0
1001
REVIT
1002
{
1070
     3
1000
422583
1002
}
  0
LINE
  5
ECB
  8
0
 10
1174.3100599061829
 20
359.9285219945873
 30
0.0
 11
1306.5780992468069
 21
599.35240345635339
 31
0.0
1001
REVIT
1002
{
1070
     3
1000
422583
1002
}
  0
POLYLINE
  5
ECC
  8
0
 66
     1
 10
0.0
 20
0.0
 30
0.0
 70
   128
1001
REVIT
1002
{
1070
     3
1000
422583
1002
}
  0
VERTEX
  5
13B5
  8
0
 10
1331.5600768764759
 20
644.57332062201135
 30
0.0
  0
VERTEX
  5
13B6
  8
0
 10
1370.314418583245
 20
714.72416704859984
 30
0.0
  0
VERTEX
  5
13B7
  8
0
 10
1370.314418583245
 20
713.96338385464321
 30
0.0
  0
VERTEX
  5
13B8
  8
0
 10
1331.8971964759539
 20
644.42277164205098
 30
0.0
  0
SEQEND
  5
13B9
  8
0
  0
LINE
  5
ECD
  8
0
 10
931.53770072888688
 20
19.424030395066239
 30
0.0
 11
975.38365082227483
 21
-0.1564480824757481
 31
0.0
1001
REVIT
1002
{
1070
     3
1000
422583
1002
}
  0
LINE
  5
ECE
  8
0
 10
1082.408573697862
 20
843.29554450375213
 30
0.0
 11
1370.314418583245
 21
714.72416704859984
 31
0.0
1001
REVIT
1002
{
1070
     3
1000
422583
1002
}
  0
POLYLINE
  5
ECF
  8
0
 66
     1
 10
0.0
 20
0.0
 30
0.0
 70
   128
1001
REVIT
1002
{
1070
     3
1000
422583
1002
}
  0
VERTEX
  5
13BA
  8
0
 10
338.13303552328938
 20
367.84997839474858
 30
0.0
  0
VERTEX
  5
13BB
  8
0
 10
338.13303552328938
 20
558.04577688390714
 30
0.0
  0
VERTEX
  5
13BC
  8
0
 10
337.38034584816751
 20
558.38190881747437
 30
0.0
  0
VERTEX
  5
13BD
  8
0
 10
337.38034584816751
 20
368.18611032831609
 30
0.0
  0
VERTEX
  5
13BE
  8
0
 10
338.13303552328938
 20
367.84997839474858
 30
0.0
  0
VERTEX
  5
13BF
  8
0
 10
511.97885953563792
 20
682.53553787269755
 30
0.0
  0
SEQEND
  5
13C0
  8
0
  0
POLYLINE
  5
ED0
  8
0
 66
     1
 10
0.0
 20
0.0
 30
0.0
 70
   128
1001
REVIT
1002
{
1070
     3
1000
422583
1002
}
  0
VERTEX
  5
13C1
  8
0
 10
1081.9403437785741
 20
930.68317377030326
 30
0.0
  0
VERTEX
  5
13C2
  8
0
 10
1082.408573697862
 20
931.1731562843247
 30
0.0
  0
VERTEX
  5
13C3
  8
0
 10
650.00354476804864
 20
1124.2741689093871
 30
0.0
  0
VERTEX
  5
13C4
  8
0
 10
337.38034584816762
 20
558.38190881747437
 30
0.0
  0
SEQEND
  5
13C5
  8
0
  0
LINE
  5
ED1
  8
0
 10
338.13303552328932
 20
558.04577688390725
 30
0.0
 11
511.92129808992348
 21
872.62714199393304
 31
0.0
1001
REVIT
1002
{
1070
     3
1000
422583
1002
}
  0
POLYLINE
  5
ED2
  8
0
 66
     1
 10
0.0
 20
0.0
 30
0.0
 70
   128
1001
REVIT
1002
{
1070
     3
1000
422583
1002
}
  0
VERTEX
  5
13C6
  8
0
 10
956.99569530524161
 20
805.6079450189518
 30
0.0
  0
VERTEX
  5
13C7
  8
0
 10
1081.9403437785741
 20
749.81086467047317
 30
0.0
  0
VERTEX
  5
13C8
  8
0
 10
1081.9403437785741
 20
930.68317377030326
 30
0.0
  0
VERTEX
  5
13C9
  8
0
 10
650.44645598397517
 20
1123.3772940974679
 30
0.0
  0
VERTEX
  5
13CA
  8
0
 10
650.44645598397517
 20
1119.9800804321469
 30
0.0
  0
SEQEND
  5
13CB
  8
0
  0
POLYLINE
  5
ED3
  8
0
 66
     1
 10
0.0
 20
0.0
 30
0.0
 70
   128
1001
REVIT
1002
{
1070
     3
1000
422583
1002
}
  0
VERTEX
  5
13CC
  8
0
 10
526.97509159235938
 20
675.83860466893691
 30
0.0
  0
VERTEX
  5
13CD
  8
0
 10
526.97509159235938
 20
866.03440315809507
 30
0.0
  0
VERTEX
  5
13CE
  8
0
 10
511.92129808992348
 20
872.75704182944264
 30
0.0
  0
VERTEX
  5
13CF
  8
0
 10
511.92129808992348
 20
682.56124334028436
 30
0.0
  0
VERTEX
  5
13D0
  8
0
 10
526.97509159235938
 20
675.83860466893691
 30
0.0
  0
VERTEX
  5
13D1
  8
0
 10
655.99360663099446
 20
909.38038698441721
 30
0.0
  0
VERTEX
  5
13D2
  8
0
 10
949.05199324578302
 20
778.50801634238155
 30
0.0
  0
SEQEND
  5
13D3
  8
0
  0
POLYLINE
  5
ED4
  8
0
 66
     1
 10
0.0
 20
0.0
 30
0.0
 70
   128
1001
REVIT
1002
{
1070
     3
1000
422583
1002
}
  0
VERTEX
  5
13D4
  8
0
 10
526.97509159235892
 20
866.03440315809507
 30
0.0
  0
VERTEX
  5
13D5
  8
0
 10
655.99360663099446
 20
1099.5761854735749
 30
0.0
  0
VERTEX
  5
13D6
  8
0
 10
655.99360663099446
 20
909.38038698441721
 30
0.0
  0
SEQEND
  5
13D7
  8
0
  0
POLYLINE
  5
ED5
  8
0
 66
     1
 10
0.0
 20
0.0
 30
0.0
 70
   128
1001
REVIT
1002
{
1070
     3
1000
422583
1002
}
  0
VERTEX
  5
13D8
  8
0
 10
509.48465084263478
 20
869.91507225947055
 30
0.0
  0
VERTEX
  5
13D9
  8
0
 10
509.48465084263478
 20
904.88147138547617
 30
0.0
  0
VERTEX
  5
13DA
  8
0
 10
434.21568333045741
 20
938.49466474221515
 30
0.0
  0
VERTEX
  5
13DB
  8
0
 10
409.5449388663618
 20
912.85670352836735
 30
0.0
  0
VERTEX
  5
13DC
  8
0
 10
409.5449388663618
 20
696.55091703259063
 30
0.0
  0
SEQEND
  5
13DD
  8
0
  0
POLYLINE
  5
ED6
  8
0
 66
     1
 10
0.0
 20
0.0
 30
0.0
 70
   128
1001
REVIT
1002
{
1070
     3
1000
422583
1002
}
  0
VERTEX
  5
13DE
  8
0
 10
484.81390637853917
 20
825.25753119670651
 30
0.0
  0
VERTEX
  5
13DF
  8
0
 10
484.81390637853917
 20
879.24351017162803
 30
0.0
  0
VERTEX
  5
13E0
  8
0
 10
509.48465084263478
 20
904.88147138547617
 30
0.0
  0
SEQEND
  5
13E1
  8
0
  0
LINE
  5
ED7
  8
0
 10
409.5449388663618
 20
912.85670352836735
 30
0.0
 11
484.81390637853917
 21
879.24351017162803
 31
0.0
1001
REVIT
1002
{
1070
     3
1000
422583
1002
}
  0
POLYLINE
  5
ED8
  8
0
 66
     1
 10
0.0
 20
0.0
 30
0.0
 70
   128
1001
REVIT
1002
{
1070
     3
1000
422583
1002
}
  0
VERTEX
  5
13E2
  8
0
 10
222.3171852805618
 20
233.13746438285369
 30
0.0
  0
VERTEX
  5
13E3
  8
0
 10
222.3171852805618
 20
606.45560285628812
 30
0.0
  0
VERTEX
  5
13E4
  8
0
 10
147.0482177683846
 20
640.06879621302744
 30
0.0
  0
VERTEX
  5
13E5
  8
0
 10
122.3774733042891
 20
614.43083499917941
 30
0.0
  0
VERTEX
  5
13E6
  8
0
 10
122.3774733042891
 20
176.73713906202249
 30
0.0
  0
SEQEND
  5
13E7
  8
0
  0
POLYLINE
  5
ED9
  8
0
 66
     1
 10
0.0
 20
0.0
 30
0.0
 70
   128
1001
REVIT
1002
{
1070
     3
1000
422583
1002
}
  0
VERTEX
  5
13E8
  8
0
 10
197.6464408164662
 20
188.47992332009011
 30
0.0
  0
VERTEX
  5
13E9
  8
0
 10
197.6464408164662
 20
580.81764164244021
 30
0.0
  0
VERTEX
  5
13EA
  8
0
 10
222.3171852805618
 20
606.45560285628812
 30
0.0
  0
SEQEND
  5
13EB
  8
0
  0
LINE
  5
EDA
  8
0
 10
122.3774733042891
 20
614.43083499917941
 30
0.0
 11
197.6464408164662
 21
580.81764164244021
 31
0.0
1001
REVIT
1002
{
1070
     3
1000
422583
1002
}
  0
POLYLINE
  5
EDB
  8
0
 66
     1
 10
0.0
 20
0.0
 30
0.0
 70
   128
1001
REVIT
1002
{
1070
     3
1000
422583
1002
}
  0
VERTEX
  5
13EC
  8
0
 10
210.45008076395379
 20
-79.266879051970037
 30
0.0
  0
VERTEX
  5
13ED
  8
0
 10
197.64644081646651
 20
-92.5724858141608
 30
0.0
  0
VERTEX
  5
13EE
  8
0
 10
197.64644081646651
 20
-73.549101334940332
 30
0.0
  0
SEQEND
  5
13EF
  8
0
  0
POLYLINE
  5
EDC
  8
0
 66
     1
 10
0.0
 20
0.0
 30
0.0
 70
   128
1001
REVIT
1002
{
1070
     3
1000
422583
1002
}
  0
VERTEX
  5
13F0
  8
0
 10
197.64644081646651
 20
-92.5724858141608
 30
0.0
  0
VERTEX
  5
13F1
  8
0
 10
122.3774733042893
 20
-58.959292457421682
 30
0.0
  0
VERTEX
  5
13F2
  8
0
 10
122.3774733042893
 20
-31.162703901851291
 30
0.0
  0
SEQEND
  5
13F3
  8
0
  0
POLYLINE
  5
EDD
  8
0
 66
     1
 10
0.0
 20
0.0
 30
0.0
 70
   128
1001
REVIT
1002
{
1070
     3
1000
422583
1002
}
  0
VERTEX
  5
13F4
  8
0
 10
494.29727001483047
 20
602.77281835415886
 30
0.0
  0
VERTEX
  5
13F5
  8
0
 10
497.09617480710972
 20
593.50298798478752
 30
0.0
  0
VERTEX
  5
13F6
  8
0
 10
495.09270065744528
 20
590.13462440464241
 30
0.0
  0
VERTEX
  5
13F7
  8
0
 10
490.02507242877738
 20
584.86831976750966
 30
0.0
  0
VERTEX
  5
13F8
  8
0
 10
490.02507242877738
 20
609.50053345854849
 30
0.0
  0
SEQEND
  5
13F9
  8
0
  0
POLYLINE
  5
EDE
  8
0
 66
     1
 10
0.0
 20
0.0
 30
0.0
 70
   128
1001
REVIT
1002
{
1070
     3
1000
422583
1002
}
  0
VERTEX
  5
13FA
  8
0
 10
559.65820580284731
 20
575.83072317490212
 30
0.0
  0
VERTEX
  5
13FB
  8
0
 10
548.94887844634445
 20
584.92575915809641
 30
0.0
  0
VERTEX
  5
13FC
  8
0
 10
545.89210845763762
 20
595.04962594758672
 30
0.0
  0
SEQEND
  5
13FD
  8
0
  0
POLYLINE
  5
EDF
  8
0
 66
     1
 10
0.0
 20
0.0
 30
0.0
 70
   128
1001
REVIT
1002
{
1070
     3
1000
422583
1002
}
  0
VERTEX
  5
13FE
  8
0
 10
567.27738522767424
 20
585.49950898946088
 30
0.0
  0
VERTEX
  5
13FF
  8
0
 10
570.33415521638165
 20
575.37564219997046
 30
0.0
  0
VERTEX
  5
1400
  8
0
 10
559.65820580284731
 20
575.83072317490212
 30
0.0
  0
VERTEX
  5
1401
  8
0
 10
556.59121317816403
 20
585.98844681500304
 30
0.0
  0
VERTEX
  5
1402
  8
0
 10
545.88137910490832
 20
595.08391313401125
 30
0.0
  0
SEQEND
  5
1403
  8
0
  0
POLYLINE
  5
EE0
  8
0
 66
     1
 10
0.0
 20
0.0
 30
0.0
 70
   128
1001
REVIT
1002
{
1070
     3
1000
422583
1002
}
  0
VERTEX
  5
1404
  8
0
 10
711.62661055831143
 20
848.75656563527014
 30
0.0
  0
VERTEX
  5
1405
  8
0
 10
557.46802490108303
 20
589.57569944764964
 30
0.0
  0
VERTEX
  5
1406
  8
0
 10
547.2476667965974
 20
598.25547191393673
 30
0.0
  0
VERTEX
  5
1407
  8
0
 10
698.01652319518655
 20
851.73731743624705
 30
0.0
  0
SEQEND
  5
1408
  8
0
  0
POLYLINE
  5
EE1
  8
0
 66
     1
 10
0.0
 20
0.0
 30
0.0
 70
   129
1001
REVIT
1002
{
1070
     3
1000
422583
1002
}
  0
VERTEX
  5
1409
  8
0
 10
528.93851516362406
 20
580.54208325527554
 30
0.0
  0
VERTEX
  5
140A
  8
0
 10
547.71016487813199
 20
585.27285236402258
 30
0.0
  0
VERTEX
  5
140B
  8
0
 10
544.64317225344826
 20
595.43057600412328
 30
0.0
  0
VERTEX
  5
140C
  8
0
 10
514.11744559147326
 20
587.73758327781411
 30
0.0
  0
VERTEX
  5
140D
  8
0
 10
516.18251412098846
 20
580.8981813008204
 30
0.0
  0
SEQEND
  5
140E
  8
0
  0
POLYLINE
  5
EE2
  8
0
 66
     1
 10
0.0
 20
0.0
 30
0.0
 70
   128
1001
REVIT
1002
{
1070
     3
1000
422583
1002
}
  0
VERTEX
  5
140F
  8
0
 10
674.24122057562829
 20
859.02764294783981
 30
0.0
  0
VERTEX
  5
1410
  8
0
 10
515.01731254453546
 20
591.3306462133495
 30
0.0
  0
VERTEX
  5
1411
  8
0
 10
544.95345022145693
 20
598.87505267261429
 30
0.0
  0
VERTEX
  5
1412
  8
0
 10
695.70493746361615
 20
852.32769610417301
 30
0.0
  0
SEQEND
  5
1413
  8
0
  0
POLYLINE
  5
EE3
  8
0
 66
     1
 10
0.0
 20
0.0
 30
0.0
 70
   129
1001
REVIT
1002
{
1070
     3
1000
422583
1002
}
  0
VERTEX
  5
1414
  8
0
 10
497.46205037898687
 20
593.29740344189372
 30
0.0
  0
VERTEX
  5
1415
  8
0
 10
514.68291310945472
 20
581.37254119626812
 30
0.0
  0
VERTEX
  5
1416
  8
0
 10
512.65532673609789
 20
588.08780417774301
 30
0.0
  0
VERTEX
  5
1417
  8
0
 10
494.66217816034032
 20
602.57043787820578
 30
0.0
  0
SEQEND
  5
1418
  8
0
  0
POLYLINE
  5
EE4
  8
0
 66
     1
 10
0.0
 20
0.0
 30
0.0
 70
   128
1001
REVIT
1002
{
1070
     3
1000
422583
1002
}
  0
VERTEX
  5
1419
  8
0
 10
651.79573515789525
 20
868.55818294325138
 30
0.0
  0
VERTEX
  5
141A
  8
0
 10
495.66284697277189
 20
606.05799829461409
 30
0.0
  0
VERTEX
  5
141B
  8
0
 10
513.49631448980415
 20
591.70389142049794
 30
0.0
  0
SEQEND
  5
141C
  8
0
  0
LINE
  5
EE5
  8
0
 10
513.60116950037366
 20
591.89195388807957
 30
0.0
 11
672.80599777386942
 21
859.55687256425324
 31
0.0
1001
REVIT
1002
{
1070
     3
1000
422583
1002
}
  0
POLYLINE
  5
EE6
  8
0
 66
     1
 10
0.0
 20
0.0
 30
0.0
 70
   128
1001
REVIT
1002
{
1070
     3
1000
422583
1002
}
  0
VERTEX
  5
141D
  8
0
 10
557.46802490108303
 20
589.57569944764975
 30
0.0
  0
VERTEX
  5
141E
  8
0
 10
567.65652904139631
 20
589.14139667815675
 30
0.0
  0
VERTEX
  5
141F
  8
0
 10
720.73077538545965
 20
846.49920512799918
 30
0.0
  0
SEQEND
  5
1420
  8
0
  0
LINE
  5
EE7
  8
0
 10
556.59121317816403
 20
585.98844681500282
 30
0.0
 11
567.2676677291596
 21
585.53334430770542
 31
0.0
1001
REVIT
1002
{
1070
     3
1000
422583
1002
}
  0
POLYLINE
  5
EE8
  8
0
 66
     1
 10
0.0
 20
0.0
 30
0.0
 70
   128
1001
REVIT
1002
{
1070
     3
1000
422583
1002
}
  0
VERTEX
  5
1421
  8
0
 10
722.913659601071
 20
845.54847146476561
 30
0.0
  0
VERTEX
  5
1422
  8
0
 10
569.63777920324947
 20
587.85166348088455
 30
0.0
  0
VERTEX
  5
1423
  8
0
 10
591.89326877311134
 20
556.99981284862508
 30
0.0
  0
VERTEX
  5
1424
  8
0
 10
750.28873472141527
 20
823.30398195896362
 30
0.0
  0
SEQEND
  5
1425
  8
0
  0
POLYLINE
  5
EE9
  8
0
 66
     1
 10
0.0
 20
0.0
 30
0.0
 70
   129
1001
REVIT
1002
{
1070
     3
1000
422583
1002
}
  0
VERTEX
  5
1426
  8
0
 10
571.40678065262546
 20
574.69055059670359
 30
0.0
  0
VERTEX
  5
1427
  8
0
 10
568.33978802794252
 20
584.8482742368036
 30
0.0
  0
VERTEX
  5
1428
  8
0
 10
591.03359705133539
 20
553.38879975214252
 30
0.0
  0
VERTEX
  5
1429
  8
0
 10
593.09866558085025
 20
546.54939777514744
 30
0.0
  0
VERTEX
  5
142A
  8
0
 10
585.36223004756835
 20
555.34469712143789
 30
0.0
  0
SEQEND
  5
142B
  8
0
  0
POLYLINE
  5
EEA
  8
0
 66
     1
 10
0.0
 20
0.0
 30
0.0
 70
   128
1001
REVIT
1002
{
1070
     3
1000
422583
1002
}
  0
VERTEX
  5
142C
  8
0
 10
593.30457602754905
 20
556.06356559698395
 30
0.0
  0
VERTEX
  5
142D
  8
0
 10
613.55192644131148
 20
553.41175438030814
 30
0.0
  0
VERTEX
  5
142E
  8
0
 10
768.14392255002463
 20
813.32129679281479
 30
0.0
  0
SEQEND
  5
142F
  8
0
  0
LINE
  5
EEB
  8
0
 10
751.70765868338935
 20
822.37079645922518
 30
0.0
 11
593.419543528742
 21
556.24711208522046
 31
0.0
1001
REVIT
1002
{
1070
     3
1000
422583
1002
}
  0
POLYLINE
  5
EEC
  8
0
 66
     1
 10
0.0
 20
0.0
 30
0.0
 70
   129
1001
REVIT
1002
{
1070
     3
1000
422583
1002
}
  0
VERTEX
  5
1430
  8
0
 10
612.81573671970557
 20
549.80608437488092
 30
0.0
  0
VERTEX
  5
1431
  8
0
 10
592.38709131396524
 20
552.48163993752951
 30
0.0
  0
VERTEX
  5
1432
  8
0
 10
594.41467768732196
 20
545.76637695605484
 30
0.0
  0
VERTEX
  5
1433
  8
0
 10
615.61560893835224
 20
540.53304993856875
 30
0.0
  0
SEQEND
  5
1434
  8
0
  0
POLYLINE
  5
EED
  8
0
 66
     1
 10
0.0
 20
0.0
 30
0.0
 70
   128
1001
REVIT
1002
{
1070
     3
1000
422583
1002
}
  0
VERTEX
  5
1435
  8
0
 10
678.58317447208685
 20
522.72187767125399
 30
0.0
  0
VERTEX
  5
1436
  8
0
 10
667.87384711558389
 20
531.8169136544484
 30
0.0
  0
VERTEX
  5
1437
  8
0
 10
664.8170771268766
 20
541.94078044393848
 30
0.0
  0
SEQEND
  5
1438
  8
0
  0
POLYLINE
  5
EEE
  8
0
 66
     1
 10
0.0
 20
0.0
 30
0.0
 70
   128
1001
REVIT
1002
{
1070
     3
1000
422583
1002
}
  0
VERTEX
  5
1439
  8
0
 10
686.20235389691379
 20
532.39066348581241
 30
0.0
  0
VERTEX
  5
143A
  8
0
 10
689.25912388562119
 20
522.26679669632267
 30
0.0
  0
VERTEX
  5
143B
  8
0
 10
678.58317447208674
 20
522.72187767125331
 30
0.0
  0
VERTEX
  5
143C
  8
0
 10
675.51618184740335
 20
532.87960131135435
 30
0.0
  0
VERTEX
  5
143D
  8
0
 10
664.80634777414707
 20
541.97506763036256
 30
0.0
  0
SEQEND
  5
143E
  8
0
  0
POLYLINE
  5
EEF
  8
0
 66
     1
 10
0.0
 20
0.0
 30
0.0
 70
   128
1001
REVIT
1002
{
1070
     3
1000
422583
1002
}
  0
VERTEX
  5
143F
  8
0
 10
831.41868437161543
 20
797.1055504649521
 30
0.0
  0
VERTEX
  5
1440
  8
0
 10
676.39299357032223
 20
536.46685394400095
 30
0.0
  0
VERTEX
  5
1441
  8
0
 10
666.17263546583695
 20
545.14662641028792
 30
0.0
  0
VERTEX
  5
1442
  8
0
 10
818.14811110074163
 20
800.65711417457135
 30
0.0
  0
SEQEND
  5
1443
  8
0
  0
POLYLINE
  5
EF0
  8
0
 66
     1
 10
0.0
 20
0.0
 30
0.0
 70
   129
1001
REVIT
1002
{
1070
     3
1000
422583
1002
}
  0
VERTEX
  5
1444
  8
0
 10
663.56814092268758
 20
542.3217305004747
 30
0.0
  0
VERTEX
  5
1445
  8
0
 10
633.04241426071246
 20
534.6287377741661
 30
0.0
  0
VERTEX
  5
1446
  8
0
 10
635.10748279022812
 20
527.78933579717068
 30
0.0
  0
VERTEX
  5
1447
  8
0
 10
647.86348383286315
 20
527.43323775162708
 30
0.0
  0
VERTEX
  5
1448
  8
0
 10
666.63513354737086
 20
532.16400686037434
 30
0.0
  0
SEQEND
  5
1449
  8
0
  0
POLYLINE
  5
EF1
  8
0
 66
     1
 10
0.0
 20
0.0
 30
0.0
 70
   128
1001
REVIT
1002
{
1070
     3
1000
422583
1002
}
  0
VERTEX
  5
144A
  8
0
 10
792.55903338620283
 20
804.89800978783865
 30
0.0
  0
VERTEX
  5
144B
  8
0
 10
633.94228121377478
 20
538.22180070970126
 30
0.0
  0
VERTEX
  5
144C
  8
0
 10
663.87841889069591
 20
545.76620716896605
 30
0.0
  0
VERTEX
  5
144D
  8
0
 10
815.7681749660278
 20
801.13257795393918
 30
0.0
  0
SEQEND
  5
144E
  8
0
  0
POLYLINE
  5
EF2
  8
0
 66
     1
 10
0.0
 20
0.0
 30
0.0
 70
   129
1001
REVIT
1002
{
1070
     3
1000
422583
1002
}
  0
VERTEX
  5
144F
  8
0
 10
616.38701904822653
 20
540.18855793824514
 30
0.0
  0
VERTEX
  5
1450
  8
0
 10
633.60788177869415
 20
528.26369569261988
 30
0.0
  0
VERTEX
  5
1451
  8
0
 10
631.5802954053371
 20
534.97895867409522
 30
0.0
  0
VERTEX
  5
1452
  8
0
 10
613.58714682958009
 20
549.46159237455754
 30
0.0
  0
SEQEND
  5
1453
  8
0
  0
POLYLINE
  5
EF3
  8
0
 66
     1
 10
0.0
 20
0.0
 30
0.0
 70
   128
1001
REVIT
1002
{
1070
     3
1000
422583
1002
}
  0
VERTEX
  5
1454
  8
0
 10
769.17573238597663
 20
812.85183672533969
 30
0.0
  0
VERTEX
  5
1455
  8
0
 10
614.58781564201115
 20
552.94915279096608
 30
0.0
  0
VERTEX
  5
1456
  8
0
 10
632.42128315904336
 20
538.59504591684981
 30
0.0
  0
SEQEND
  5
1457
  8
0
  0
LINE
  5
EF4
  8
0
 10
632.52613816961298
 20
538.78310838443144
 30
0.0
 11
791.0306493703597
 21
805.27061105910718
 31
0.0
1001
REVIT
1002
{
1070
     3
1000
422583
1002
}
  0
POLYLINE
  5
EF5
  8
0
 66
     1
 10
0.0
 20
0.0
 30
0.0
 70
   128
1001
REVIT
1002
{
1070
     3
1000
422583
1002
}
  0
VERTEX
  5
1458
  8
0
 10
676.39299357032223
 20
536.46685394400095
 30
0.0
  0
VERTEX
  5
1459
  8
0
 10
686.58149771063529
 20
536.0325511745084
 30
0.0
  0
VERTEX
  5
145A
  8
0
 10
839.99010887123075
 20
793.95251425493325
 30
0.0
  0
SEQEND
  5
145B
  8
0
  0
LINE
  5
EF6
  8
0
 10
675.51618184740335
 20
532.87960131135435
 30
0.0
 11
686.19263639839915
 21
532.42449880405695
 31
0.0
1001
REVIT
1002
{
1070
     3
1000
422583
1002
}
  0
POLYLINE
  5
EF7
  8
0
 66
     1
 10
0.0
 20
0.0
 30
0.0
 70
   128
1001
REVIT
1002
{
1070
     3
1000
422583
1002
}
  0
VERTEX
  5
145C
  8
0
 10
842.18830154119075
 20
793.02751810376378
 30
0.0
  0
VERTEX
  5
145D
  8
0
 10
688.56274787248913
 20
534.74281797723654
 30
0.0
  0
VERTEX
  5
145E
  8
0
 10
710.81823744235066
 20
503.89096734497718
 30
0.0
  0
VERTEX
  5
145F
  8
0
 10
870.44319818391762
 20
772.26223848620475
 30
0.0
  0
SEQEND
  5
1460
  8
0
  0
POLYLINE
  5
EF8
  8
0
 66
     1
 10
0.0
 20
0.0
 30
0.0
 70
   129
1001
REVIT
1002
{
1070
     3
1000
422583
1002
}
  0
VERTEX
  5
1461
  8
0
 10
690.33174932186591
 20
521.58170509305455
 30
0.0
  0
VERTEX
  5
1462
  8
0
 10
687.26475669718229
 20
531.7394287331548
 30
0.0
  0
VERTEX
  5
1463
  8
0
 10
709.95856572057505
 20
500.27995424849399
 30
0.0
  0
VERTEX
  5
1464
  8
0
 10
712.02363425009059
 20
493.44055227149909
 30
0.0
  0
VERTEX
  5
1465
  8
0
 10
704.28719871680835
 20
502.2358516177901
 30
0.0
  0
SEQEND
  5
1466
  8
0
  0
POLYLINE
  5
EF9
  8
0
 66
     1
 10
0.0
 20
0.0
 30
0.0
 70
   128
1001
REVIT
1002
{
1070
     3
1000
422583
1002
}
  0
VERTEX
  5
1467
  8
0
 10
712.22954469678859
 20
502.95472009333571
 30
0.0
  0
VERTEX
  5
1468
  8
0
 10
732.47689511055114
 20
500.30290887666013
 30
0.0
  0
VERTEX
  5
1469
  8
0
 10
887.66155411311968
 20
761.208872484469
 30
0.0
  0
SEQEND
  5
146A
  8
0
  0
LINE
  5
EFA
  8
0
 10
871.81761074502845
 20
771.2542176901909
 30
0.0
 11
712.34451219798154
 21
503.13826658157228
 31
0.0
1001
REVIT
1002
{
1070
     3
1000
422583
1002
}
  0
POLYLINE
  5
EFB
  8
0
 66
     1
 10
0.0
 20
0.0
 30
0.0
 70
   129
1001
REVIT
1002
{
1070
     3
1000
422583
1002
}
  0
VERTEX
  5
146B
  8
0
 10
731.74070538894534
 20
496.69723887123229
 30
0.0
  0
VERTEX
  5
146C
  8
0
 10
711.31205998320445
 20
499.37279443388093
 30
0.0
  0
VERTEX
  5
146D
  8
0
 10
713.33964635656116
 20
492.65753145240541
 30
0.0
  0
VERTEX
  5
146E
  8
0
 10
734.54057760759144
 20
487.42420443491949
 30
0.0
  0
SEQEND
  5
146F
  8
0
  0
POLYLINE
  5
EFC
  8
0
 66
     1
 10
0.0
 20
0.0
 30
0.0
 70
   128
1001
REVIT
1002
{
1070
     3
1000
422583
1002
}
  0
VERTEX
  5
1470
  8
0
 10
797.50814314132606
 20
469.61303216760592
 30
0.0
  0
VERTEX
  5
1471
  8
0
 10
786.79881578482332
 20
478.70806815080022
 30
0.0
  0
VERTEX
  5
1472
  8
0
 10
783.74204579611614
 20
488.83193494029001
 30
0.0
  0
SEQEND
  5
1473
  8
0
  0
POLYLINE
  5
EFD
  8
0
 66
     1
 10
0.0
 20
0.0
 30
0.0
 70
   128
1001
REVIT
1002
{
1070
     3
1000
422583
1002
}
  0
VERTEX
  5
1474
  8
0
 10
805.12732256615345
 20
479.28181798216468
 30
0.0
  0
VERTEX
  5
1475
  8
0
 10
808.1840925548604
 20
469.15795119267432
 30
0.0
  0
VERTEX
  5
1476
  8
0
 10
797.50814314132606
 20
469.61303216760592
 30
0.0
  0
VERTEX
  5
1477
  8
0
 10
794.44115051664312
 20
479.77075580770662
 30
0.0
  0
VERTEX
  5
1478
  8
0
 10
783.73131644338685
 20
488.86622212671517
 30
0.0
  0
SEQEND
  5
1479
  8
0
  0
POLYLINE
  5
EFE
  8
0
 66
     1
 10
0.0
 20
0.0
 30
0.0
 70
   128
1001
REVIT
1002
{
1070
     3
1000
422583
1002
}
  0
VERTEX
  5
147A
  8
0
 10
948.44163915493982
 20
740.79892259744349
 30
0.0
  0
VERTEX
  5
147B
  8
0
 10
795.31796223956178
 20
483.35800844035339
 30
0.0
  0
VERTEX
  5
147C
  8
0
 10
785.09760413507638
 20
492.03778090664031
 30
0.0
  0
VERTEX
  5
147D
  8
0
 10
935.09817697776941
 20
744.22794100873296
 30
0.0
  0
SEQEND
  5
147E
  8
0
  0
POLYLINE
  5
EFF
  8
0
 66
     1
 10
0.0
 20
0.0
 30
0.0
 70
   129
1001
REVIT
1002
{
1070
     3
1000
422583
1002
}
  0
VERTEX
  5
147F
  8
0
 10
782.49310959192712
 20
489.21288499682669
 30
0.0
  0
VERTEX
  5
1480
  8
0
 10
751.96738292995212
 20
481.5198922705178
 30
0.0
  0
VERTEX
  5
1481
  8
0
 10
754.03245145946755
 20
474.68049029352289
 30
0.0
  0
VERTEX
  5
1482
  8
0
 10
766.78845250210327
 20
474.32439224797889
 30
0.0
  0
VERTEX
  5
1483
  8
0
 10
785.56010221661063
 20
479.05516135672588
 30
0.0
  0
SEQEND
  5
1484
  8
0
  0
POLYLINE
  5
F00
  8
0
 66
     1
 10
0.0
 20
0.0
 30
0.0
 70
   128
1001
REVIT
1002
{
1070
     3
1000
422583
1002
}
  0
VERTEX
  5
1485
  8
0
 10
910.92968545090866
 20
750.85721322163499
 30
0.0
  0
VERTEX
  5
1486
  8
0
 10
752.86724988301444
 20
485.1129552060529
 30
0.0
  0
VERTEX
  5
1487
  8
0
 10
782.80338755993535
 20
492.65736166531792
 30
0.0
  0
VERTEX
  5
1488
  8
0
 10
932.78270373002294
 20
744.81178374610715
 30
0.0
  0
SEQEND
  5
1489
  8
0
  0
POLYLINE
  5
F01
  8
0
 66
     1
 10
0.0
 20
0.0
 30
0.0
 70
   129
1001
REVIT
1002
{
1070
     3
1000
422583
1002
}
  0
VERTEX
  5
148A
  8
0
 10
735.31198771746574
 20
487.0797124345965
 30
0.0
  0
VERTEX
  5
148B
  8
0
 10
752.53285044793336
 20
475.15485018897141
 30
0.0
  0
VERTEX
  5
148C
  8
0
 10
750.50526407457642
 20
481.87011317044642
 30
0.0
  0
VERTEX
  5
148D
  8
0
 10
732.51211549881964
 20
496.35274687090879
 30
0.0
  0
SEQEND
  5
148E
  8
0
  0
POLYLINE
  5
F02
  8
0
 66
     1
 10
0.0
 20
0.0
 30
0.0
 70
   128
1001
REVIT
1002
{
1070
     3
1000
422583
1002
}
  0
VERTEX
  5
148F
  8
0
 10
888.65151666266149
 20
760.66905619328327
 30
0.0
  0
VERTEX
  5
1490
  8
0
 10
733.51278431125104
 20
499.84030728731778
 30
0.0
  0
VERTEX
  5
1491
  8
0
 10
751.34625182828279
 20
485.48620041320117
 30
0.0
  0
SEQEND
  5
1492
  8
0
  0
LINE
  5
F03
  8
0
 10
751.4511068388523
 20
485.67426288078332
 30
0.0
 11
909.48332698549711
 21
751.36772087755151
 31
0.0
1001
REVIT
1002
{
1070
     3
1000
422583
1002
}
  0
POLYLINE
  5
F04
  8
0
 66
     1
 10
0.0
 20
0.0
 30
0.0
 70
   128
1001
REVIT
1002
{
1070
     3
1000
422583
1002
}
  0
VERTEX
  5
1493
  8
0
 10
795.31796223956178
 20
483.35800844035339
 30
0.0
  0
VERTEX
  5
1494
  8
0
 10
805.50646637987427
 20
482.92370567085987
 30
0.0
  0
VERTEX
  5
1495
  8
0
 10
957.4710882925566
 20
738.41594549186289
 30
0.0
  0
SEQEND
  5
1496
  8
0
  0
LINE
  5
F05
  8
0
 10
794.44115051664312
 20
479.77075580770662
 30
0.0
 11
805.11760506763869
 21
479.315653300409
 31
0.0
1001
REVIT
1002
{
1070
     3
1000
422583
1002
}
  0
POLYLINE
  5
F06
  8
0
 66
     1
 10
0.0
 20
0.0
 30
0.0
 70
   128
1001
REVIT
1002
{
1070
     3
1000
422583
1002
}
  0
VERTEX
  5
1497
  8
0
 10
959.21478163782263
 20
736.72681720913693
 30
0.0
  0
VERTEX
  5
1498
  8
0
 10
807.48771654172776
 20
481.63397247358779
 30
0.0
  0
VERTEX
  5
1499
  8
0
 10
829.74320611159044
 20
450.7821218413286
 30
0.0
  0
VERTEX
  5
149A
  8
0
 10
986.79850486946975
 20
714.83311970097373
 30
0.0
  0
SEQEND
  5
149B
  8
0
  0
POLYLINE
  5
F07
  8
0
 66
     1
 10
0.0
 20
0.0
 30
0.0
 70
   129
1001
REVIT
1002
{
1070
     3
1000
422583
1002
}
  0
VERTEX
  5
149C
  8
0
 10
809.25671799110501
 20
468.47285958940603
 30
0.0
  0
VERTEX
  5
149D
  8
0
 10
806.18972536642195
 20
478.63058322950678
 30
0.0
  0
VERTEX
  5
149E
  8
0
 10
828.88353438981471
 20
447.17110874484592
 30
0.0
  0
VERTEX
  5
149F
  8
0
 10
830.94860291933014
 20
440.33170676785107
 30
0.0
  0
VERTEX
  5
14A0
  8
0
 10
823.21216738604789
 20
449.12700611414209
 30
0.0
  0
SEQEND
  5
14A1
  8
0
  0
POLYLINE
  5
F08
  8
0
 66
     1
 10
0.0
 20
0.0
 30
0.0
 70
   128
1001
REVIT
1002
{
1070
     3
1000
422583
1002
}
  0
VERTEX
  5
14A2
  8
0
 10
831.15451336602825
 20
449.84587458968713
 30
0.0
  0
VERTEX
  5
14A3
  8
0
 10
851.40186377979069
 20
447.19406337301149
 30
0.0
  0
VERTEX
  5
14A4
  8
0
 10
1004.493433671756
 20
704.58099723375187
 30
0.0
  0
SEQEND
  5
14A5
  8
0
  0
LINE
  5
F09
  8
0
 10
988.22398516535827
 20
713.9109571118031
 30
0.0
 11
831.26948086722098
 21
450.02942107792381
 31
0.0
1001
REVIT
1002
{
1070
     3
1000
422583
1002
}
  0
POLYLINE
  5
F0A
  8
0
 66
     1
 10
0.0
 20
0.0
 30
0.0
 70
   129
1001
REVIT
1002
{
1070
     3
1000
422583
1002
}
  0
VERTEX
  5
14A6
  8
0
 10
850.66567405818455
 20
443.58839336758422
 30
0.0
  0
VERTEX
  5
14A7
  8
0
 10
830.23702865244388
 20
446.26394893023257
 30
0.0
  0
VERTEX
  5
14A8
  8
0
 10
832.26461502580071
 20
439.5486859487574
 30
0.0
  0
VERTEX
  5
14A9
  8
0
 10
853.46554627683065
 20
434.31535893127142
 30
0.0
  0
SEQEND
  5
14AA
  8
0
  0
POLYLINE
  5
F0B
  8
0
 66
     1
 10
0.0
 20
0.0
 30
0.0
 70
   128
1001
REVIT
1002
{
1070
     3
1000
422583
1002
}
  0
VERTEX
  5
14AB
  8
0
 10
916.43311181056549
 20
416.5041866639578
 30
0.0
  0
VERTEX
  5
14AC
  8
0
 10
905.72378445406275
 20
425.59922264715169
 30
0.0
  0
VERTEX
  5
14AD
  8
0
 10
902.66701446535569
 20
435.7230894366424
 30
0.0
  0
SEQEND
  5
14AE
  8
0
  0
POLYLINE
  5
F0C
  8
0
 66
     1
 10
0.0
 20
0.0
 30
0.0
 70
   128
1001
REVIT
1002
{
1070
     3
1000
422583
1002
}
  0
VERTEX
  5
14AF
  8
0
 10
924.05229123539266
 20
426.17297247851673
 30
0.0
  0
VERTEX
  5
14B0
  8
0
 10
927.10906122409995
 20
416.04910568902642
 30
0.0
  0
VERTEX
  5
14B1
  8
0
 10
916.43311181056549
 20
416.50418666395723
 30
0.0
  0
VERTEX
  5
14B2
  8
0
 10
913.36611918588255
 20
426.6619103040581
 30
0.0
  0
VERTEX
  5
14B3
  8
0
 10
902.65628511262639
 20
435.75737662306659
 30
0.0
  0
SEQEND
  5
14B4
  8
0
  0
POLYLINE
  5
F0D
  8
0
 66
     1
 10
0.0
 20
0.0
 30
0.0
 70
   128
1001
REVIT
1002
{
1070
     3
1000
422583
1002
}
  0
VERTEX
  5
14B5
  8
0
 10
1070.3271818502619
 20
692.66757566918443
 30
0.0
  0
VERTEX
  5
14B6
  8
0
 10
914.2429309088011
 20
430.24916293670498
 30
0.0
  0
VERTEX
  5
14B7
  8
0
 10
904.02257280431616
 20
438.9289354029919
 30
0.0
  0
VERTEX
  5
14B8
  8
0
 10
1055.7476195027159
 20
694.01838668458208
 30
0.0
  0
SEQEND
  5
14B9
  8
0
  0
POLYLINE
  5
F0E
  8
0
 66
     1
 10
0.0
 20
0.0
 30
0.0
 70
   129
1001
REVIT
1002
{
1070
     3
1000
422583
1002
}
  0
VERTEX
  5
14BA
  8
0
 10
901.41807826116656
 20
436.10403949317862
 30
0.0
  0
VERTEX
  5
14BB
  8
0
 10
870.8923515991919
 20
428.4110467668699
 30
0.0
  0
VERTEX
  5
14BC
  8
0
 10
872.95742012870733
 20
421.57164478987448
 30
0.0
  0
VERTEX
  5
14BD
  8
0
 10
885.71342117134293
 20
421.21554674433099
 30
0.0
  0
VERTEX
  5
14BE
  8
0
 10
904.48507088585006
 20
425.94631585307781
 30
0.0
  0
SEQEND
  5
14BF
  8
0
  0
POLYLINE
  5
F0F
  8
0
 66
     1
 10
0.0
 20
0.0
 30
0.0
 70
   128
1001
REVIT
1002
{
1070
     3
1000
422583
1002
}
  0
VERTEX
  5
14C0
  8
0
 10
1028.786726435997
 20
695.95290221715857
 30
0.0
  0
VERTEX
  5
14C1
  8
0
 10
871.79221855225387
 20
432.00410970240489
 30
0.0
  0
VERTEX
  5
14C2
  8
0
 10
901.72835622917421
 20
439.54851616166889
 30
0.0
  0
VERTEX
  5
14C3
  8
0
 10
1053.035053209788
 20
693.93461224729049
 30
0.0
  0
SEQEND
  5
14C4
  8
0
  0
POLYLINE
  5
F10
  8
0
 66
     1
 10
0.0
 20
0.0
 30
0.0
 70
   129
1001
REVIT
1002
{
1070
     3
1000
422583
1002
}
  0
VERTEX
  5
14C5
  8
0
 10
854.23695638670506
 20
433.97086693094792
 30
0.0
  0
VERTEX
  5
14C6
  8
0
 10
871.45781911717256
 20
422.04600468532288
 30
0.0
  0
VERTEX
  5
14C7
  8
0
 10
869.43023274381596
 20
428.76126766679829
 30
0.0
  0
VERTEX
  5
14C8
  8
0
 10
851.43708416805885
 20
443.24390136726072
 30
0.0
  0
SEQEND
  5
14C9
  8
0
  0
POLYLINE
  5
F11
  8
0
 66
     1
 10
0.0
 20
0.0
 30
0.0
 70
   128
1001
REVIT
1002
{
1070
     3
1000
422583
1002
}
  0
VERTEX
  5
14CA
  8
0
 10
1005.501058375099
 20
704.07087563846221
 30
0.0
  0
VERTEX
  5
14CB
  8
0
 10
852.43775298049025
 20
446.73146178366937
 30
0.0
  0
VERTEX
  5
14CC
  8
0
 10
870.27122049752245
 20
432.37735490955299
 30
0.0
  0
SEQEND
  5
14CD
  8
0
  0
LINE
  5
F12
  8
0
 10
870.37607550809173
 20
432.56541737713462
 30
0.0
 11
1027.218325278061
 21
696.25822421555381
 31
0.0
1001
REVIT
1002
{
1070
     3
1000
422583
1002
}
  0
POLYLINE
  5
F13
  8
0
 66
     1
 10
0.0
 20
0.0
 30
0.0
 70
   128
1001
REVIT
1002
{
1070
     3
1000
422583
1002
}
  0
VERTEX
  5
14CE
  8
0
 10
914.2429309088011
 20
430.24916293670498
 30
0.0
  0
VERTEX
  5
14CF
  8
0
 10
924.4314350491137
 20
429.8148601672118
 30
0.0
  0
VERTEX
  5
14D0
  8
0
 10
1078.563627433864
 20
688.95135236687986
 30
0.0
  0
SEQEND
  5
14D1
  8
0
  0
LINE
  5
F14
  8
0
 10
913.36611918588267
 20
426.66191030405849
 30
0.0
 11
924.0425737368779
 21
426.20680779676093
 31
0.0
1001
REVIT
1002
{
1070
     3
1000
422583
1002
}
  0
POLYLINE
  5
F15
  8
0
 66
     1
 10
0.0
 20
0.0
 30
0.0
 70
   128
1001
REVIT
1002
{
1070
     3
1000
422583
1002
}
  0
VERTEX
  5
14D2
  8
0
 10
1080.6073170626
 20
687.76659622970317
 30
0.0
  0
VERTEX
  5
14D3
  8
0
 10
926.41268521096765
 20
428.52512696993938
 30
0.0
  0
VERTEX
  5
14D4
  8
0
 10
948.66817478082987
 20
397.67327633768087
 30
0.0
  0
VERTEX
  5
14D5
  8
0
 10
1105.569346727229
 20
661.46514675183175
 30
0.0
  0
SEQEND
  5
14D6
  8
0
  0
POLYLINE
  5
F16
  8
0
 66
     1
 10
0.0
 20
0.0
 30
0.0
 70
   129
1001
REVIT
1002
{
1070
     3
1000
422583
1002
}
  0
VERTEX
  5
14D7
  8
0
 10
928.18168666034421
 20
415.36401408575801
 30
0.0
  0
VERTEX
  5
14D8
  8
0
 10
925.11469403566105
 20
425.52173772585871
 30
0.0
  0
VERTEX
  5
14D9
  8
0
 10
947.80850305905381
 20
394.06226324119791
 30
0.0
  0
VERTEX
  5
14DA
  8
0
 10
949.87357158856946
 20
387.222861264203
 30
0.0
  0
VERTEX
  5
14DB
  8
0
 10
942.1371360552871
 20
396.01816061049408
 30
0.0
  0
SEQEND
  5
14DC
  8
0
  0
POLYLINE
  5
F17
  8
0
 66
     1
 10
0.0
 20
0.0
 30
0.0
 70
   128
1001
REVIT
1002
{
1070
     3
1000
422583
1002
}
  0
VERTEX
  5
14DD
  8
0
 10
950.07948203526792
 20
396.73702908603951
 30
0.0
  0
VERTEX
  5
14DE
  8
0
 10
970.32683244903001
 20
394.08521786936342
 30
0.0
  0
VERTEX
  5
14DF
  8
0
 10
1122.658422368107
 20
650.19442680275677
 30
0.0
  0
SEQEND
  5
14E0
  8
0
  0
LINE
  5
F18
  8
0
 10
1106.883421242007
 20
660.35568193279607
 30
0.0
 11
950.19444953646064
 21
396.92057557427569
 31
0.0
1001
REVIT
1002
{
1070
     3
1000
422583
1002
}
  0
POLYLINE
  5
F19
  8
0
 66
     1
 10
0.0
 20
0.0
 30
0.0
 70
   129
1001
REVIT
1002
{
1070
     3
1000
422583
1002
}
  0
VERTEX
  5
14E1
  8
0
 10
969.5906427274241
 20
390.47954786393609
 30
0.0
  0
VERTEX
  5
14E2
  8
0
 10
949.16199732168377
 20
393.15510342658479
 30
0.0
  0
VERTEX
  5
14E3
  8
0
 10
951.18958369504037
 20
386.43984044510938
 30
0.0
  0
VERTEX
  5
14E4
  8
0
 10
972.39051494607031
 20
381.20651342762329
 30
0.0
  0
SEQEND
  5
14E5
  8
0
  0
POLYLINE
  5
F1A
  8
0
 66
     1
 10
0.0
 20
0.0
 30
0.0
 70
   128
1001
REVIT
1002
{
1070
     3
1000
422583
1002
}
  0
VERTEX
  5
14E6
  8
0
 10
1035.3580804798059
 20
363.39534116030973
 30
0.0
  0
VERTEX
  5
14E7
  8
0
 10
1024.6487531233031
 20
372.49037714350408
 30
0.0
  0
VERTEX
  5
14E8
  8
0
 10
1021.591983134595
 20
382.61424393299433
 30
0.0
  0
SEQEND
  5
14E9
  8
0
  0
POLYLINE
  5
F1B
  8
0
 66
     1
 10
0.0
 20
0.0
 30
0.0
 70
   128
1001
REVIT
1002
{
1070
     3
1000
422583
1002
}
  0
VERTEX
  5
14EA
  8
0
 10
1042.977259904633
 20
373.06412697486809
 30
0.0
  0
VERTEX
  5
14EB
  8
0
 10
1046.0340298933411
 20
362.94026018537829
 30
0.0
  0
VERTEX
  5
14EC
  8
0
 10
1035.3580804798059
 20
363.39534116030921
 30
0.0
  0
VERTEX
  5
14ED
  8
0
 10
1032.2910878551229
 20
373.55306480041031
 30
0.0
  0
VERTEX
  5
14EE
  8
0
 10
1021.5812537818661
 20
382.64853111941852
 30
0.0
  0
SEQEND
  5
14EF
  8
0
  0
POLYLINE
  5
F1C
  8
0
 66
     1
 10
0.0
 20
0.0
 30
0.0
 70
   128
1001
REVIT
1002
{
1070
     3
1000
422583
1002
}
  0
VERTEX
  5
14F0
  8
0
 10
1033.167899578041
 20
377.14031743305691
 30
0.0
  0
VERTEX
  5
14F1
  8
0
 10
1022.947541473555
 20
385.82008989934371
 30
0.0
  0
VERTEX
  5
14F2
  8
0
 10
1183.0759496894029
 20
655.0377878023894
 30
0.0
  0
SEQEND
  5
14F3
  8
0
  0
POLYLINE
  5
F1D
  8
0
 66
     1
 10
0.0
 20
0.0
 30
0.0
 70
   128
1001
REVIT
1002
{
1070
     3
1000
422583
1002
}
  0
VERTEX
  5
14F4
  8
0
 10
1201.8666821079539
 20
659.49051096706398
 30
0.0
  0
VERTEX
  5
14F5
  8
0
 10
1204.9234520961099
 20
649.36664417939846
 30
0.0
  0
VERTEX
  5
14F6
  8
0
 10
1194.2475026825759
 20
649.82172515433012
 30
0.0
  0
VERTEX
  5
14F7
  8
0
 10
1183.5381753260731
 20
658.91676113752453
 30
0.0
  0
VERTEX
  5
14F8
  8
0
 10
1180.4814053379171
 20
669.04062792518971
 30
0.0
  0
SEQEND
  5
14F9
  8
0
  0
POLYLINE
  5
F1E
  8
0
 66
     1
 10
0.0
 20
0.0
 30
0.0
 70
   128
1001
REVIT
1002
{
1070
     3
1000
422583
1002
}
  0
VERTEX
  5
14FA
  8
0
 10
1194.2475026825759
 20
649.82172515433069
 30
0.0
  0
VERTEX
  5
14FB
  8
0
 10
1191.1805100584429
 20
659.97944879260615
 30
0.0
  0
VERTEX
  5
14FC
  8
0
 10
1180.470675985187
 20
669.07491511161504
 30
0.0
  0
SEQEND
  5
14FD
  8
0
  0
POLYLINE
  5
F1F
  8
0
 66
     1
 10
0.0
 20
0.0
 30
0.0
 70
   129
1001
REVIT
1002
{
1070
     3
1000
422583
1002
}
  0
VERTEX
  5
14FE
  8
0
 10
1020.343046930406
 20
382.99519398953049
 30
0.0
  0
VERTEX
  5
14FF
  8
0
 10
989.8173202684311
 20
375.30220126322178
 30
0.0
  0
VERTEX
  5
1500
  8
0
 10
991.88238879794653
 20
368.46279928622641
 30
0.0
  0
VERTEX
  5
1501
  8
0
 10
1004.638389840582
 20
368.10670124068253
 30
0.0
  0
VERTEX
  5
1502
  8
0
 10
1023.410039555089
 20
372.83747034942979
 30
0.0
  0
SEQEND
  5
1503
  8
0
  0
POLYLINE
  5
F20
  8
0
 66
     1
 10
0.0
 20
0.0
 30
0.0
 70
   128
1001
REVIT
1002
{
1070
     3
1000
422583
1002
}
  0
VERTEX
  5
1504
  8
0
 10
1147.6541398137549
 20
642.74729122856365
 30
0.0
  0
VERTEX
  5
1505
  8
0
 10
990.71718722149308
 20
378.89526419875722
 30
0.0
  0
VERTEX
  5
1506
  8
0
 10
1020.653324898414
 20
386.43967065802121
 30
0.0
  0
VERTEX
  5
1507
  8
0
 10
1180.959270600373
 20
655.95585546813629
 30
0.0
  0
VERTEX
  5
1508
  8
0
 10
1155.573428863559
 20
649.55819955006041
 30
0.0
  0
SEQEND
  5
1509
  8
0
  0
POLYLINE
  5
F21
  8
0
 66
     1
 10
0.0
 20
0.0
 30
0.0
 70
   128
1001
REVIT
1002
{
1070
     3
1000
422583
1002
}
  0
VERTEX
  5
150A
  8
0
 10
1155.629297911167
 20
652.54252781274897
 30
0.0
  0
VERTEX
  5
150B
  8
0
 10
1182.2994617578599
 20
659.26385434345036
 30
0.0
  0
VERTEX
  5
150C
  8
0
 10
1179.2324691337269
 20
669.42157798172673
 30
0.0
  0
VERTEX
  5
150D
  8
0
 10
1157.1250308865069
 20
663.85013447387894
 30
0.0
  0
SEQEND
  5
150E
  8
0
  0
POLYLINE
  5
F22
  8
0
 66
     1
 10
0.0
 20
0.0
 30
0.0
 70
   129
1001
REVIT
1002
{
1070
     3
1000
422583
1002
}
  0
VERTEX
  5
150F
  8
0
 10
973.16192505594472
 20
380.86202142729991
 30
0.0
  0
VERTEX
  5
1510
  8
0
 10
990.38278778641177
 20
368.9371591816751
 30
0.0
  0
VERTEX
  5
1511
  8
0
 10
988.35520141305517
 20
375.65242216315022
 30
0.0
  0
VERTEX
  5
1512
  8
0
 10
970.36205283729828
 20
390.13505586361271
 30
0.0
  0
SEQEND
  5
1513
  8
0
  0
POLYLINE
  5
F23
  8
0
 66
     1
 10
0.0
 20
0.0
 30
0.0
 70
   128
1001
REVIT
1002
{
1070
     3
1000
422583
1002
}
  0
VERTEX
  5
1514
  8
0
 10
1123.6785875533151
 20
649.70538903447925
 30
0.0
  0
VERTEX
  5
1515
  8
0
 10
971.36272164972979
 20
393.6226162800213
 30
0.0
  0
VERTEX
  5
1516
  8
0
 10
989.19618916676177
 20
379.26850940590498
 30
0.0
  0
SEQEND
  5
1517
  8
0
  0
LINE
  5
F24
  8
0
 10
989.30104417733128
 20
379.45657187348701
 30
0.0
 11
1146.0351949968599
 21
642.96763612851862
 31
0.0
1001
REVIT
1002
{
1070
     3
1000
422583
1002
}
  0
LINE
  5
F25
  8
0
 10
1191.1805100584429
 20
659.97944879260615
 30
0.0
 11
1201.856964609439
 21
659.52434628530898
 31
0.0
1001
REVIT
1002
{
1070
     3
1000
422583
1002
}
  0
LINE
  5
F26
  8
0
 10
1193.47384528
 20
646.65650224317153
 30
0.0
 11
1203.672574238449
 21
646.22176362296125
 31
0.0
1001
REVIT
1002
{
1070
     3
1000
422583
1002
}
  0
POLYLINE
  5
F27
  8
0
 66
     1
 10
0.0
 20
0.0
 30
0.0
 70
   128
1001
REVIT
1002
{
1070
     3
1000
422583
1002
}
  0
VERTEX
  5
1518
  8
0
 10
1183.24323038988
 20
655.34498541848075
 30
0.0
  0
VERTEX
  5
1519
  8
0
 10
1193.47384528
 20
646.65650224317221
 30
0.0
  0
VERTEX
  5
151A
  8
0
 10
1033.1678995780419
 20
377.14031743305719
 30
0.0
  0
VERTEX
  5
151B
  8
0
 10
1043.3564037183539
 20
376.70601466356328
 30
0.0
  0
VERTEX
  5
151C
  8
0
 10
1203.4848119342021
 20
645.92371256660886
 30
0.0
  0
SEQEND
  5
151D
  8
0
  0
LINE
  5
F28
  8
0
 10
1032.2910878551229
 20
373.55306480041031
 30
0.0
 11
1042.967542406117
 21
373.0979622931128
 31
0.0
1001
REVIT
1002
{
1070
     3
1000
422583
1002
}
  0
POLYLINE
  5
F29
  8
0
 66
     1
 10
0.0
 20
0.0
 30
0.0
 70
   129
1001
REVIT
1002
{
1070
     3
1000
422583
1002
}
  0
VERTEX
  5
151E
  8
0
 10
1225.6228939316161
 20
627.37980172974551
 30
0.0
  0
VERTEX
  5
151F
  8
0
 10
1202.9290849082231
 20
658.83927621440694
 30
0.0
  0
VERTEX
  5
1520
  8
0
 10
1205.9960775323541
 20
648.68155257613046
 30
0.0
  0
VERTEX
  5
1521
  8
0
 10
1228.6898865557471
 20
617.22207809146948
 30
0.0
  0
SEQEND
  5
1522
  8
0
  0
POLYLINE
  5
F2A
  8
0
 66
     1
 10
0.0
 20
0.0
 30
0.0
 70
   129
1001
REVIT
1002
{
1070
     3
1000
422583
1002
}
  0
VERTEX
  5
1523
  8
0
 10
1067.5931434500701
 20
344.56443083403281
 30
0.0
  0
VERTEX
  5
1524
  8
0
 10
1227.899089152028
 20
614.08061564414766
 30
0.0
  0
VERTEX
  5
1525
  8
0
 10
1205.6435995821671
 20
644.93246627640644
 30
0.0
  0
VERTEX
  5
1526
  8
0
 10
1045.337653880207
 20
375.41628146629131
 30
0.0
  0
SEQEND
  5
1527
  8
0
  0
POLYLINE
  5
F2B
  8
0
 66
     1
 10
0.0
 20
0.0
 30
0.0
 70
   129
1001
REVIT
1002
{
1070
     3
1000
422583
1002
}
  0
VERTEX
  5
1528
  8
0
 10
1047.1066553295841
 20
362.25516858210977
 30
0.0
  0
VERTEX
  5
1529
  8
0
 10
1044.0396627048999
 20
372.4128922222107
 30
0.0
  0
VERTEX
  5
152A
  8
0
 10
1066.7334717282929
 20
340.95341773754973
 30
0.0
  0
VERTEX
  5
152B
  8
0
 10
1068.7985402578099
 20
334.11401576055482
 30
0.0
  0
VERTEX
  5
152C
  8
0
 10
1061.0621047245261
 20
342.9093151068459
 30
0.0
  0
SEQEND
  5
152D
  8
0
  0
POLYLINE
  5
F2C
  8
0
 66
     1
 10
0.0
 20
0.0
 30
0.0
 70
   128
1001
REVIT
1002
{
1070
     3
1000
422583
1002
}
  0
VERTEX
  5
152E
  8
0
 10
1230.034708244802
 20
616.31605413055661
 30
0.0
  0
VERTEX
  5
152F
  8
0
 10
1250.4720262241169
 20
613.639362714208
 30
0.0
  0
VERTEX
  5
1530
  8
0
 10
1247.405033599985
 20
623.79708635248414
 30
0.0
  0
VERTEX
  5
1531
  8
0
 10
1226.9763881942449
 20
626.47264191513239
 30
0.0
  0
VERTEX
  5
1532
  8
0
 10
1230.0014202613711
 20
616.45388950828874
 30
0.0
  0
SEQEND
  5
1533
  8
0
  0
POLYLINE
  5
F2D
  8
0
 66
     1
 10
0.0
 20
0.0
 30
0.0
 70
   128
1001
REVIT
1002
{
1070
     3
1000
422583
1002
}
  0
VERTEX
  5
1534
  8
0
 10
1069.0044507045079
 20
343.62818358239139
 30
0.0
  0
VERTEX
  5
1535
  8
0
 10
1089.251801118271
 20
340.97637236571529
 30
0.0
  0
VERTEX
  5
1536
  8
0
 10
1249.5577468202291
 20
610.49255717582969
 30
0.0
  0
VERTEX
  5
1537
  8
0
 10
1229.3157731591809
 20
613.14366419502483
 30
0.0
  0
VERTEX
  5
1538
  8
0
 10
1069.1194182057011
 20
343.8117300706279
 30
0.0
  0
SEQEND
  5
1539
  8
0
  0
POLYLINE
  5
F2E
  8
0
 66
     1
 10
0.0
 20
0.0
 30
0.0
 70
   129
1001
REVIT
1002
{
1070
     3
1000
422583
1002
}
  0
VERTEX
  5
153A
  8
0
 10
1088.5156113966641
 20
337.37070236028802
 30
0.0
  0
VERTEX
  5
153B
  8
0
 10
1068.086965990924
 20
340.04625792293672
 30
0.0
  0
VERTEX
  5
153C
  8
0
 10
1070.1145523642799
 20
333.3309949414612
 30
0.0
  0
VERTEX
  5
153D
  8
0
 10
1091.3154836153101
 20
328.09766792397522
 30
0.0
  0
SEQEND
  5
153E
  8
0
  0
POLYLINE
  5
F2F
  8
0
 66
     1
 10
0.0
 20
0.0
 30
0.0
 70
   128
1001
REVIT
1002
{
1070
     3
1000
422583
1002
}
  0
VERTEX
  5
153F
  8
0
 10
1097.338915216541
 20
324.11632951382097
 30
0.0
  0
VERTEX
  5
1540
  8
0
 10
1094.7745748594759
 20
332.60929439955169
 30
0.0
  0
VERTEX
  5
1541
  8
0
 10
1089.2870215065391
 20
337.02621035996458
 30
0.0
  0
VERTEX
  5
1542
  8
0
 10
1092.0868937251839
 20
327.75317592365218
 30
0.0
  0
VERTEX
  5
1543
  8
0
 10
1097.338915216541
 20
324.11632951382057
 30
0.0
  0
VERTEX
  5
1544
  8
0
 10
1097.5368096246141
 20
324.44904172624422
 30
0.0
  0
VERTEX
  5
1545
  8
0
 10
1094.9821239956959
 20
332.91003064321791
 30
0.0
  0
SEQEND
  5
1546
  8
0
  0
POLYLINE
  5
F30
  8
0
 66
     1
 10
0.0
 20
0.0
 30
0.0
 70
   129
1001
REVIT
1002
{
1070
     3
1000
422583
1002
}
  0
VERTEX
  5
1547
  8
0
 10
1095.651386582394
 20
336.19654703219851
 30
0.0
  0
VERTEX
  5
1548
  8
0
 10
1090.2876903189699
 20
340.51377077637341
 30
0.0
  0
VERTEX
  5
1549
  8
0
 10
1250.593636020928
 20
610.02995558648763
 30
0.0
  0
VERTEX
  5
154A
  8
0
 10
1255.957332284353
 20
605.71273184231279
 30
0.0
  0
SEQEND
  5
154B
  8
0
  0
POLYLINE
  5
F31
  8
0
 66
     1
 10
0.0
 20
0.0
 30
0.0
 70
   129
1001
REVIT
1002
{
1070
     3
1000
422583
1002
}
  0
VERTEX
  5
154C
  8
0
 10
1251.243436333991
 20
613.29487071388451
 30
0.0
  0
VERTEX
  5
154D
  8
0
 10
1256.730989686929
 20
608.87795475347184
 30
0.0
  0
VERTEX
  5
154E
  8
0
 10
1253.6639970627959
 20
619.03567839174775
 30
0.0
  0
VERTEX
  5
154F
  8
0
 10
1248.1764437098591
 20
623.45259435216042
 30
0.0
  0
SEQEND
  5
1550
  8
0
  0
LINE
  5
F32
  8
0
 10
662.79523128788765
 20
906.34295559285295
 30
0.0
 11
660.20958719516614
 21
901.99581220964558
 31
0.0
1001
REVIT
1002
{
1070
     3
1000
422583
1002
}
  0
POLYLINE
  5
F33
  8
0
 66
     1
 10
0.0
 20
0.0
 30
0.0
 70
   128
1001
REVIT
1002
{
1070
     3
1000
422583
1002
}
  0
VERTEX
  5
1551
  8
0
 10
1180.9233851852109
 20
693.94618319302572
 30
0.0
  0
VERTEX
  5
1552
  8
0
 10
1190.7308535734369
 20
691.67618523082797
 30
0.0
  0
VERTEX
  5
1553
  8
0
 10
1179.5427471017349
 20
672.86605465021694
 30
0.0
  0
VERTEX
  5
1554
  8
0
 10
1158.7667301708809
 20
667.6301515413212
 30
0.0
  0
SEQEND
  5
1555
  8
0
  0
POLYLINE
  5
F34
  8
0
 66
     1
 10
0.0
 20
0.0
 30
0.0
 70
   128
1001
REVIT
1002
{
1070
     3
1000
422583
1002
}
  0
VERTEX
  5
1556
  8
0
 10
1204.2655845887391
 20
684.09198138661338
 30
0.0
  0
VERTEX
  5
1557
  8
0
 10
1192.8475326624659
 20
690.75811756508188
 30
0.0
  0
VERTEX
  5
1558
  8
0
 10
1181.8369636768759
 20
672.24647389153984
 30
0.0
  0
VERTEX
  5
1559
  8
0
 10
1192.0573217813619
 20
663.56670142525286
 30
0.0
  0
VERTEX
  5
155A
  8
0
 10
1202.2458259216739
 20
663.13239865575974
 30
0.0
  0
VERTEX
  5
155B
  8
0
 10
1213.256394907266
 20
681.64404232930167
 30
0.0
  0
VERTEX
  5
155C
  8
0
 10
1204.265584588738
 20
684.09198138661293
 30
0.0
  0
VERTEX
  5
155D
  8
0
 10
1192.0573217813619
 20
663.56670142525286
 30
0.0
  0
SEQEND
  5
155E
  8
0
  0
POLYLINE
  5
F35
  8
0
 66
     1
 10
0.0
 20
0.0
 30
0.0
 70
   129
1001
REVIT
1002
{
1070
     3
1000
422583
1002
}
  0
VERTEX
  5
155F
  8
0
 10
1245.2375542331599
 20
662.52285155788115
 30
0.0
  0
VERTEX
  5
1560
  8
0
 10
1215.4151825552301
 20
680.6527960390988
 30
0.0
  0
VERTEX
  5
1561
  8
0
 10
1204.227076083529
 20
661.84266545848755
 30
0.0
  0
VERTEX
  5
1562
  8
0
 10
1226.4825656533901
 20
630.99081482622864
 30
0.0
  0
SEQEND
  5
1563
  8
0
  0
POLYLINE
  5
F36
  8
0
 66
     1
 10
0.0
 20
0.0
 30
0.0
 70
   128
1001
REVIT
1002
{
1070
     3
1000
422583
1002
}
  0
VERTEX
  5
1564
  8
0
 10
1227.8938729078291
 20
630.05456757458728
 30
0.0
  0
VERTEX
  5
1565
  8
0
 10
1248.141223321591
 20
627.40275635791158
 30
0.0
  0
VERTEX
  5
1566
  8
0
 10
1264.6816568501299
 20
655.21154735562709
 30
0.0
  0
VERTEX
  5
1567
  8
0
 10
1246.76382898879
 20
661.77015079447563
 30
0.0
  0
VERTEX
  5
1568
  8
0
 10
1228.008840409022
 20
630.23811406282346
 30
0.0
  0
SEQEND
  5
1569
  8
0
  0
POLYLINE
  5
F37
  8
0
 66
     1
 10
0.0
 20
0.0
 30
0.0
 70
   129
1001
REVIT
1002
{
1070
     3
1000
422583
1002
}
  0
VERTEX
  5
156A
  8
0
 10
1254.5408087857149
 20
622.62293102439435
 30
0.0
  0
VERTEX
  5
156B
  8
0
 10
1249.1771125222899
 20
626.94015476856885
 30
0.0
  0
VERTEX
  5
156C
  8
0
 10
1265.717546050829
 20
654.74894576628583
 30
0.0
  0
VERTEX
  5
156D
  8
0
 10
1271.7804514501579
 20
651.60727529225358
 30
0.0
  0
SEQEND
  5
156E
  8
0
  0
LINE
  5
F38
  8
0
 10
659.34583104760065
 20
901.69715318169222
 30
0.0
 11
662.25311200463955
 21
906.5850521818262
 31
0.0
1001
REVIT
1002
{
1070
     3
1000
422583
1002
}
  0
LINE
  5
F39
  8
0
 10
494.88391891677912
 20
605.90195745530832
 30
0.0
 11
651.26405326183055
 21
868.81782750750858
 31
0.0
1001
REVIT
1002
{
1070
     3
1000
422583
1002
}
  0
POLYLINE
  5
F3A
  8
0
 66
     1
 10
0.0
 20
0.0
 30
0.0
 70
   128
1001
REVIT
1002
{
1070
     3
1000
422583
1002
}
  0
VERTEX
  5
156F
  8
0
 10
1254.634888169559
 20
622.45943457442343
 30
0.0
  0
VERTEX
  5
1570
  8
0
 10
1271.874530834001
 20
651.44377884228265
 30
0.0
  0
VERTEX
  5
1571
  8
0
 10
1271.7804514501579
 20
651.60727529225358
 30
0.0
  0
SEQEND
  5
1572
  8
0
  0
LINE
  5
F3B
  8
0
 10
1256.943517590915
 20
609.16220157143061
 30
0.0
 11
1253.8715461990171
 21
619.33641463541335
 31
0.0
1001
REVIT
1002
{
1070
     3
1000
422583
1002
}
  0
LINE
  5
F3C
  8
0
 10
1095.745465966238
 20
336.03305058222787
 30
0.0
 11
1256.0667058679969
 21
605.5749489387847
 31
0.0
1001
REVIT
1002
{
1070
     3
1000
422583
1002
}
  0
POLYLINE
  5
F3D
  8
0
 66
     1
 10
0.0
 20
0.0
 30
0.0
 70
   128
1001
REVIT
1002
{
1070
     3
1000
422583
1002
}
  0
VERTEX
  5
1573
  8
0
 10
1123.463962748616
 20
382.6350868869032
 30
0.0
  0
VERTEX
  5
1574
  8
0
 10
1287.768478718086
 20
309.26089766644168
 30
0.0
  0
VERTEX
  5
1575
  8
0
 10
1297.6367765037239
 20
296.69258633328161
 30
0.0
  0
VERTEX
  5
1576
  8
0
 10
1276.271285067543
 20
258.01802130238138
 30
0.0
  0
VERTEX
  5
1577
  8
0
 10
1097.4269217932119
 20
337.88533398380542
 30
0.0
  0
SEQEND
  5
1578
  8
0
  0
POLYLINE
  5
F3E
  8
0
 66
     1
 10
0.0
 20
0.0
 30
0.0
 70
   128
1001
REVIT
1002
{
1070
     3
1000
422583
1002
}
  0
VERTEX
  5
1579
  8
0
 10
1101.262453943262
 20
344.33386580382671
 30
0.0
  0
VERTEX
  5
157A
  8
0
 10
1266.4029872819051
 20
270.58633263554162
 30
0.0
  0
VERTEX
  5
157B
  8
0
 10
1287.768478718086
 20
309.26089766644168
 30
0.0
  0
SEQEND
  5
157C
  8
0
  0
LINE
  5
F3F
  8
0
 10
1276.271285067543
 20
258.01802130238138
 30
0.0
 11
1266.4029872819051
 21
270.58633263554162
 31
0.0
1001
REVIT
1002
{
1070
     3
1000
422583
1002
}
  0
POLYLINE
  5
F40
  8
0
 66
     1
 10
0.0
 20
0.0
 30
0.0
 70
   128
1001
REVIT
1002
{
1070
     3
1000
422583
1002
}
  0
VERTEX
  5
157D
  8
0
 10
966.21394577832291
 20
97.990288259479215
 30
0.0
  0
VERTEX
  5
157E
  8
0
 10
1130.5184617477939
 20
24.61609903901774
 30
0.0
  0
VERTEX
  5
157F
  8
0
 10
1140.386759533432
 20
12.047787705857809
 30
0.0
  0
VERTEX
  5
1580
  8
0
 10
1119.0212680972511
 20
-26.62677732504222
 30
0.0
  0
VERTEX
  5
1581
  8
0
 10
940.17690482292005
 20
53.240535356381649
 30
0.0
  0
SEQEND
  5
1582
  8
0
  0
POLYLINE
  5
F41
  8
0
 66
     1
 10
0.0
 20
0.0
 30
0.0
 70
   128
1001
REVIT
1002
{
1070
     3
1000
422583
1002
}
  0
VERTEX
  5
1583
  8
0
 10
944.01243697296854
 20
59.689067176403078
 30
0.0
  0
VERTEX
  5
1584
  8
0
 10
1109.152970311613
 20
-14.05846599188223
 30
0.0
  0
VERTEX
  5
1585
  8
0
 10
1130.5184617477939
 20
24.61609903901774
 30
0.0
  0
SEQEND
  5
1586
  8
0
  0
LINE
  5
F42
  8
0
 10
1119.0212680972511
 20
-26.62677732504222
 30
0.0
 11
1109.152970311613
 21
-14.05846599188223
 31
0.0
1001
REVIT
1002
{
1070
     3
1000
422583
1002
}
  0
LINE
  5
F43
  8
0
 10
494.92430972549988
 20
600.65210116408593
 30
0.0
 11
494.96864747950508
 21
600.54925032550545
 31
0.0
1001
REVIT
1002
{
1070
     3
1000
422583
1002
}
  0
POLYLINE
  5
F44
  8
0
 66
     1
 10
0.0
 20
0.0
 30
0.0
 70
   128
1001
REVIT
1002
{
1070
     3
1000
422583
1002
}
  0
VERTEX
  5
1587
  8
0
 10
498.36410750608928
 20
592.67275953486364
 30
0.0
  0
VERTEX
  5
1588
  8
0
 10
498.52562094825828
 20
592.2980947972884
 30
0.0
  0
VERTEX
  5
1589
  8
0
 10
494.33636011256181
 20
584.71493945074724
 30
0.0
  0
SEQEND
  5
158A
  8
0
  0
LINE
  5
F45
  8
0
 10
480.98220289951092
 20
593.13165906498705
 30
0.0
 11
491.4288852278554
 21
579.82671440752745
 31
0.0
1001
REVIT
1002
{
1070
     3
1000
422583
1002
}
  0
LINE
  5
F46
  8
0
 10
508.87249561535992
 20
643.61703837825348
 30
0.0
 11
513.02462774226001
 21
636.40122940049503
 31
0.0
1001
REVIT
1002
{
1070
     3
1000
422583
1002
}
  0
POLYLINE
  5
F47
  8
0
 66
     1
 10
0.0
 20
0.0
 30
0.0
 70
   128
1001
REVIT
1002
{
1070
     3
1000
422583
1002
}
  0
VERTEX
  5
158B
  8
0
 10
337.04725304453802
 20
318.12801972673509
 30
0.0
  0
VERTEX
  5
158C
  8
0
 10
339.84615783681721
 20
308.85818935736393
 30
0.0
  0
VERTEX
  5
158D
  8
0
 10
337.84268368715283
 20
305.48982577721853
 30
0.0
  0
VERTEX
  5
158E
  8
0
 10
332.77505545848533
 20
300.22352114008601
 30
0.0
  0
VERTEX
  5
158F
  8
0
 10
332.77505545848533
 20
324.85573483112557
 30
0.0
  0
SEQEND
  5
1590
  8
0
  0
POLYLINE
  5
F48
  8
0
 66
     1
 10
0.0
 20
0.0
 30
0.0
 70
   128
1001
REVIT
1002
{
1070
     3
1000
422583
1002
}
  0
VERTEX
  5
1591
  8
0
 10
410.02736825738219
 20
300.85471036203711
 30
0.0
  0
VERTEX
  5
1592
  8
0
 10
413.08413824608948
 20
290.7308435725468
 30
0.0
  0
VERTEX
  5
1593
  8
0
 10
402.4081888325552
 20
291.18592454747829
 30
0.0
  0
VERTEX
  5
1594
  8
0
 10
391.69886147605229
 20
300.28096053067247
 30
0.0
  0
VERTEX
  5
1595
  8
0
 10
388.642091487345
 20
310.40482732016289
 30
0.0
  0
SEQEND
  5
1596
  8
0
  0
POLYLINE
  5
F49
  8
0
 66
     1
 10
0.0
 20
0.0
 30
0.0
 70
   128
1001
REVIT
1002
{
1070
     3
1000
422583
1002
}
  0
VERTEX
  5
1597
  8
0
 10
402.40818883255508
 20
291.18592454747829
 30
0.0
  0
VERTEX
  5
1598
  8
0
 10
399.34119620787192
 20
301.34364818757911
 30
0.0
  0
VERTEX
  5
1599
  8
0
 10
388.6313621346157
 20
310.43911450658732
 30
0.0
  0
SEQEND
  5
159A
  8
0
  0
POLYLINE
  5
F4A
  8
0
 66
     1
 10
0.0
 20
0.0
 30
0.0
 70
   128
1001
REVIT
1002
{
1070
     3
1000
422583
1002
}
  0
VERTEX
  5
159B
  8
0
 10
400.21800793079052
 20
304.9309008202257
 30
0.0
  0
VERTEX
  5
159C
  8
0
 10
389.99764982630541
 20
313.61067328651262
 30
0.0
  0
VERTEX
  5
159D
  8
0
 10
550.12605804215275
 20
582.82837118955786
 30
0.0
  0
SEQEND
  5
159E
  8
0
  0
POLYLINE
  5
F4B
  8
0
 66
     1
 10
0.0
 20
0.0
 30
0.0
 70
   129
1001
REVIT
1002
{
1070
     3
1000
422583
1002
}
  0
VERTEX
  5
159F
  8
0
 10
371.6884981933315
 20
295.8972846278516
 30
0.0
  0
VERTEX
  5
15A0
  8
0
 10
390.46014790783943
 20
300.6280537365987
 30
0.0
  0
VERTEX
  5
15A1
  8
0
 10
387.3931552831562
 20
310.7857773766994
 30
0.0
  0
VERTEX
  5
15A2
  8
0
 10
356.86742862118081
 20
303.09278465039017
 30
0.0
  0
VERTEX
  5
15A3
  8
0
 10
358.93249715069601
 20
296.25338267339669
 30
0.0
  0
SEQEND
  5
15A4
  8
0
  0
POLYLINE
  5
F4C
  8
0
 66
     1
 10
0.0
 20
0.0
 30
0.0
 70
   129
1001
REVIT
1002
{
1070
     3
1000
422583
1002
}
  0
VERTEX
  5
15A5
  8
0
 10
518.07324127620302
 20
576.20203239604075
 30
0.0
  0
VERTEX
  5
15A6
  8
0
 10
357.76729557424312
 20
306.68584758592561
 30
0.0
  0
VERTEX
  5
15A7
  8
0
 10
387.70343325116431
 20
314.23025404519018
 30
0.0
  0
VERTEX
  5
15A8
  8
0
 10
548.00937895312359
 20
583.74643885530463
 30
0.0
  0
SEQEND
  5
15A9
  8
0
  0
POLYLINE
  5
F4D
  8
0
 66
     1
 10
0.0
 20
0.0
 30
0.0
 70
   128
1001
REVIT
1002
{
1070
     3
1000
422583
1002
}
  0
VERTEX
  5
15AA
  8
0
 10
524.05009975489304
 20
580.67854884249573
 30
0.0
  0
VERTEX
  5
15AB
  8
0
 10
518.82384344863465
 20
579.36144500431055
 30
0.0
  0
VERTEX
  5
15AC
  8
0
 10
518.37835443710514
 20
580.83688196082483
 30
0.0
  0
SEQEND
  5
15AD
  8
0
  0
POLYLINE
  5
F4E
  8
0
 66
     1
 10
0.0
 20
0.0
 30
0.0
 70
   129
1001
REVIT
1002
{
1070
     3
1000
422583
1002
}
  0
VERTEX
  5
15AE
  8
0
 10
340.21203340869442
 20
308.65260481446978
 30
0.0
  0
VERTEX
  5
15AF
  8
0
 10
357.43289613916238
 20
296.72774256884412
 30
0.0
  0
VERTEX
  5
15B0
  8
0
 10
355.40530976580521
 20
303.4430055503193
 30
0.0
  0
VERTEX
  5
15B1
  8
0
 10
337.4121611900481
 20
317.92563925078161
 30
0.0
  0
SEQEND
  5
15B2
  8
0
  0
POLYLINE
  5
F4F
  8
0
 66
     1
 10
0.0
 20
0.0
 30
0.0
 70
   128
1001
REVIT
1002
{
1070
     3
1000
422583
1002
}
  0
VERTEX
  5
15B3
  8
0
 10
356.35115253008132
 20
307.2471552606558
 30
0.0
  0
VERTEX
  5
15B4
  8
0
 10
516.54750748356332
 20
576.57908938505329
 30
0.0
  0
VERTEX
  5
15B5
  8
0
 10
498.71877570443922
 20
590.92938447730535
 30
0.0
  0
VERTEX
  5
15B6
  8
0
 10
338.41283000247938
 20
321.4131996671901
 30
0.0
  0
VERTEX
  5
15B7
  8
0
 10
356.24629751951181
 20
307.05909279307389
 30
0.0
  0
SEQEND
  5
15B8
  8
0
  0
LINE
  5
F50
  8
0
 10
517.3693632252764
 20
579.70551759122998
 30
0.0
 11
515.85396815597187
 21
580.92525473772287
 31
0.0
1001
REVIT
1002
{
1070
     3
1000
422583
1002
}
  0
LINE
  5
F51
  8
0
 10
517.3197640362539
 20
579.85063713567126
 30
0.0
 11
517.01045029030774
 21
580.87506853603281
 31
0.0
1001
REVIT
1002
{
1070
     3
1000
422583
1002
}
  0
LINE
  5
F52
  8
0
 10
560.52395363275014
 20
574.44708563034089
 30
0.0
 11
570.72268259119915
 21
574.01234701013084
 31
0.0
1001
REVIT
1002
{
1070
     3
1000
422583
1002
}
  0
POLYLINE
  5
F53
  8
0
 66
     1
 10
0.0
 20
0.0
 30
0.0
 70
   128
1001
REVIT
1002
{
1070
     3
1000
422583
1002
}
  0
VERTEX
  5
15B9
  8
0
 10
550.29333874263
 20
583.13556880564954
 30
0.0
  0
VERTEX
  5
15BA
  8
0
 10
560.52395363275014
 20
574.44708563034089
 30
0.0
  0
VERTEX
  5
15BB
  8
0
 10
400.21800793079052
 20
304.93090082022587
 30
0.0
  0
VERTEX
  5
15BC
  8
0
 10
410.40651207110358
 20
304.49659805073293
 30
0.0
  0
VERTEX
  5
15BD
  8
0
 10
570.53492028695166
 20
573.71429595377765
 30
0.0
  0
SEQEND
  5
15BE
  8
0
  0
LINE
  5
F54
  8
0
 10
399.34119620787192
 20
301.34364818757922
 30
0.0
 11
410.01765075886732
 21
300.88854568028171
 31
0.0
1001
REVIT
1002
{
1070
     3
1000
422583
1002
}
  0
POLYLINE
  5
F55
  8
0
 66
     1
 10
0.0
 20
0.0
 30
0.0
 70
   128
1001
REVIT
1002
{
1070
     3
1000
422583
1002
}
  0
VERTEX
  5
15BF
  8
0
 10
595.3656194176375
 20
545.53164250074235
 30
0.0
  0
VERTEX
  5
15C0
  8
0
 10
595.73999490849724
 20
545.01266147863885
 30
0.0
  0
VERTEX
  5
15C1
  8
0
 10
595.60082557880105
 20
545.47358322290575
 30
0.0
  0
SEQEND
  5
15C2
  8
0
  0
POLYLINE
  5
F56
  8
0
 66
     1
 10
0.0
 20
0.0
 30
0.0
 70
   129
1001
REVIT
1002
{
1070
     3
1000
422583
1002
}
  0
VERTEX
  5
15C3
  8
0
 10
434.64325180281912
 20
272.35501422120137
 30
0.0
  0
VERTEX
  5
15C4
  8
0
 10
594.94919750477902
 20
541.87119903131656
 30
0.0
  0
VERTEX
  5
15C5
  8
0
 10
572.69370793491635
 20
572.7230496635749
 30
0.0
  0
VERTEX
  5
15C6
  8
0
 10
412.38776223295741
 20
303.20686485346067
 30
0.0
  0
SEQEND
  5
15C7
  8
0
  0
POLYLINE
  5
F57
  8
0
 66
     1
 10
0.0
 20
0.0
 30
0.0
 70
   129
1001
REVIT
1002
{
1070
     3
1000
422583
1002
}
  0
VERTEX
  5
15C8
  8
0
 10
414.15676368233352
 20
290.04575196927971
 30
0.0
  0
VERTEX
  5
15C9
  8
0
 10
411.0897710576503
 20
300.20347560937978
 30
0.0
  0
VERTEX
  5
15CA
  8
0
 10
433.78358008104311
 20
268.74400112471841
 30
0.0
  0
VERTEX
  5
15CB
  8
0
 10
435.84864861055797
 20
261.90459914772339
 30
0.0
  0
VERTEX
  5
15CC
  8
0
 10
428.11221307727612
 20
270.69989849401418
 30
0.0
  0
SEQEND
  5
15CD
  8
0
  0
LINE
  5
F58
  8
0
 10
597.08481659755194
 20
544.10663751772574
 30
0.0
 11
605.72036955133035
 21
542.97563243720606
 31
0.0
1001
REVIT
1002
{
1070
     3
1000
422583
1002
}
  0
POLYLINE
  5
F59
  8
0
 66
     1
 10
0.0
 20
0.0
 30
0.0
 70
   128
1001
REVIT
1002
{
1070
     3
1000
422583
1002
}
  0
VERTEX
  5
15CE
  8
0
 10
436.05455905725682
 20
271.41876696956012
 30
0.0
  0
VERTEX
  5
15CF
  8
0
 10
456.30190947101943
 20
268.76695575288409
 30
0.0
  0
VERTEX
  5
15D0
  8
0
 10
616.60785517297893
 20
538.28314056299917
 30
0.0
  0
VERTEX
  5
15D1
  8
0
 10
596.36588151193166
 20
540.93424758219419
 30
0.0
  0
VERTEX
  5
15D2
  8
0
 10
436.16952655844977
 20
271.60231345779641
 30
0.0
  0
SEQEND
  5
15D3
  8
0
  0
POLYLINE
  5
F5A
  8
0
 66
     1
 10
0.0
 20
0.0
 30
0.0
 70
   129
1001
REVIT
1002
{
1070
     3
1000
422583
1002
}
  0
VERTEX
  5
15D4
  8
0
 10
455.5657197494134
 20
265.1612857474571
 30
0.0
  0
VERTEX
  5
15D5
  8
0
 10
435.13707434367302
 20
267.8368413101054
 30
0.0
  0
VERTEX
  5
15D6
  8
0
 10
437.16466071702979
 20
261.1215783286309
 30
0.0
  0
VERTEX
  5
15D7
  8
0
 10
458.3655919680599
 20
255.8882513111449
 30
0.0
  0
SEQEND
  5
15D8
  8
0
  0
POLYLINE
  5
F5B
  8
0
 66
     1
 10
0.0
 20
0.0
 30
0.0
 70
   128
1001
REVIT
1002
{
1070
     3
1000
422583
1002
}
  0
VERTEX
  5
15D9
  8
0
 10
521.33315750179486
 20
238.0770790438302
 30
0.0
  0
VERTEX
  5
15DA
  8
0
 10
510.62383014529178
 20
247.1721150270246
 30
0.0
  0
VERTEX
  5
15DB
  8
0
 10
507.56706015658449
 20
257.29598181651482
 30
0.0
  0
SEQEND
  5
15DC
  8
0
  0
POLYLINE
  5
F5C
  8
0
 66
     1
 10
0.0
 20
0.0
 30
0.0
 70
   128
1001
REVIT
1002
{
1070
     3
1000
422583
1002
}
  0
VERTEX
  5
15DD
  8
0
 10
528.9523369266218
 20
247.74586485838881
 30
0.0
  0
VERTEX
  5
15DE
  8
0
 10
532.00910691532931
 20
237.62199806889879
 30
0.0
  0
VERTEX
  5
15DF
  8
0
 10
521.33315750179474
 20
238.07707904382971
 30
0.0
  0
VERTEX
  5
15E0
  8
0
 10
518.26616487711135
 20
248.23480268393061
 30
0.0
  0
VERTEX
  5
15E1
  8
0
 10
507.55633080385508
 20
257.33026900293902
 30
0.0
  0
SEQEND
  5
15E2
  8
0
  0
POLYLINE
  5
F5D
  8
0
 66
     1
 10
0.0
 20
0.0
 30
0.0
 70
   128
1001
REVIT
1002
{
1070
     3
1000
422583
1002
}
  0
VERTEX
  5
15E3
  8
0
 10
519.14297660003035
 20
251.8220553165774
 30
0.0
  0
VERTEX
  5
15E4
  8
0
 10
508.9226184955449
 20
260.50182778286432
 30
0.0
  0
VERTEX
  5
15E5
  8
0
 10
669.05102671139218
 20
529.71952568590962
 30
0.0
  0
SEQEND
  5
15E6
  8
0
  0
POLYLINE
  5
F5E
  8
0
 66
     1
 10
0.0
 20
0.0
 30
0.0
 70
   129
1001
REVIT
1002
{
1070
     3
1000
422583
1002
}
  0
VERTEX
  5
15E7
  8
0
 10
506.31812395239569
 20
257.67693187305122
 30
0.0
  0
VERTEX
  5
15E8
  8
0
 10
475.79239729042018
 20
249.9839391467419
 30
0.0
  0
VERTEX
  5
15E9
  8
0
 10
477.85746581993578
 20
243.14453716974711
 30
0.0
  0
VERTEX
  5
15EA
  8
0
 10
490.6134668625711
 20
242.78843912420311
 30
0.0
  0
VERTEX
  5
15EB
  8
0
 10
509.38511657707892
 20
247.5192082329504
 30
0.0
  0
SEQEND
  5
15EC
  8
0
  0
POLYLINE
  5
F5F
  8
0
 66
     1
 10
0.0
 20
0.0
 30
0.0
 70
   129
1001
REVIT
1002
{
1070
     3
1000
422583
1002
}
  0
VERTEX
  5
15ED
  8
0
 10
636.99820994544189
 20
523.09318689239205
 30
0.0
  0
VERTEX
  5
15EE
  8
0
 10
476.6922642434825
 20
253.5770020822774
 30
0.0
  0
VERTEX
  5
15EF
  8
0
 10
506.62840192040369
 20
261.12140854154228
 30
0.0
  0
VERTEX
  5
15F0
  8
0
 10
666.93434762236279
 20
530.63759335165662
 30
0.0
  0
SEQEND
  5
15F1
  8
0
  0
POLYLINE
  5
F60
  8
0
 66
     1
 10
0.0
 20
0.0
 30
0.0
 70
   128
1001
REVIT
1002
{
1070
     3
1000
422583
1002
}
  0
VERTEX
  5
15F2
  8
0
 10
642.97506842413111
 20
527.56970333884703
 30
0.0
  0
VERTEX
  5
15F3
  8
0
 10
637.74881211787419
 20
526.25259950066254
 30
0.0
  0
VERTEX
  5
15F4
  8
0
 10
637.30332310634458
 20
527.72803645717579
 30
0.0
  0
SEQEND
  5
15F5
  8
0
  0
POLYLINE
  5
F61
  8
0
 66
     1
 10
0.0
 20
0.0
 30
0.0
 70
   129
1001
REVIT
1002
{
1070
     3
1000
422583
1002
}
  0
VERTEX
  5
15F6
  8
0
 10
459.13700207793431
 20
255.543759310821
 30
0.0
  0
VERTEX
  5
15F7
  8
0
 10
476.35786480840198
 20
243.61889706519631
 30
0.0
  0
VERTEX
  5
15F8
  8
0
 10
474.33027843504522
 20
250.33416004667129
 30
0.0
  0
VERTEX
  5
15F9
  8
0
 10
456.33712985928798
 20
264.8167937471336
 30
0.0
  0
SEQEND
  5
15FA
  8
0
  0
POLYLINE
  5
F62
  8
0
 66
     1
 10
0.0
 20
0.0
 30
0.0
 70
   128
1001
REVIT
1002
{
1070
     3
1000
422583
1002
}
  0
VERTEX
  5
15FB
  8
0
 10
475.27612119932058
 20
254.13830975700759
 30
0.0
  0
VERTEX
  5
15FC
  8
0
 10
635.47247615280287
 20
523.47024388140528
 30
0.0
  0
VERTEX
  5
15FD
  8
0
 10
617.64374437367871
 20
537.82053897365699
 30
0.0
  0
VERTEX
  5
15FE
  8
0
 10
457.3377986717191
 20
268.30435416354192
 30
0.0
  0
VERTEX
  5
15FF
  8
0
 10
475.1712661887513
 20
253.9502472894261
 30
0.0
  0
SEQEND
  5
1600
  8
0
  0
LINE
  5
F63
  8
0
 10
636.29433189451561
 20
526.59667208758162
 30
0.0
 11
634.77893682521164
 21
527.8164092340744
 31
0.0
1001
REVIT
1002
{
1070
     3
1000
422583
1002
}
  0
LINE
  5
F64
  8
0
 10
596.76735802173687
 20
545.18563144955635
 30
0.0
 11
597.0515286141208
 21
544.24447289545719
 31
0.0
1001
REVIT
1002
{
1070
     3
1000
422583
1002
}
  0
LINE
  5
F65
  8
0
 10
636.24473270549299
 20
526.74179163202314
 30
0.0
 11
635.93541895954706
 21
527.766223032384
 31
0.0
1001
REVIT
1002
{
1070
     3
1000
422583
1002
}
  0
LINE
  5
F66
  8
0
 10
679.44892230198968
 20
521.33824012669254
 30
0.0
 11
689.64765126043881
 21
520.90350150648248
 31
0.0
1001
REVIT
1002
{
1070
     3
1000
422583
1002
}
  0
POLYLINE
  5
F67
  8
0
 66
     1
 10
0.0
 20
0.0
 30
0.0
 70
   128
1001
REVIT
1002
{
1070
     3
1000
422583
1002
}
  0
VERTEX
  5
1601
  8
0
 10
669.21830741186955
 20
530.02672330200107
 30
0.0
  0
VERTEX
  5
1602
  8
0
 10
679.44892230198968
 20
521.33824012669254
 30
0.0
  0
VERTEX
  5
1603
  8
0
 10
519.14297660003035
 20
251.82205531657749
 30
0.0
  0
VERTEX
  5
1604
  8
0
 10
529.33148074034307
 20
251.3877525470848
 30
0.0
  0
VERTEX
  5
1605
  8
0
 10
689.45988895619143
 20
520.6054504501293
 30
0.0
  0
SEQEND
  5
1606
  8
0
  0
LINE
  5
F68
  8
0
 10
518.26616487711135
 20
248.23480268393061
 30
0.0
 11
528.94261942810715
 21
247.7797001766333
 31
0.0
1001
REVIT
1002
{
1070
     3
1000
422583
1002
}
  0
POLYLINE
  5
F69
  8
0
 66
     1
 10
0.0
 20
0.0
 30
0.0
 70
   128
1001
REVIT
1002
{
1070
     3
1000
422583
1002
}
  0
VERTEX
  5
1607
  8
0
 10
714.29058808687591
 20
492.42279699709428
 30
0.0
  0
VERTEX
  5
1608
  8
0
 10
714.6649635777361
 20
491.90381597498993
 30
0.0
  0
VERTEX
  5
1609
  8
0
 10
714.52579424804037
 20
492.36473771925728
 30
0.0
  0
SEQEND
  5
160A
  8
0
  0
POLYLINE
  5
F6A
  8
0
 66
     1
 10
0.0
 20
0.0
 30
0.0
 70
   129
1001
REVIT
1002
{
1070
     3
1000
422583
1002
}
  0
VERTEX
  5
160B
  8
0
 10
553.56822047205856
 20
219.24616871755339
 30
0.0
  0
VERTEX
  5
160C
  8
0
 10
713.87416617401846
 20
488.76235352766849
 30
0.0
  0
VERTEX
  5
160D
  8
0
 10
691.61867660415601
 20
519.61420415992689
 30
0.0
  0
VERTEX
  5
160E
  8
0
 10
531.31273090219702
 20
250.0980193498128
 30
0.0
  0
SEQEND
  5
160F
  8
0
  0
POLYLINE
  5
F6B
  8
0
 66
     1
 10
0.0
 20
0.0
 30
0.0
 70
   129
1001
REVIT
1002
{
1070
     3
1000
422583
1002
}
  0
VERTEX
  5
1610
  8
0
 10
533.08173235157392
 20
236.9369064656313
 30
0.0
  0
VERTEX
  5
1611
  8
0
 10
530.0147397268903
 20
247.09463010573131
 30
0.0
  0
VERTEX
  5
1612
  8
0
 10
552.70854875028272
 20
215.63515562107031
 30
0.0
  0
VERTEX
  5
1613
  8
0
 10
554.77361727979815
 20
208.7957536440756
 30
0.0
  0
VERTEX
  5
1614
  8
0
 10
547.03718174651613
 20
217.59105299036651
 30
0.0
  0
SEQEND
  5
1615
  8
0
  0
LINE
  5
F6C
  8
0
 10
716.00978526679091
 20
490.99779201407722
 30
0.0
 11
724.64533822057672
 21
489.86678693355651
 31
0.0
1001
REVIT
1002
{
1070
     3
1000
422583
1002
}
  0
POLYLINE
  5
F6D
  8
0
 66
     1
 10
0.0
 20
0.0
 30
0.0
 70
   128
1001
REVIT
1002
{
1070
     3
1000
422583
1002
}
  0
VERTEX
  5
1616
  8
0
 10
554.97952772649649
 20
218.309921465912
 30
0.0
  0
VERTEX
  5
1617
  8
0
 10
575.22687814025903
 20
215.6581102492361
 30
0.0
  0
VERTEX
  5
1618
  8
0
 10
735.53282384221848
 20
485.1742950593511
 30
0.0
  0
VERTEX
  5
1619
  8
0
 10
715.29085018117121
 20
487.82540207854561
 30
0.0
  0
VERTEX
  5
161A
  8
0
 10
555.09449522768921
 20
218.4934679541484
 30
0.0
  0
SEQEND
  5
161B
  8
0
  0
POLYLINE
  5
F6E
  8
0
 66
     1
 10
0.0
 20
0.0
 30
0.0
 70
   129
1001
REVIT
1002
{
1070
     3
1000
422583
1002
}
  0
VERTEX
  5
161C
  8
0
 10
574.49068841865301
 20
212.05244024380849
 30
0.0
  0
VERTEX
  5
161D
  8
0
 10
554.0620430129128
 20
214.72799580645699
 30
0.0
  0
VERTEX
  5
161E
  8
0
 10
556.08962938626951
 20
208.0127328249819
 30
0.0
  0
VERTEX
  5
161F
  8
0
 10
577.29056063729945
 20
202.779405807496
 30
0.0
  0
SEQEND
  5
1620
  8
0
  0
POLYLINE
  5
F6F
  8
0
 66
     1
 10
0.0
 20
0.0
 30
0.0
 70
   128
1001
REVIT
1002
{
1070
     3
1000
422583
1002
}
  0
VERTEX
  5
1621
  8
0
 10
640.25812617103384
 20
184.96823354018201
 30
0.0
  0
VERTEX
  5
1622
  8
0
 10
629.54879881453098
 20
194.06326952337631
 30
0.0
  0
VERTEX
  5
1623
  8
0
 10
626.49202882582381
 20
204.18713631286639
 30
0.0
  0
SEQEND
  5
1624
  8
0
  0
POLYLINE
  5
F70
  8
0
 66
     1
 10
0.0
 20
0.0
 30
0.0
 70
   128
1001
REVIT
1002
{
1070
     3
1000
422583
1002
}
  0
VERTEX
  5
1625
  8
0
 10
647.87730559586112
 20
194.6370193547408
 30
0.0
  0
VERTEX
  5
1626
  8
0
 10
650.93407558456806
 20
184.51315256525049
 30
0.0
  0
VERTEX
  5
1627
  8
0
 10
640.25812617103406
 20
184.9682335401821
 30
0.0
  0
VERTEX
  5
1628
  8
0
 10
637.1911335463509
 20
195.12595718028291
 30
0.0
  0
VERTEX
  5
1629
  8
0
 10
626.48129947309474
 20
204.22142349929109
 30
0.0
  0
SEQEND
  5
162A
  8
0
  0
POLYLINE
  5
F71
  8
0
 66
     1
 10
0.0
 20
0.0
 30
0.0
 70
   128
1001
REVIT
1002
{
1070
     3
1000
422583
1002
}
  0
VERTEX
  5
162B
  8
0
 10
638.06794526926944
 20
198.71320981292951
 30
0.0
  0
VERTEX
  5
162C
  8
0
 10
627.84758716478416
 20
207.3929822792164
 30
0.0
  0
VERTEX
  5
162D
  8
0
 10
787.97599538063184
 20
476.61068018226109
 30
0.0
  0
SEQEND
  5
162E
  8
0
  0
POLYLINE
  5
F72
  8
0
 66
     1
 10
0.0
 20
0.0
 30
0.0
 70
   129
1001
REVIT
1002
{
1070
     3
1000
422583
1002
}
  0
VERTEX
  5
162F
  8
0
 10
625.24309262163479
 20
204.56808636940301
 30
0.0
  0
VERTEX
  5
1630
  8
0
 10
594.71736595965979
 20
196.875093643094
 30
0.0
  0
VERTEX
  5
1631
  8
0
 10
596.7824344891751
 20
190.0356916660991
 30
0.0
  0
VERTEX
  5
1632
  8
0
 10
609.53843553181105
 20
189.6795936205551
 30
0.0
  0
VERTEX
  5
1633
  8
0
 10
628.31008524631807
 20
194.41036272930251
 30
0.0
  0
SEQEND
  5
1634
  8
0
  0
POLYLINE
  5
F73
  8
0
 66
     1
 10
0.0
 20
0.0
 30
0.0
 70
   129
1001
REVIT
1002
{
1070
     3
1000
422583
1002
}
  0
VERTEX
  5
1635
  8
0
 10
755.92317861468155
 20
469.98434138874399
 30
0.0
  0
VERTEX
  5
1636
  8
0
 10
595.61723291272199
 20
200.46815657862919
 30
0.0
  0
VERTEX
  5
1637
  8
0
 10
625.55337058964312
 20
208.01256303789401
 30
0.0
  0
VERTEX
  5
1638
  8
0
 10
785.85931629160223
 20
477.52874784800798
 30
0.0
  0
SEQEND
  5
1639
  8
0
  0
POLYLINE
  5
F74
  8
0
 66
     1
 10
0.0
 20
0.0
 30
0.0
 70
   128
1001
REVIT
1002
{
1070
     3
1000
422583
1002
}
  0
VERTEX
  5
163A
  8
0
 10
761.90003709337145
 20
474.46085783519891
 30
0.0
  0
VERTEX
  5
163B
  8
0
 10
756.67378078711329
 20
473.1437539970139
 30
0.0
  0
VERTEX
  5
163C
  8
0
 10
756.22829177558469
 20
474.61919095352778
 30
0.0
  0
SEQEND
  5
163D
  8
0
  0
POLYLINE
  5
F75
  8
0
 66
     1
 10
0.0
 20
0.0
 30
0.0
 70
   129
1001
REVIT
1002
{
1070
     3
1000
422583
1002
}
  0
VERTEX
  5
163E
  8
0
 10
578.0619707471734
 20
202.43491380717259
 30
0.0
  0
VERTEX
  5
163F
  8
0
 10
595.28283347764102
 20
190.51005156154761
 30
0.0
  0
VERTEX
  5
1640
  8
0
 10
593.25524710428419
 20
197.22531454302259
 30
0.0
  0
VERTEX
  5
1641
  8
0
 10
575.26209852852742
 20
211.70794824348519
 30
0.0
  0
SEQEND
  5
1642
  8
0
  0
POLYLINE
  5
F76
  8
0
 66
     1
 10
0.0
 20
0.0
 30
0.0
 70
   128
1001
REVIT
1002
{
1070
     3
1000
422583
1002
}
  0
VERTEX
  5
1643
  8
0
 10
594.20108986856008
 20
201.02946425335949
 30
0.0
  0
VERTEX
  5
1644
  8
0
 10
754.39744482204219
 20
470.36139837775681
 30
0.0
  0
VERTEX
  5
1645
  8
0
 10
736.56871304291815
 20
484.71169347000892
 30
0.0
  0
VERTEX
  5
1646
  8
0
 10
576.26276734095893
 20
215.19550865989399
 30
0.0
  0
VERTEX
  5
1647
  8
0
 10
594.09623485799057
 20
200.84140178577761
 30
0.0
  0
SEQEND
  5
1648
  8
0
  0
LINE
  5
F77
  8
0
 10
755.21930056375459
 20
473.48782658393299
 30
0.0
 11
753.70390549444994
 21
474.7075637304265
 31
0.0
1001
REVIT
1002
{
1070
     3
1000
422583
1002
}
  0
LINE
  5
F78
  8
0
 10
715.69232669097642
 20
492.076785945908
 30
0.0
 11
715.97649728336035
 21
491.13562739180918
 31
0.0
1001
REVIT
1002
{
1070
     3
1000
422583
1002
}
  0
LINE
  5
F79
  8
0
 10
755.16970137473231
 20
473.63294612837473
 30
0.0
 11
754.86038762878661
 21
474.65737752873582
 31
0.0
1001
REVIT
1002
{
1070
     3
1000
422583
1002
}
  0
LINE
  5
F7A
  8
0
 10
798.37389097122934
 20
468.22939462304441
 30
0.0
 11
808.57261992967824
 21
467.79465600283442
 31
0.0
1001
REVIT
1002
{
1070
     3
1000
422583
1002
}
  0
POLYLINE
  5
F7B
  8
0
 66
     1
 10
0.0
 20
0.0
 30
0.0
 70
   128
1001
REVIT
1002
{
1070
     3
1000
422583
1002
}
  0
VERTEX
  5
1649
  8
0
 10
788.14327608110887
 20
476.91787779835312
 30
0.0
  0
VERTEX
  5
164A
  8
0
 10
798.37389097122934
 20
468.22939462304441
 30
0.0
  0
VERTEX
  5
164B
  8
0
 10
638.06794526926944
 20
198.71320981292951
 30
0.0
  0
VERTEX
  5
164C
  8
0
 10
648.25644940958216
 20
198.27890704343611
 30
0.0
  0
VERTEX
  5
164D
  8
0
 10
808.38485762543041
 20
467.49660494648123
 30
0.0
  0
SEQEND
  5
164E
  8
0
  0
LINE
  5
F7C
  8
0
 10
637.1911335463509
 20
195.12595718028291
 30
0.0
 11
647.86758809734636
 21
194.6708546729854
 31
0.0
1001
REVIT
1002
{
1070
     3
1000
422583
1002
}
  0
POLYLINE
  5
F7D
  8
0
 66
     1
 10
0.0
 20
0.0
 30
0.0
 70
   128
1001
REVIT
1002
{
1070
     3
1000
422583
1002
}
  0
VERTEX
  5
164F
  8
0
 10
833.21555675611569
 20
439.31395149344593
 30
0.0
  0
VERTEX
  5
1650
  8
0
 10
833.58993224697554
 20
438.79497047134191
 30
0.0
  0
VERTEX
  5
1651
  8
0
 10
833.45076291728014
 20
439.25589221560932
 30
0.0
  0
SEQEND
  5
1652
  8
0
  0
POLYLINE
  5
F7E
  8
0
 66
     1
 10
0.0
 20
0.0
 30
0.0
 70
   129
1001
REVIT
1002
{
1070
     3
1000
422583
1002
}
  0
VERTEX
  5
1653
  8
0
 10
672.4931891412981
 20
166.13732321390481
 30
0.0
  0
VERTEX
  5
1654
  8
0
 10
832.79913484325812
 20
435.65350802402008
 30
0.0
  0
VERTEX
  5
1655
  8
0
 10
810.54364527339544
 20
466.50535865627887
 30
0.0
  0
VERTEX
  5
1656
  8
0
 10
650.23769957143554
 20
196.98917384616391
 30
0.0
  0
SEQEND
  5
1657
  8
0
  0
POLYLINE
  5
F7F
  8
0
 66
     1
 10
0.0
 20
0.0
 30
0.0
 70
   129
1001
REVIT
1002
{
1070
     3
1000
422583
1002
}
  0
VERTEX
  5
1658
  8
0
 10
652.00670102081256
 20
183.8280609619824
 30
0.0
  0
VERTEX
  5
1659
  8
0
 10
648.9397083961295
 20
193.9857846020833
 30
0.0
  0
VERTEX
  5
165A
  8
0
 10
671.63351741952226
 20
162.52631011742221
 30
0.0
  0
VERTEX
  5
165B
  8
0
 10
673.69858594903792
 20
155.68690814042719
 30
0.0
  0
VERTEX
  5
165C
  8
0
 10
665.96215041575567
 20
164.48220748671821
 30
0.0
  0
SEQEND
  5
165D
  8
0
  0
LINE
  5
F80
  8
0
 10
834.93475393603046
 20
437.88894651042921
 30
0.0
 11
843.57030688981206
 21
436.75794142990901
 31
0.0
1001
REVIT
1002
{
1070
     3
1000
422583
1002
}
  0
POLYLINE
  5
F81
  8
0
 66
     1
 10
0.0
 20
0.0
 30
0.0
 70
   128
1001
REVIT
1002
{
1070
     3
1000
422583
1002
}
  0
VERTEX
  5
165E
  8
0
 10
673.90449639573603
 20
165.2010759622635
 30
0.0
  0
VERTEX
  5
165F
  8
0
 10
694.15184680949835
 20
162.54926474558789
 30
0.0
  0
VERTEX
  5
1660
  8
0
 10
854.45779251145768
 20
432.0654495557024
 30
0.0
  0
VERTEX
  5
1661
  8
0
 10
834.21581885041064
 20
434.71655657489748
 30
0.0
  0
VERTEX
  5
1662
  8
0
 10
674.01946389692876
 20
165.3846224504999
 30
0.0
  0
SEQEND
  5
1663
  8
0
  0
POLYLINE
  5
F82
  8
0
 66
     1
 10
0.0
 20
0.0
 30
0.0
 70
   129
1001
REVIT
1002
{
1070
     3
1000
422583
1002
}
  0
VERTEX
  5
1664
  8
0
 10
693.41565708789221
 20
158.94359474016039
 30
0.0
  0
VERTEX
  5
1665
  8
0
 10
672.98701168215166
 20
161.619150302809
 30
0.0
  0
VERTEX
  5
1666
  8
0
 10
675.01459805550837
 20
154.90388732133351
 30
0.0
  0
VERTEX
  5
1667
  8
0
 10
696.21552930653854
 20
149.67056030384751
 30
0.0
  0
SEQEND
  5
1668
  8
0
  0
POLYLINE
  5
F83
  8
0
 66
     1
 10
0.0
 20
0.0
 30
0.0
 70
   128
1001
REVIT
1002
{
1070
     3
1000
422583
1002
}
  0
VERTEX
  5
1669
  8
0
 10
759.18309484027327
 20
131.8593880365338
 30
0.0
  0
VERTEX
  5
166A
  8
0
 10
748.47376748377053
 20
140.95442401972821
 30
0.0
  0
VERTEX
  5
166B
  8
0
 10
745.41699749506358
 20
151.0782908092186
 30
0.0
  0
SEQEND
  5
166C
  8
0
  0
POLYLINE
  5
F84
  8
0
 66
     1
 10
0.0
 20
0.0
 30
0.0
 70
   128
1001
REVIT
1002
{
1070
     3
1000
422583
1002
}
  0
VERTEX
  5
166D
  8
0
 10
766.80227426510078
 20
141.52817385109279
 30
0.0
  0
VERTEX
  5
166E
  8
0
 10
769.85904425380772
 20
131.40430706160259
 30
0.0
  0
VERTEX
  5
166F
  8
0
 10
759.18309484027338
 20
131.85938803653369
 30
0.0
  0
VERTEX
  5
1670
  8
0
 10
756.11610221559044
 20
142.0171116766345
 30
0.0
  0
VERTEX
  5
1671
  8
0
 10
745.40626814233417
 20
151.11257799564291
 30
0.0
  0
SEQEND
  5
1672
  8
0
  0
POLYLINE
  5
F85
  8
0
 66
     1
 10
0.0
 20
0.0
 30
0.0
 70
   128
1001
REVIT
1002
{
1070
     3
1000
422583
1002
}
  0
VERTEX
  5
1673
  8
0
 10
756.99291393850899
 20
145.60436430928129
 30
0.0
  0
VERTEX
  5
1674
  8
0
 10
746.77255583402382
 20
154.2841367755683
 30
0.0
  0
VERTEX
  5
1675
  8
0
 10
906.90096404987139
 20
423.50183467861348
 30
0.0
  0
SEQEND
  5
1676
  8
0
  0
POLYLINE
  5
F86
  8
0
 66
     1
 10
0.0
 20
0.0
 30
0.0
 70
   129
1001
REVIT
1002
{
1070
     3
1000
422583
1002
}
  0
VERTEX
  5
1677
  8
0
 10
744.16806129087445
 20
151.45924086575491
 30
0.0
  0
VERTEX
  5
1678
  8
0
 10
713.64233462889945
 20
143.76624813944599
 30
0.0
  0
VERTEX
  5
1679
  8
0
 10
715.70740315841488
 20
136.9268461624508
 30
0.0
  0
VERTEX
  5
167A
  8
0
 10
728.46340420105071
 20
136.57074811690731
 30
0.0
  0
VERTEX
  5
167B
  8
0
 10
747.23505391555784
 20
141.30151722565421
 30
0.0
  0
SEQEND
  5
167C
  8
0
  0
POLYLINE
  5
F87
  8
0
 66
     1
 10
0.0
 20
0.0
 30
0.0
 70
   129
1001
REVIT
1002
{
1070
     3
1000
422583
1002
}
  0
VERTEX
  5
167D
  8
0
 10
874.84814728392087
 20
416.87549588509592
 30
0.0
  0
VERTEX
  5
167E
  8
0
 10
714.54220158196142
 20
147.35931107498101
 30
0.0
  0
VERTEX
  5
167F
  8
0
 10
744.4783392588821
 20
154.90371753424529
 30
0.0
  0
VERTEX
  5
1680
  8
0
 10
904.784284960842
 20
424.41990234436042
 30
0.0
  0
SEQEND
  5
1681
  8
0
  0
POLYLINE
  5
F88
  8
0
 66
     1
 10
0.0
 20
0.0
 30
0.0
 70
   128
1001
REVIT
1002
{
1070
     3
1000
422583
1002
}
  0
VERTEX
  5
1682
  8
0
 10
880.82500576260975
 20
421.35201233155033
 30
0.0
  0
VERTEX
  5
1683
  8
0
 10
875.59874945635318
 20
420.03490849336589
 30
0.0
  0
VERTEX
  5
1684
  8
0
 10
875.15326044482413
 20
421.51034544987868
 30
0.0
  0
SEQEND
  5
1685
  8
0
  0
POLYLINE
  5
F89
  8
0
 66
     1
 10
0.0
 20
0.0
 30
0.0
 70
   129
1001
REVIT
1002
{
1070
     3
1000
422583
1002
}
  0
VERTEX
  5
1686
  8
0
 10
696.98693941641284
 20
149.3260683035241
 30
0.0
  0
VERTEX
  5
1687
  8
0
 10
714.20780214688045
 20
137.4012060578992
 30
0.0
  0
VERTEX
  5
1688
  8
0
 10
712.18021577352386
 20
144.11646903937441
 30
0.0
  0
VERTEX
  5
1689
  8
0
 10
694.18706719776662
 20
158.59910273983689
 30
0.0
  0
SEQEND
  5
168A
  8
0
  0
POLYLINE
  5
F8A
  8
0
 66
     1
 10
0.0
 20
0.0
 30
0.0
 70
   128
1001
REVIT
1002
{
1070
     3
1000
422583
1002
}
  0
VERTEX
  5
168B
  8
0
 10
713.12605853779962
 20
147.920618749711
 30
0.0
  0
VERTEX
  5
168C
  8
0
 10
873.32241349128185
 20
417.25255287410857
 30
0.0
  0
VERTEX
  5
168D
  8
0
 10
855.49368171215747
 20
431.6028479663604
 30
0.0
  0
VERTEX
  5
168E
  8
0
 10
695.18773601019802
 20
162.08666315624569
 30
0.0
  0
VERTEX
  5
168F
  8
0
 10
713.02120352723
 20
147.73255628212931
 30
0.0
  0
SEQEND
  5
1690
  8
0
  0
LINE
  5
F8B
  8
0
 10
874.14426923299425
 20
420.37898108028492
 30
0.0
 11
872.62887416368972
 21
421.59871822677781
 31
0.0
1001
REVIT
1002
{
1070
     3
1000
422583
1002
}
  0
LINE
  5
F8C
  8
0
 10
834.61729536021585
 20
438.96794044225982
 30
0.0
 11
834.90146595259978
 21
438.0267818881606
 31
0.0
1001
REVIT
1002
{
1070
     3
1000
422583
1002
}
  0
LINE
  5
F8D
  8
0
 10
874.09467004397186
 20
420.52410062472637
 30
0.0
 11
873.78535629802639
 21
421.54853202508667
 31
0.0
1001
REVIT
1002
{
1070
     3
1000
422583
1002
}
  0
LINE
  5
F8E
  8
0
 10
917.29885964046855
 20
415.12054911939629
 30
0.0
 11
927.49758859891745
 21
414.68581049918629
 31
0.0
1001
REVIT
1002
{
1070
     3
1000
422583
1002
}
  0
POLYLINE
  5
F8F
  8
0
 66
     1
 10
0.0
 20
0.0
 30
0.0
 70
   128
1001
REVIT
1002
{
1070
     3
1000
422583
1002
}
  0
VERTEX
  5
1691
  8
0
 10
907.06824475034841
 20
423.80903229470488
 30
0.0
  0
VERTEX
  5
1692
  8
0
 10
917.29885964046855
 20
415.12054911939629
 30
0.0
  0
VERTEX
  5
1693
  8
0
 10
756.99291393850899
 20
145.60436430928141
 30
0.0
  0
VERTEX
  5
1694
  8
0
 10
767.18141807882148
 20
145.17006153978789
 30
0.0
  0
VERTEX
  5
1695
  8
0
 10
927.30982629467007
 20
414.38775944283321
 30
0.0
  0
SEQEND
  5
1696
  8
0
  0
LINE
  5
F90
  8
0
 10
756.11610221559044
 20
142.01711167663461
 30
0.0
 11
766.79255676658602
 21
141.56200916933739
 31
0.0
1001
REVIT
1002
{
1070
     3
1000
422583
1002
}
  0
POLYLINE
  5
F91
  8
0
 66
     1
 10
0.0
 20
0.0
 30
0.0
 70
   128
1001
REVIT
1002
{
1070
     3
1000
422583
1002
}
  0
VERTEX
  5
1697
  8
0
 10
952.14052542535467
 20
386.20510598979808
 30
0.0
  0
VERTEX
  5
1698
  8
0
 10
952.51490091621486
 20
385.68612496769379
 30
0.0
  0
VERTEX
  5
1699
  8
0
 10
952.37573158651946
 20
386.1470467119612
 30
0.0
  0
SEQEND
  5
169A
  8
0
  0
POLYLINE
  5
F92
  8
0
 66
     1
 10
0.0
 20
0.0
 30
0.0
 70
   129
1001
REVIT
1002
{
1070
     3
1000
422583
1002
}
  0
VERTEX
  5
169B
  8
0
 10
791.41815781053765
 20
113.02847771025711
 30
0.0
  0
VERTEX
  5
169C
  8
0
 10
951.72410351249732
 20
382.54466252037219
 30
0.0
  0
VERTEX
  5
169D
  8
0
 10
929.46861394263442
 20
413.39651315263029
 30
0.0
  0
VERTEX
  5
169E
  8
0
 10
769.16266824067509
 20
143.8803283425157
 30
0.0
  0
SEQEND
  5
169F
  8
0
  0
POLYLINE
  5
F93
  8
0
 66
     1
 10
0.0
 20
0.0
 30
0.0
 70
   129
1001
REVIT
1002
{
1070
     3
1000
422583
1002
}
  0
VERTEX
  5
16A0
  8
0
 10
770.93166969005222
 20
130.71921545833419
 30
0.0
  0
VERTEX
  5
16A1
  8
0
 10
767.86467706536905
 20
140.87693909843529
 30
0.0
  0
VERTEX
  5
16A2
  8
0
 10
790.55848608876181
 20
109.4174646137742
 30
0.0
  0
VERTEX
  5
16A3
  8
0
 10
792.62355461827735
 20
102.57806263677909
 30
0.0
  0
VERTEX
  5
16A4
  8
0
 10
784.88711908499488
 20
111.3733619830701
 30
0.0
  0
SEQEND
  5
16A5
  8
0
  0
LINE
  5
F94
  8
0
 10
953.85972260527024
 20
384.78010100678102
 30
0.0
 11
962.49527555905115
 21
383.64909592626088
 31
0.0
1001
REVIT
1002
{
1070
     3
1000
422583
1002
}
  0
POLYLINE
  5
F95
  8
0
 66
     1
 10
0.0
 20
0.0
 30
0.0
 70
   128
1001
REVIT
1002
{
1070
     3
1000
422583
1002
}
  0
VERTEX
  5
16A6
  8
0
 10
792.82946506497547
 20
112.0922304586156
 30
0.0
  0
VERTEX
  5
16A7
  8
0
 10
813.07681547873801
 20
109.44041924193969
 30
0.0
  0
VERTEX
  5
16A8
  8
0
 10
973.38276118069734
 20
378.9566040520549
 30
0.0
  0
VERTEX
  5
16A9
  8
0
 10
953.1407875196503
 20
381.60771107124941
 30
0.0
  0
VERTEX
  5
16AA
  8
0
 10
792.9444325661683
 20
112.27577694685201
 30
0.0
  0
SEQEND
  5
16AB
  8
0
  0
POLYLINE
  5
F96
  8
0
 66
     1
 10
0.0
 20
0.0
 30
0.0
 70
   129
1001
REVIT
1002
{
1070
     3
1000
422583
1002
}
  0
VERTEX
  5
16AC
  8
0
 10
812.34062575713187
 20
105.83474923651229
 30
0.0
  0
VERTEX
  5
16AD
  8
0
 10
791.91198035139143
 20
108.51030479916081
 30
0.0
  0
VERTEX
  5
16AE
  8
0
 10
793.93956672474815
 20
101.7950418176855
 30
0.0
  0
VERTEX
  5
16AF
  8
0
 10
815.14049797577809
 20
96.561714800199695
 30
0.0
  0
SEQEND
  5
16B0
  8
0
  0
POLYLINE
  5
F97
  8
0
 66
     1
 10
0.0
 20
0.0
 30
0.0
 70
   128
1001
REVIT
1002
{
1070
     3
1000
422583
1002
}
  0
VERTEX
  5
16B1
  8
0
 10
885.72724293434067
 20
88.419328347444036
 30
0.0
  0
VERTEX
  5
16B2
  8
0
 10
888.78401292304807
 20
78.29546155795444
 30
0.0
  0
VERTEX
  5
16B3
  8
0
 10
878.10806350951304
 20
78.750542532886044
 30
0.0
  0
VERTEX
  5
16B4
  8
0
 10
867.39873615301019
 20
87.845578516080323
 30
0.0
  0
VERTEX
  5
16B5
  8
0
 10
864.34196616430313
 20
97.969445305570474
 30
0.0
  0
SEQEND
  5
16B6
  8
0
  0
POLYLINE
  5
F98
  8
0
 66
     1
 10
0.0
 20
0.0
 30
0.0
 70
   128
1001
REVIT
1002
{
1070
     3
1000
422583
1002
}
  0
VERTEX
  5
16B7
  8
0
 10
878.1080635095127
 20
78.750542532885504
 30
0.0
  0
VERTEX
  5
16B8
  8
0
 10
875.04107088482965
 20
88.908266172986316
 30
0.0
  0
VERTEX
  5
16B9
  8
0
 10
864.33123681157326
 20
98.003732491994555
 30
0.0
  0
SEQEND
  5
16BA
  8
0
  0
POLYLINE
  5
F99
  8
0
 66
     1
 10
0.0
 20
0.0
 30
0.0
 70
   128
1001
REVIT
1002
{
1070
     3
1000
422583
1002
}
  0
VERTEX
  5
16BB
  8
0
 10
875.91788260774854
 20
92.495518805633154
 30
0.0
  0
VERTEX
  5
16BC
  8
0
 10
865.69752450326291
 20
101.17529127192
 30
0.0
  0
VERTEX
  5
16BD
  8
0
 10
1025.8259327191111
 20
370.39298917496552
 30
0.0
  0
SEQEND
  5
16BE
  8
0
  0
POLYLINE
  5
F9A
  8
0
 66
     1
 10
0.0
 20
0.0
 30
0.0
 70
   129
1001
REVIT
1002
{
1070
     3
1000
422583
1002
}
  0
VERTEX
  5
16BF
  8
0
 10
863.09302996011388
 20
98.350395362106809
 30
0.0
  0
VERTEX
  5
16C0
  8
0
 10
832.567303298139
 20
90.657402635797936
 30
0.0
  0
VERTEX
  5
16C1
  8
0
 10
834.6323718276542
 20
83.818000658802561
 30
0.0
  0
VERTEX
  5
16C2
  8
0
 10
847.38837287029025
 20
83.461902613258957
 30
0.0
  0
VERTEX
  5
16C3
  8
0
 10
866.16002258479762
 20
88.192671722006097
 30
0.0
  0
SEQEND
  5
16C4
  8
0
  0
POLYLINE
  5
F9B
  8
0
 66
     1
 10
0.0
 20
0.0
 30
0.0
 70
   129
1001
REVIT
1002
{
1070
     3
1000
422583
1002
}
  0
VERTEX
  5
16C5
  8
0
 10
993.7731159531603
 20
363.76665038144779
 30
0.0
  0
VERTEX
  5
16C6
  8
0
 10
833.46717025120108
 20
94.250465571333308
 30
0.0
  0
VERTEX
  5
16C7
  8
0
 10
863.40330792812165
 20
101.7948720305972
 30
0.0
  0
VERTEX
  5
16C8
  8
0
 10
1023.709253630081
 20
371.3110568407123
 30
0.0
  0
SEQEND
  5
16C9
  8
0
  0
POLYLINE
  5
F9C
  8
0
 66
     1
 10
0.0
 20
0.0
 30
0.0
 70
   128
1001
REVIT
1002
{
1070
     3
1000
422583
1002
}
  0
VERTEX
  5
16CA
  8
0
 10
999.74997443184895
 20
368.24316682790231
 30
0.0
  0
VERTEX
  5
16CB
  8
0
 10
994.52371812559215
 20
366.92606298971771
 30
0.0
  0
VERTEX
  5
16CC
  8
0
 10
994.07822911406367
 20
368.40149994623062
 30
0.0
  0
SEQEND
  5
16CD
  8
0
  0
POLYLINE
  5
F9D
  8
0
 66
     1
 10
0.0
 20
0.0
 30
0.0
 70
   129
1001
REVIT
1002
{
1070
     3
1000
422583
1002
}
  0
VERTEX
  5
16CE
  8
0
 10
815.9119080856525
 20
96.217222799876112
 30
0.0
  0
VERTEX
  5
16CF
  8
0
 10
833.13277081612
 20
84.292360554251161
 30
0.0
  0
VERTEX
  5
16D0
  8
0
 10
831.10518444276317
 20
91.007623535726466
 30
0.0
  0
VERTEX
  5
16D1
  8
0
 10
813.11203586700606
 20
105.4902572361887
 30
0.0
  0
SEQEND
  5
16D2
  8
0
  0
POLYLINE
  5
F9E
  8
0
 66
     1
 10
0.0
 20
0.0
 30
0.0
 70
   128
1001
REVIT
1002
{
1070
     3
1000
422583
1002
}
  0
VERTEX
  5
16D3
  8
0
 10
832.05102720703894
 20
94.811773246063055
 30
0.0
  0
VERTEX
  5
16D4
  8
0
 10
992.24738216052083
 20
364.1437073704605
 30
0.0
  0
VERTEX
  5
16D5
  8
0
 10
974.41865038139713
 20
378.49400246271267
 30
0.0
  0
VERTEX
  5
16D6
  8
0
 10
814.11270467943746
 20
108.97781765259759
 30
0.0
  0
VERTEX
  5
16D7
  8
0
 10
831.94617219646955
 20
94.62371077848141
 30
0.0
  0
SEQEND
  5
16D8
  8
0
  0
LINE
  5
F9F
  8
0
 10
993.069237902233
 20
367.27013557663628
 30
0.0
 11
991.55384283292858
 21
368.48987272312968
 31
0.0
1001
REVIT
1002
{
1070
     3
1000
422583
1002
}
  0
LINE
  5
FA0
  8
0
 10
953.54226402945528
 20
385.85909493861192
 30
0.0
 11
953.82643462183944
 21
384.91793638451293
 31
0.0
1001
REVIT
1002
{
1070
     3
1000
422583
1002
}
  0
LINE
  5
FA1
  8
0
 10
993.01963871321095
 20
367.4152551210783
 30
0.0
 11
992.71032496726536
 21
368.43968652143872
 31
0.0
1001
REVIT
1002
{
1070
     3
1000
422583
1002
}
  0
LINE
  5
FA2
  8
0
 10
1036.2238283097081
 20
362.01170361574771
 30
0.0
 11
1046.4225572681571
 21
361.57696499553759
 31
0.0
1001
REVIT
1002
{
1070
     3
1000
422583
1002
}
  0
POLYLINE
  5
FA3
  8
0
 66
     1
 10
0.0
 20
0.0
 30
0.0
 70
   128
1001
REVIT
1002
{
1070
     3
1000
422583
1002
}
  0
VERTEX
  5
16D9
  8
0
 10
1025.9932134195881
 20
370.70018679105681
 30
0.0
  0
VERTEX
  5
16DA
  8
0
 10
1036.223828309709
 20
362.01170361574827
 30
0.0
  0
VERTEX
  5
16DB
  8
0
 10
875.91788260774854
 20
92.495518805633296
 30
0.0
  0
VERTEX
  5
16DC
  8
0
 10
886.10638674806069
 20
92.061216036139626
 30
0.0
  0
VERTEX
  5
16DD
  8
0
 10
1046.23479496391
 20
361.27891393918537
 30
0.0
  0
SEQEND
  5
16DE
  8
0
  0
LINE
  5
FA4
  8
0
 10
875.04107088482965
 20
88.908266172986316
 30
0.0
 11
885.71752543582511
 21
88.453163665689004
 31
0.0
1001
REVIT
1002
{
1070
     3
1000
422583
1002
}
  0
POLYLINE
  5
FA5
  8
0
 66
     1
 10
0.0
 20
0.0
 30
0.0
 70
   128
1001
REVIT
1002
{
1070
     3
1000
422583
1002
}
  0
VERTEX
  5
16DF
  8
0
 10
1071.065494094594
 20
333.0962604861499
 30
0.0
  0
VERTEX
  5
16E0
  8
0
 10
1071.439869585455
 20
332.57727946404572
 30
0.0
  0
VERTEX
  5
16E1
  8
0
 10
1071.300700255759
 20
333.03820120831301
 30
0.0
  0
SEQEND
  5
16E2
  8
0
  0
POLYLINE
  5
FA6
  8
0
 66
     1
 10
0.0
 20
0.0
 30
0.0
 70
   129
1001
REVIT
1002
{
1070
     3
1000
422583
1002
}
  0
VERTEX
  5
16E3
  8
0
 10
910.34312647977731
 20
59.919632206608867
 30
0.0
  0
VERTEX
  5
16E4
  8
0
 10
1070.6490721817361
 20
329.43581701672372
 30
0.0
  0
VERTEX
  5
16E5
  8
0
 10
1048.3935826118741
 20
360.28766764898228
 30
0.0
  0
VERTEX
  5
16E6
  8
0
 10
888.08763690991475
 20
90.771482838867399
 30
0.0
  0
SEQEND
  5
16E7
  8
0
  0
POLYLINE
  5
FA7
  8
0
 66
     1
 10
0.0
 20
0.0
 30
0.0
 70
   129
1001
REVIT
1002
{
1070
     3
1000
422583
1002
}
  0
VERTEX
  5
16E8
  8
0
 10
889.85663835929165
 20
77.610369954685893
 30
0.0
  0
VERTEX
  5
16E9
  8
0
 10
886.78964573460814
 20
87.768093594786933
 30
0.0
  0
VERTEX
  5
16EA
  8
0
 10
909.48345475800102
 20
56.30861911012591
 30
0.0
  0
VERTEX
  5
16EB
  8
0
 10
911.5485232875169
 20
49.469217133130982
 30
0.0
  0
VERTEX
  5
16EC
  8
0
 10
903.81208775423431
 20
58.264516479422063
 30
0.0
  0
SEQEND
  5
16ED
  8
0
  0
LINE
  5
FA8
  8
0
 10
1072.7846912745099
 20
331.67125550313278
 30
0.0
 11
1081.4202442282919
 21
330.5402504226127
 31
0.0
1001
REVIT
1002
{
1070
     3
1000
422583
1002
}
  0
POLYLINE
  5
FA9
  8
0
 66
     1
 10
0.0
 20
0.0
 30
0.0
 70
   128
1001
REVIT
1002
{
1070
     3
1000
422583
1002
}
  0
VERTEX
  5
16EE
  8
0
 10
911.75443373421535
 20
58.983384954967512
 30
0.0
  0
VERTEX
  5
16EF
  8
0
 10
932.00178414797722
 20
56.331573738291461
 30
0.0
  0
VERTEX
  5
16F0
  8
0
 10
1092.307729849937
 20
325.84775854840581
 30
0.0
  0
VERTEX
  5
16F1
  8
0
 10
1072.0657561888891
 20
328.49886556760072
 30
0.0
  0
VERTEX
  5
16F2
  8
0
 10
911.86940123540796
 20
59.16693144320412
 30
0.0
  0
SEQEND
  5
16F3
  8
0
  0
POLYLINE
  5
FAA
  8
0
 66
     1
 10
0.0
 20
0.0
 30
0.0
 70
   129
1001
REVIT
1002
{
1070
     3
1000
422583
1002
}
  0
VERTEX
  5
16F4
  8
0
 10
931.26559442637097
 20
52.725903732864182
 30
0.0
  0
VERTEX
  5
16F5
  8
0
 10
910.83694902063098
 20
55.401459295512609
 30
0.0
  0
VERTEX
  5
16F6
  8
0
 10
912.86453539398769
 20
48.686196314037417
 30
0.0
  0
VERTEX
  5
16F7
  8
0
 10
934.06546664501718
 20
43.452869296551377
 30
0.0
  0
SEQEND
  5
16F8
  8
0
  0
POLYLINE
  5
FAB
  8
0
 66
     1
 10
0.0
 20
0.0
 30
0.0
 70
   128
1001
REVIT
1002
{
1070
     3
1000
422583
1002
}
  0
VERTEX
  5
16F9
  8
0
 10
940.08889824624885
 20
39.471530886397041
 30
0.0
  0
VERTEX
  5
16FA
  8
0
 10
937.52455788918303
 20
47.964495772128011
 30
0.0
  0
VERTEX
  5
16FB
  8
0
 10
932.03700453624526
 20
52.381411732540741
 30
0.0
  0
VERTEX
  5
16FC
  8
0
 10
934.83687675489148
 20
43.108377296228241
 30
0.0
  0
VERTEX
  5
16FD
  8
0
 10
940.08889824624885
 20
39.471530886396913
 30
0.0
  0
VERTEX
  5
16FE
  8
0
 10
940.28679265432163
 20
39.804243098820344
 30
0.0
  0
VERTEX
  5
16FF
  8
0
 10
937.73210702540393
 20
48.265232015793927
 30
0.0
  0
SEQEND
  5
1700
  8
0
  0
POLYLINE
  5
FAC
  8
0
 66
     1
 10
0.0
 20
0.0
 30
0.0
 70
   129
1001
REVIT
1002
{
1070
     3
1000
422583
1002
}
  0
VERTEX
  5
1701
  8
0
 10
938.4013696121018
 20
51.551748404774798
 30
0.0
  0
VERTEX
  5
1702
  8
0
 10
933.03767334867689
 20
55.86897214894941
 30
0.0
  0
VERTEX
  5
1703
  8
0
 10
1093.343619050637
 20
325.38515695906392
 30
0.0
  0
VERTEX
  5
1704
  8
0
 10
1098.7073153140609
 20
321.06793321488891
 30
0.0
  0
SEQEND
  5
1705
  8
0
  0
POLYLINE
  5
FAD
  8
0
 66
     1
 10
0.0
 20
0.0
 30
0.0
 70
   128
1001
REVIT
1002
{
1070
     3
1000
422583
1002
}
  0
VERTEX
  5
1706
  8
0
 10
1096.9987411341731
 20
326.23109720996518
 30
0.0
  0
VERTEX
  5
1707
  8
0
 10
1099.4809727166371
 20
324.23315612604807
 30
0.0
  0
VERTEX
  5
1708
  8
0
 10
1096.413980092505
 20
334.39087976432393
 30
0.0
  0
VERTEX
  5
1709
  8
0
 10
1095.3493575874511
 20
335.2477913662625
 30
0.0
  0
SEQEND
  5
170A
  8
0
  0
LINE
  5
FAE
  8
0
 10
1072.4672326986961
 20
332.75024943496362
 30
0.0
 11
1072.751403291079
 21
331.8090908808648
 31
0.0
1001
REVIT
1002
{
1070
     3
1000
422583
1002
}
  0
LINE
  5
FAF
  8
0
 10
337.63390194648707
 20
321.25715882788472
 30
0.0
 11
498.18578635885677
 21
591.18683087726993
 31
0.0
1001
REVIT
1002
{
1070
     3
1000
422583
1002
}
  0
POLYLINE
  5
FB0
  8
0
 66
     1
 10
0.0
 20
0.0
 30
0.0
 70
   128
1001
REVIT
1002
{
1070
     3
1000
422583
1002
}
  0
VERTEX
  5
170B
  8
0
 10
1114.233534065052
 20
367.11632423550981
 30
0.0
  0
VERTEX
  5
170C
  8
0
 10
1114.530434479866
 20
366.96247666482969
 30
0.0
  0
VERTEX
  5
170D
  8
0
 10
1097.2907918154231
 20
337.97813239697041
 30
0.0
  0
VERTEX
  5
170E
  8
0
 10
1097.0281316647761
 20
338.18954679915339
 30
0.0
  0
SEQEND
  5
170F
  8
0
  0
POLYLINE
  5
FB1
  8
0
 66
     1
 10
0.0
 20
0.0
 30
0.0
 70
   128
1001
REVIT
1002
{
1070
     3
1000
422583
1002
}
  0
VERTEX
  5
1710
  8
0
 10
1097.3848711992659
 20
337.81463594699977
 30
0.0
  0
VERTEX
  5
1711
  8
0
 10
1114.62451386371
 20
366.79898021485872
 30
0.0
  0
VERTEX
  5
1712
  8
0
 10
1114.530434479866
 20
366.96247666482958
 30
0.0
  0
SEQEND
  5
1713
  8
0
  0
LINE
  5
FB2
  8
0
 10
1099.6935006206229
 20
324.5174029440069
 30
0.0
 11
1096.6215292287261
 21
334.69161600798958
 31
0.0
1001
REVIT
1002
{
1070
     3
1000
422583
1002
}
  0
LINE
  5
FB3
  8
0
 10
938.49544899594468
 20
51.388251954803998
 30
0.0
 11
1098.8166888977039
 21
320.93015031136088
 31
0.0
1001
REVIT
1002
{
1070
     3
1000
422583
1002
}
  0
LINE
  5
FB4
  8
0
 10
351.62247864506742
 20
358.9722397508296
 30
0.0
 11
355.77461077196739
 21
351.7564307730708
 31
0.0
1001
REVIT
1002
{
1070
     3
1000
422583
1002
}
  0
LINE
  5
FB5
  8
0
 10
176.44631478703749
 20
72.004920787826833
 30
0.0
 11
177.35373764733939
 21
73.647484663602825
 31
0.0
1001
REVIT
1002
{
1070
     3
1000
422583
1002
}
  0
POLYLINE
  5
FB6
  8
0
 66
     1
 10
0.0
 20
0.0
 30
0.0
 70
   128
1001
REVIT
1002
{
1070
     3
1000
422583
1002
}
  0
VERTEX
  5
1714
  8
0
 10
176.22108965291119
 20
16.302062369304132
 30
0.0
  0
VERTEX
  5
1715
  8
0
 10
175.52503848819251
 20
15.57872251266199
 30
0.0
  0
VERTEX
  5
1716
  8
0
 10
175.52503848819251
 20
18.70625116255064
 30
0.0
  0
SEQEND
  5
1717
  8
0
  0
LINE
  5
FB7
  8
0
 10
177.10109300784899
 20
73.869604822605325
 30
0.0
 11
176.1867723370151
 21
72.214554932979141
 31
0.0
1001
REVIT
1002
{
1070
     3
1000
422583
1002
}
  0
POLYLINE
  5
FB8
  8
0
 66
     1
 10
0.0
 20
0.0
 30
0.0
 70
   128
1001
REVIT
1002
{
1070
     3
1000
422583
1002
}
  0
VERTEX
  5
1718
  8
0
 10
175.22396261814379
 20
19.093294736151911
 30
0.0
  0
VERTEX
  5
1719
  8
0
 10
175.22396261814379
 20
15.713175286088941
 30
0.0
  0
VERTEX
  5
171A
  8
0
 10
175.52503848819251
 20
15.57872251266196
 30
0.0
  0
SEQEND
  5
171B
  8
0
  0
POLYLINE
  5
FB9
  8
0
 66
     1
 10
0.0
 20
0.0
 30
0.0
 70
   128
1001
REVIT
1002
{
1070
     3
1000
422583
1002
}
  0
VERTEX
  5
171C
  8
0
 10
242.9679909604979
 20
20.28610219280203
 30
0.0
  0
VERTEX
  5
171D
  8
0
 10
403.27393666245769
 20
289.80228700291713
 30
0.0
  0
VERTEX
  5
171E
  8
0
 10
393.04332177233738
 20
298.4907701782256
 30
0.0
  0
SEQEND
  5
171F
  8
0
  0
POLYLINE
  5
FBA
  8
0
 66
     1
 10
0.0
 20
0.0
 30
0.0
 70
   128
1001
REVIT
1002
{
1070
     3
1000
422583
1002
}
  0
VERTEX
  5
1720
  8
0
 10
229.3187559406995
 20
29.299502069613471
 30
0.0
  0
VERTEX
  5
1721
  8
0
 10
230.45341628087169
 20
29.585455417766561
 30
0.0
  0
VERTEX
  5
1722
  8
0
 10
390.75936198283063
 20
299.10164022788069
 30
0.0
  0
VERTEX
  5
1723
  8
0
 10
360.82322430591
 20
291.5572337686167
 30
0.0
  0
VERTEX
  5
1724
  8
0
 10
212.78003055898211
 20
42.657939415812493
 30
0.0
  0
SEQEND
  5
1725
  8
0
  0
POLYLINE
  5
FBB
  8
0
 66
     1
 10
0.0
 20
0.0
 30
0.0
 70
   128
1001
REVIT
1002
{
1070
     3
1000
422583
1002
}
  0
VERTEX
  5
1726
  8
0
 10
366.80008278460048
 20
296.03375021507168
 30
0.0
  0
VERTEX
  5
1727
  8
0
 10
361.57382647834203
 20
294.71664637688667
 30
0.0
  0
VERTEX
  5
1728
  8
0
 10
361.12833746681218
 20
296.192083333401
 30
0.0
  0
SEQEND
  5
1729
  8
0
  0
POLYLINE
  5
FBC
  8
0
 66
     1
 10
0.0
 20
0.0
 30
0.0
 70
   128
1001
REVIT
1002
{
1070
     3
1000
422583
1002
}
  0
VERTEX
  5
172A
  8
0
 10
211.5979284536368
 20
43.612731066716911
 30
0.0
  0
VERTEX
  5
172B
  8
0
 10
359.2974905132707
 20
291.93429075762941
 30
0.0
  0
VERTEX
  5
172C
  8
0
 10
341.46875873414672
 20
306.28458584988141
 30
0.0
  0
VERTEX
  5
172D
  8
0
 10
193.78932104488129
 20
57.99686048432558
 30
0.0
  0
SEQEND
  5
172E
  8
0
  0
LINE
  5
FBD
  8
0
 10
360.1193462549835
 20
295.0607189638061
 30
0.0
 11
358.60395118567931
 21
296.28045611029899
 31
0.0
1001
REVIT
1002
{
1070
     3
1000
422583
1002
}
  0
LINE
  5
FBE
  8
0
 10
360.06974706596071
 20
295.20583850824721
 30
0.0
 11
359.76043332001478
 21
296.23026990860888
 31
0.0
1001
REVIT
1002
{
1070
     3
1000
422583
1002
}
  0
LINE
  5
FBF
  8
0
 10
403.27393666245769
 20
289.80228700291713
 30
0.0
 11
413.4726656209067
 21
289.3675483827069
 31
0.0
1001
REVIT
1002
{
1070
     3
1000
422583
1002
}
  0
POLYLINE
  5
FC0
  8
0
 66
     1
 10
0.0
 20
0.0
 30
0.0
 70
   128
1001
REVIT
1002
{
1070
     3
1000
422583
1002
}
  0
VERTEX
  5
172F
  8
0
 10
392.87604107186041
 20
298.18357256213392
 30
0.0
  0
VERTEX
  5
1730
  8
0
 10
232.74763285601259
 20
28.965874659088861
 30
0.0
  0
VERTEX
  5
1731
  8
0
 10
242.96799096049801
 20
20.286102192801991
 30
0.0
  0
VERTEX
  5
1732
  8
0
 10
253.1564951008109
 20
19.85179942330906
 30
0.0
  0
VERTEX
  5
1733
  8
0
 10
413.2849033166591
 20
289.06949732635383
 30
0.0
  0
SEQEND
  5
1734
  8
0
  0
LINE
  5
FC1
  8
0
 10
245.07685738102981
 20
16.57157981882138
 30
0.0
 11
252.7676337885747
 21
16.243747052857842
 31
0.0
1001
REVIT
1002
{
1070
     3
1000
422583
1002
}
  0
POLYLINE
  5
FC2
  8
0
 66
     1
 10
0.0
 20
0.0
 30
0.0
 70
   128
1001
REVIT
1002
{
1070
     3
1000
422583
1002
}
  0
VERTEX
  5
1735
  8
0
 10
438.11560244734483
 20
260.8868438733183
 30
0.0
  0
VERTEX
  5
1736
  8
0
 10
438.4899779382045
 20
260.36786285121491
 30
0.0
  0
VERTEX
  5
1737
  8
0
 10
438.35080860850837
 20
260.82878459548192
 30
0.0
  0
SEQEND
  5
1738
  8
0
  0
POLYLINE
  5
FC3
  8
0
 66
     1
 10
0.0
 20
0.0
 30
0.0
 70
   128
1001
REVIT
1002
{
1070
     3
1000
422583
1002
}
  0
VERTEX
  5
1739
  8
0
 10
278.50181219155189
 20
-10.425976179627821
 30
0.0
  0
VERTEX
  5
173A
  8
0
 10
437.6991805344864
 20
257.2264004038928
 30
0.0
  0
VERTEX
  5
173B
  8
0
 10
415.44369096462378
 20
288.0782510361509
 30
0.0
  0
VERTEX
  5
173C
  8
0
 10
255.13774526266471
 20
18.562066226036929
 30
0.0
  0
VERTEX
  5
173D
  8
0
 10
272.6240590384387
 20
-5.6784762713774342
 30
0.0
  0
SEQEND
  5
173E
  8
0
  0
POLYLINE
  5
FC4
  8
0
 66
     1
 10
0.0
 20
0.0
 30
0.0
 70
   128
1001
REVIT
1002
{
1070
     3
1000
422583
1002
}
  0
VERTEX
  5
173F
  8
0
 10
256.26162270635371
 20
7.5375712491255911
 30
0.0
  0
VERTEX
  5
1740
  8
0
 10
253.83975408735779
 20
15.558676981955839
 30
0.0
  0
VERTEX
  5
1741
  8
0
 10
264.32274010647268
 20
1.0265536679954861
 30
0.0
  0
SEQEND
  5
1742
  8
0
  0
LINE
  5
FC5
  8
0
 10
439.83479962725932
 20
259.46183889030209
 30
0.0
 11
448.47035258103892
 21
258.33083380978212
 31
0.0
1001
REVIT
1002
{
1070
     3
1000
422583
1002
}
  0
POLYLINE
  5
FC6
  8
0
 66
     1
 10
0.0
 20
0.0
 30
0.0
 70
   128
1001
REVIT
1002
{
1070
     3
1000
422583
1002
}
  0
VERTEX
  5
1743
  8
0
 10
282.58081420235629
 20
-13.720612951128169
 30
0.0
  0
VERTEX
  5
1744
  8
0
 10
299.05189250072692
 20
-15.87784287453966
 30
0.0
  0
VERTEX
  5
1745
  8
0
 10
459.35783820268642
 20
253.63834193557551
 30
0.0
  0
VERTEX
  5
1746
  8
0
 10
439.11586454163921
 20
256.28944895477031
 30
0.0
  0
VERTEX
  5
1747
  8
0
 10
279.83520322081881
 20
-11.50296489014455
 30
0.0
  0
SEQEND
  5
1748
  8
0
  0
POLYLINE
  5
FC7
  8
0
 66
     1
 10
0.0
 20
0.0
 30
0.0
 70
   128
1001
REVIT
1002
{
1070
     3
1000
422583
1002
}
  0
VERTEX
  5
1749
  8
0
 10
288.05132325331039
 20
-18.139179117645941
 30
0.0
  0
VERTEX
  5
174A
  8
0
 10
298.31570277912078
 20
-19.483512879966788
 30
0.0
  0
VERTEX
  5
174B
  8
0
 10
301.0895048085855
 20
-28.670204175178259
 30
0.0
  0
SEQEND
  5
174C
  8
0
  0
POLYLINE
  5
FC8
  8
0
 66
     1
 10
0.0
 20
0.0
 30
0.0
 70
   128
1001
REVIT
1002
{
1070
     3
1000
422583
1002
}
  0
VERTEX
  5
174D
  8
0
 10
364.08314053150212
 20
-46.567719583593679
 30
0.0
  0
VERTEX
  5
174E
  8
0
 10
353.37381317499921
 20
-37.472683600399307
 30
0.0
  0
VERTEX
  5
174F
  8
0
 10
350.31704318629158
 20
-27.348816810909138
 30
0.0
  0
SEQEND
  5
1750
  8
0
  0
POLYLINE
  5
FC9
  8
0
 66
     1
 10
0.0
 20
0.0
 30
0.0
 70
   128
1001
REVIT
1002
{
1070
     3
1000
422583
1002
}
  0
VERTEX
  5
1751
  8
0
 10
371.70231995632918
 20
-36.898933769034898
 30
0.0
  0
VERTEX
  5
1752
  8
0
 10
374.75908994503641
 20
-47.022800558525091
 30
0.0
  0
VERTEX
  5
1753
  8
0
 10
364.08314053150201
 20
-46.56771958359397
 30
0.0
  0
VERTEX
  5
1754
  8
0
 10
361.01614790681879
 20
-36.409995943493143
 30
0.0
  0
VERTEX
  5
1755
  8
0
 10
350.30631383356263
 20
-27.314529624484841
 30
0.0
  0
SEQEND
  5
1756
  8
0
  0
POLYLINE
  5
FCA
  8
0
 66
     1
 10
0.0
 20
0.0
 30
0.0
 70
   128
1001
REVIT
1002
{
1070
     3
1000
422583
1002
}
  0
VERTEX
  5
1757
  8
0
 10
361.89295962973728
 20
-32.822743310846342
 30
0.0
  0
VERTEX
  5
1758
  8
0
 10
351.67260152525188
 20
-24.142970844559439
 30
0.0
  0
VERTEX
  5
1759
  8
0
 10
511.8010097410999
 20
245.07472705848559
 30
0.0
  0
SEQEND
  5
175A
  8
0
  0
POLYLINE
  5
FCB
  8
0
 66
     1
 10
0.0
 20
0.0
 30
0.0
 70
   129
1001
REVIT
1002
{
1070
     3
1000
422583
1002
}
  0
VERTEX
  5
175B
  8
0
 10
349.06810698210279
 20
-26.967866754372778
 30
0.0
  0
VERTEX
  5
175C
  8
0
 10
318.54238032012779
 20
-34.660859480681736
 30
0.0
  0
VERTEX
  5
175D
  8
0
 10
320.60744884964339
 20
-41.500261457676579
 30
0.0
  0
VERTEX
  5
175E
  8
0
 10
333.36344989227848
 20
-41.856359503220631
 30
0.0
  0
VERTEX
  5
175F
  8
0
 10
352.1350996067859
 20
-37.125590394473527
 30
0.0
  0
SEQEND
  5
1760
  8
0
  0
POLYLINE
  5
FCC
  8
0
 66
     1
 10
0.0
 20
0.0
 30
0.0
 70
   129
1001
REVIT
1002
{
1070
     3
1000
422583
1002
}
  0
VERTEX
  5
1761
  8
0
 10
479.74819297514932
 20
238.4483882649682
 30
0.0
  0
VERTEX
  5
1762
  8
0
 10
319.44224727318999
 20
-31.06779654514644
 30
0.0
  0
VERTEX
  5
1763
  8
0
 10
349.37838495011118
 20
-23.52339008588163
 30
0.0
  0
VERTEX
  5
1764
  8
0
 10
509.68433065207012
 20
245.9927947242324
 30
0.0
  0
SEQEND
  5
1765
  8
0
  0
POLYLINE
  5
FCD
  8
0
 66
     1
 10
0.0
 20
0.0
 30
0.0
 70
   128
1001
REVIT
1002
{
1070
     3
1000
422583
1002
}
  0
VERTEX
  5
1766
  8
0
 10
485.72505145383889
 20
242.92490471142341
 30
0.0
  0
VERTEX
  5
1767
  8
0
 10
480.49879514758152
 20
241.6078008732388
 30
0.0
  0
VERTEX
  5
1768
  8
0
 10
480.05330613605219
 20
243.08323782975231
 30
0.0
  0
SEQEND
  5
1769
  8
0
  0
POLYLINE
  5
FCE
  8
0
 66
     1
 10
0.0
 20
0.0
 30
0.0
 70
   129
1001
REVIT
1002
{
1070
     3
1000
422583
1002
}
  0
VERTEX
  5
176A
  8
0
 10
301.88698510764181
 20
-29.10103931660268
 30
0.0
  0
VERTEX
  5
176B
  8
0
 10
319.10784783810942
 20
-41.025901562227688
 30
0.0
  0
VERTEX
  5
176C
  8
0
 10
317.08026146475231
 20
-34.310638580752617
 30
0.0
  0
VERTEX
  5
176D
  8
0
 10
299.08711288899531
 20
-19.82800488029023
 30
0.0
  0
SEQEND
  5
176E
  8
0
  0
POLYLINE
  5
FCF
  8
0
 66
     1
 10
0.0
 20
0.0
 30
0.0
 70
   128
1001
REVIT
1002
{
1070
     3
1000
422583
1002
}
  0
VERTEX
  5
176F
  8
0
 10
318.02610422902819
 20
-30.506488870416291
 30
0.0
  0
VERTEX
  5
1770
  8
0
 10
478.22245918251019
 20
238.8254452539812
 30
0.0
  0
VERTEX
  5
1771
  8
0
 10
460.39372740338609
 20
253.1757403462334
 30
0.0
  0
VERTEX
  5
1772
  8
0
 10
300.08778170142631
 20
-16.34044446388177
 30
0.0
  0
VERTEX
  5
1773
  8
0
 10
317.92124921845868
 20
-30.694551337997879
 30
0.0
  0
SEQEND
  5
1774
  8
0
  0
LINE
  5
FD0
  8
0
 10
479.04431492422287
 20
241.951873460158
 30
0.0
 11
477.5289198549188
 21
243.17161060665069
 31
0.0
1001
REVIT
1002
{
1070
     3
1000
422583
1002
}
  0
LINE
  5
FD1
  8
0
 10
439.5173410514443
 20
260.54083282213281
 30
0.0
 11
439.80151164382829
 21
259.59967426803348
 31
0.0
1001
REVIT
1002
{
1070
     3
1000
422583
1002
}
  0
LINE
  5
FD2
  8
0
 10
478.9947157352002
 20
242.096993004599
 30
0.0
 11
478.68540198925467
 21
243.12142440496021
 31
0.0
1001
REVIT
1002
{
1070
     3
1000
422583
1002
}
  0
LINE
  5
FD3
  8
0
 10
255.11661010474859
 20
8.4624054637417139
 30
0.0
 11
252.77735128708949
 21
16.209911734613272
 31
0.0
1001
REVIT
1002
{
1070
     3
1000
422583
1002
}
  0
LINE
  5
FD4
  8
0
 10
522.19890533169735
 20
236.69344149926891
 30
0.0
 11
532.3976342901467
 21
236.25870287905869
 31
0.0
1001
REVIT
1002
{
1070
     3
1000
422583
1002
}
  0
POLYLINE
  5
FD5
  8
0
 66
     1
 10
0.0
 20
0.0
 30
0.0
 70
   128
1001
REVIT
1002
{
1070
     3
1000
422583
1002
}
  0
VERTEX
  5
1775
  8
0
 10
511.96829044157693
 20
245.38192467457739
 30
0.0
  0
VERTEX
  5
1776
  8
0
 10
522.19890533169735
 20
236.69344149926891
 30
0.0
  0
VERTEX
  5
1777
  8
0
 10
361.89295962973728
 20
-32.822743310846207
 30
0.0
  0
VERTEX
  5
1778
  8
0
 10
372.08146377005062
 20
-33.257046080339009
 30
0.0
  0
VERTEX
  5
1779
  8
0
 10
532.2098719858991
 20
235.9606518227057
 30
0.0
  0
SEQEND
  5
177A
  8
0
  0
LINE
  5
FD6
  8
0
 10
361.01614790681879
 20
-36.409995943493143
 30
0.0
 11
371.69260245781408
 21
-36.865098450790512
 31
0.0
1001
REVIT
1002
{
1070
     3
1000
422583
1002
}
  0
POLYLINE
  5
FD7
  8
0
 66
     1
 10
0.0
 20
0.0
 30
0.0
 70
   128
1001
REVIT
1002
{
1070
     3
1000
422583
1002
}
  0
VERTEX
  5
177B
  8
0
 10
557.04057111658346
 20
207.7779983696706
 30
0.0
  0
VERTEX
  5
177C
  8
0
 10
557.41494660744354
 20
207.2590173475663
 30
0.0
  0
VERTEX
  5
177D
  8
0
 10
557.27577727774792
 20
207.71993909183379
 30
0.0
  0
SEQEND
  5
177E
  8
0
  0
POLYLINE
  5
FD8
  8
0
 66
     1
 10
0.0
 20
0.0
 30
0.0
 70
   129
1001
REVIT
1002
{
1070
     3
1000
422583
1002
}
  0
VERTEX
  5
177F
  8
0
 10
396.31820350176611
 20
-65.39862990987038
 30
0.0
  0
VERTEX
  5
1780
  8
0
 10
556.62414920372612
 20
204.11755490024461
 30
0.0
  0
VERTEX
  5
1781
  8
0
 10
534.36865963386344
 20
234.96940553250329
 30
0.0
  0
VERTEX
  5
1782
  8
0
 10
374.0627139319044
 20
-34.546779277611087
 30
0.0
  0
SEQEND
  5
1783
  8
0
  0
POLYLINE
  5
FD9
  8
0
 66
     1
 10
0.0
 20
0.0
 30
0.0
 70
   129
1001
REVIT
1002
{
1070
     3
1000
422583
1002
}
  0
VERTEX
  5
1784
  8
0
 10
375.83171538128101
 20
-47.707892161792593
 30
0.0
  0
VERTEX
  5
1785
  8
0
 10
372.76472275659728
 20
-37.550168521692427
 30
0.0
  0
VERTEX
  5
1786
  8
0
 10
395.4585317799901
 20
-69.009643006353457
 30
0.0
  0
VERTEX
  5
1787
  8
0
 10
397.52360030950581
 20
-75.849044983348307
 30
0.0
  0
VERTEX
  5
1788
  8
0
 10
389.78716477622339
 20
-67.053745637057432
 30
0.0
  0
SEQEND
  5
1789
  8
0
  0
LINE
  5
FDA
  8
0
 10
558.75976829649835
 20
206.3529933866532
 30
0.0
 11
567.39532125028563
 21
205.2219883061324
 31
0.0
1001
REVIT
1002
{
1070
     3
1000
422583
1002
}
  0
POLYLINE
  5
FDB
  8
0
 66
     1
 10
0.0
 20
0.0
 30
0.0
 70
   128
1001
REVIT
1002
{
1070
     3
1000
422583
1002
}
  0
VERTEX
  5
178A
  8
0
 10
397.72951075620392
 20
-66.334877161511898
 30
0.0
  0
VERTEX
  5
178B
  8
0
 10
417.97686116996641
 20
-68.986688378187623
 30
0.0
  0
VERTEX
  5
178C
  8
0
 10
578.2828068719258
 20
200.5294964319275
 30
0.0
  0
VERTEX
  5
178D
  8
0
 10
558.04083321087865
 20
203.18060345112201
 30
0.0
  0
VERTEX
  5
178E
  8
0
 10
397.8444782573967
 20
-66.15133067327551
 30
0.0
  0
SEQEND
  5
178F
  8
0
  0
POLYLINE
  5
FDC
  8
0
 66
     1
 10
0.0
 20
0.0
 30
0.0
 70
   129
1001
REVIT
1002
{
1070
     3
1000
422583
1002
}
  0
VERTEX
  5
1790
  8
0
 10
417.24067144836027
 20
-72.592358383615363
 30
0.0
  0
VERTEX
  5
1791
  8
0
 10
396.81202604261972
 20
-69.916802820966737
 30
0.0
  0
VERTEX
  5
1792
  8
0
 10
398.83961241597638
 20
-76.6320658024419
 30
0.0
  0
VERTEX
  5
1793
  8
0
 10
420.04054366700677
 20
-81.865392819927905
 30
0.0
  0
SEQEND
  5
1794
  8
0
  0
POLYLINE
  5
FDD
  8
0
 66
     1
 10
0.0
 20
0.0
 30
0.0
 70
   128
1001
REVIT
1002
{
1070
     3
1000
422583
1002
}
  0
VERTEX
  5
1795
  8
0
 10
483.0081092007415
 20
-99.676565087241883
 30
0.0
  0
VERTEX
  5
1796
  8
0
 10
472.2987818442387
 20
-90.581529104047533
 30
0.0
  0
VERTEX
  5
1797
  8
0
 10
469.24201185553142
 20
-80.457662314557425
 30
0.0
  0
SEQEND
  5
1798
  8
0
  0
POLYLINE
  5
FDE
  8
0
 66
     1
 10
0.0
 20
0.0
 30
0.0
 70
   128
1001
REVIT
1002
{
1070
     3
1000
422583
1002
}
  0
VERTEX
  5
1799
  8
0
 10
490.62728862556872
 20
-90.007779272682953
 30
0.0
  0
VERTEX
  5
179A
  8
0
 10
493.6840586142759
 20
-100.1316460621733
 30
0.0
  0
VERTEX
  5
179B
  8
0
 10
483.0081092007415
 20
-99.676565087241798
 30
0.0
  0
VERTEX
  5
179C
  8
0
 10
479.94111657605828
 20
-89.518841447140915
 30
0.0
  0
VERTEX
  5
179D
  8
0
 10
469.231282502802
 20
-80.423375128132605
 30
0.0
  0
SEQEND
  5
179E
  8
0
  0
POLYLINE
  5
FDF
  8
0
 66
     1
 10
0.0
 20
0.0
 30
0.0
 70
   128
1001
REVIT
1002
{
1070
     3
1000
422583
1002
}
  0
VERTEX
  5
179F
  8
0
 10
480.81792829897682
 20
-85.931588814494347
 30
0.0
  0
VERTEX
  5
17A0
  8
0
 10
470.5975701944916
 20
-77.25181634820747
 30
0.0
  0
VERTEX
  5
17A1
  8
0
 10
630.72597841033894
 20
191.96588155483769
 30
0.0
  0
SEQEND
  5
17A2
  8
0
  0
POLYLINE
  5
FE0
  8
0
 66
     1
 10
0.0
 20
0.0
 30
0.0
 70
   129
1001
REVIT
1002
{
1070
     3
1000
422583
1002
}
  0
VERTEX
  5
17A3
  8
0
 10
467.99307565134211
 20
-80.076712258020905
 30
0.0
  0
VERTEX
  5
17A4
  8
0
 10
437.46734898936722
 20
-87.769704984329834
 30
0.0
  0
VERTEX
  5
17A5
  8
0
 10
439.53241751888271
 20
-94.609106961324883
 30
0.0
  0
VERTEX
  5
17A6
  8
0
 10
452.28841856151848
 20
-94.9652050068688
 30
0.0
  0
VERTEX
  5
17A7
  8
0
 10
471.06006827602567
 20
-90.234435898121461
 30
0.0
  0
SEQEND
  5
17A8
  8
0
  0
POLYLINE
  5
FE1
  8
0
 66
     1
 10
0.0
 20
0.0
 30
0.0
 70
   129
1001
REVIT
1002
{
1070
     3
1000
422583
1002
}
  0
VERTEX
  5
17A9
  8
0
 10
598.67316164438898
 20
185.33954276132019
 30
0.0
  0
VERTEX
  5
17AA
  8
0
 10
438.36721594242943
 20
-84.176642048794704
 30
0.0
  0
VERTEX
  5
17AB
  8
0
 10
468.30335361935062
 20
-76.632235589529671
 30
0.0
  0
VERTEX
  5
17AC
  8
0
 10
628.60929932130955
 20
192.88394922058441
 30
0.0
  0
SEQEND
  5
17AD
  8
0
  0
POLYLINE
  5
FE2
  8
0
 66
     1
 10
0.0
 20
0.0
 30
0.0
 70
   128
1001
REVIT
1002
{
1070
     3
1000
422583
1002
}
  0
VERTEX
  5
17AE
  8
0
 10
604.65002012307934
 20
189.81605920777511
 30
0.0
  0
VERTEX
  5
17AF
  8
0
 10
599.4237638168205
 20
188.49895536959011
 30
0.0
  0
VERTEX
  5
17B0
  8
0
 10
598.97827480529213
 20
189.97439232610421
 30
0.0
  0
SEQEND
  5
17B1
  8
0
  0
POLYLINE
  5
FE3
  8
0
 66
     1
 10
0.0
 20
0.0
 30
0.0
 70
   129
1001
REVIT
1002
{
1070
     3
1000
422583
1002
}
  0
VERTEX
  5
17B2
  8
0
 10
420.81195377688078
 20
-82.20988482025129
 30
0.0
  0
VERTEX
  5
17B3
  8
0
 10
438.03281650734851
 20
-94.134747065876354
 30
0.0
  0
VERTEX
  5
17B4
  8
0
 10
436.00523013399157
 20
-87.419484084401191
 30
0.0
  0
VERTEX
  5
17B5
  8
0
 10
418.01208155823468
 20
-72.936850383938804
 30
0.0
  0
SEQEND
  5
17B6
  8
0
  0
POLYLINE
  5
FE4
  8
0
 66
     1
 10
0.0
 20
0.0
 30
0.0
 70
   128
1001
REVIT
1002
{
1070
     3
1000
422583
1002
}
  0
VERTEX
  5
17B7
  8
0
 10
436.95107289826751
 20
-83.615334374064389
 30
0.0
  0
VERTEX
  5
17B8
  8
0
 10
597.14742785174951
 20
185.7165997503331
 30
0.0
  0
VERTEX
  5
17B9
  8
0
 10
579.31869607262581
 20
200.06689484258521
 30
0.0
  0
VERTEX
  5
17BA
  8
0
 10
419.01275037066603
 20
-69.449289967529808
 30
0.0
  0
VERTEX
  5
17BB
  8
0
 10
436.846217887698
 20
-83.803396841646261
 30
0.0
  0
SEQEND
  5
17BC
  8
0
  0
LINE
  5
FE5
  8
0
 10
597.96928359346191
 20
188.8430279565091
 30
0.0
 11
596.45388852415715
 21
190.0627651030027
 31
0.0
1001
REVIT
1002
{
1070
     3
1000
422583
1002
}
  0
LINE
  5
FE6
  8
0
 10
558.44230972068374
 20
207.4319873184846
 30
0.0
 11
558.72648031306767
 21
206.49082876438541
 31
0.0
1001
REVIT
1002
{
1070
     3
1000
422583
1002
}
  0
LINE
  5
FE7
  8
0
 10
597.91968440443964
 20
188.9881475009509
 30
0.0
 11
597.61037065849382
 21
190.0125789013122
 31
0.0
1001
REVIT
1002
{
1070
     3
1000
422583
1002
}
  0
LINE
  5
FE8
  8
0
 10
641.12387400093644
 20
183.58459599562059
 30
0.0
 11
651.32260295938545
 21
183.14985737541031
 31
0.0
1001
REVIT
1002
{
1070
     3
1000
422583
1002
}
  0
POLYLINE
  5
FE9
  8
0
 66
     1
 10
0.0
 20
0.0
 30
0.0
 70
   128
1001
REVIT
1002
{
1070
     3
1000
422583
1002
}
  0
VERTEX
  5
17BD
  8
0
 10
630.89325911081619
 20
192.27307917092909
 30
0.0
  0
VERTEX
  5
17BE
  8
0
 10
641.12387400093644
 20
183.58459599562059
 30
0.0
  0
VERTEX
  5
17BF
  8
0
 10
480.81792829897671
 20
-85.931588814494347
 30
0.0
  0
VERTEX
  5
17C0
  8
0
 10
491.00643243928948
 20
-86.365891583987775
 30
0.0
  0
VERTEX
  5
17C1
  8
0
 10
651.13484065513785
 20
182.8518063190574
 30
0.0
  0
SEQEND
  5
17C2
  8
0
  0
LINE
  5
FEA
  8
0
 10
479.94111657605828
 20
-89.518841447140915
 30
0.0
 11
490.61757112705408
 21
-89.973943954438354
 31
0.0
1001
REVIT
1002
{
1070
     3
1000
422583
1002
}
  0
POLYLINE
  5
FEB
  8
0
 66
     1
 10
0.0
 20
0.0
 30
0.0
 70
   128
1001
REVIT
1002
{
1070
     3
1000
422583
1002
}
  0
VERTEX
  5
17C3
  8
0
 10
675.96553978582256
 20
154.6691528660223
 30
0.0
  0
VERTEX
  5
17C4
  8
0
 10
676.33991527668286
 20
154.150171843918
 30
0.0
  0
VERTEX
  5
17C5
  8
0
 10
676.20074594698747
 20
154.61109358818561
 30
0.0
  0
SEQEND
  5
17C6
  8
0
  0
POLYLINE
  5
FEC
  8
0
 66
     1
 10
0.0
 20
0.0
 30
0.0
 70
   129
1001
REVIT
1002
{
1070
     3
1000
422583
1002
}
  0
VERTEX
  5
17C7
  8
0
 10
515.24317217100565
 20
-118.507475413519
 30
0.0
  0
VERTEX
  5
17C8
  8
0
 10
675.54911787296521
 20
151.0087093965964
 30
0.0
  0
VERTEX
  5
17C9
  8
0
 10
653.29362830310265
 20
181.8605600288551
 30
0.0
  0
VERTEX
  5
17CA
  8
0
 10
492.98768260114332
 20
-87.655624781259846
 30
0.0
  0
SEQEND
  5
17CB
  8
0
  0
POLYLINE
  5
FED
  8
0
 66
     1
 10
0.0
 20
0.0
 30
0.0
 70
   129
1001
REVIT
1002
{
1070
     3
1000
422583
1002
}
  0
VERTEX
  5
17CC
  8
0
 10
494.75668405051999
 20
-100.81673766544159
 30
0.0
  0
VERTEX
  5
17CD
  8
0
 10
491.68969142583683
 20
-90.659014025340554
 30
0.0
  0
VERTEX
  5
17CE
  8
0
 10
514.38350044923016
 20
-122.1184885100015
 30
0.0
  0
VERTEX
  5
17CF
  8
0
 10
516.44856897874547
 20
-128.95789048699649
 30
0.0
  0
VERTEX
  5
17D0
  8
0
 10
508.71213344546288
 20
-120.1625911407055
 30
0.0
  0
SEQEND
  5
17D1
  8
0
  0
LINE
  5
FEE
  8
0
 10
677.6847369657379
 20
153.24414788300521
 30
0.0
 11
686.32028991952075
 21
152.1131428024849
 31
0.0
1001
REVIT
1002
{
1070
     3
1000
422583
1002
}
  0
POLYLINE
  5
FEF
  8
0
 66
     1
 10
0.0
 20
0.0
 30
0.0
 70
   128
1001
REVIT
1002
{
1070
     3
1000
422583
1002
}
  0
VERTEX
  5
17D2
  8
0
 10
516.6544794254437
 20
-119.44372266516029
 30
0.0
  0
VERTEX
  5
17D3
  8
0
 10
536.90182983920602
 20
-122.09553388183591
 30
0.0
  0
VERTEX
  5
17D4
  8
0
 10
697.20777554116512
 20
147.42065092827889
 30
0.0
  0
VERTEX
  5
17D5
  8
0
 10
676.96580188011808
 20
150.0717579474736
 30
0.0
  0
VERTEX
  5
17D6
  8
0
 10
516.76944692663642
 20
-119.26017617692381
 30
0.0
  0
SEQEND
  5
17D7
  8
0
  0
POLYLINE
  5
FF0
  8
0
 66
     1
 10
0.0
 20
0.0
 30
0.0
 70
   129
1001
REVIT
1002
{
1070
     3
1000
422583
1002
}
  0
VERTEX
  5
17D8
  8
0
 10
536.16564011759954
 20
-125.7012038872634
 30
0.0
  0
VERTEX
  5
17D9
  8
0
 10
515.73699471185944
 20
-123.02564832461481
 30
0.0
  0
VERTEX
  5
17DA
  8
0
 10
517.76458108521615
 20
-129.74091130609031
 30
0.0
  0
VERTEX
  5
17DB
  8
0
 10
538.96551233624575
 20
-134.97423832357629
 30
0.0
  0
SEQEND
  5
17DC
  8
0
  0
POLYLINE
  5
FF1
  8
0
 66
     1
 10
0.0
 20
0.0
 30
0.0
 70
   128
1001
REVIT
1002
{
1070
     3
1000
422583
1002
}
  0
VERTEX
  5
17DD
  8
0
 10
601.93307786998082
 20
-152.78541059089
 30
0.0
  0
VERTEX
  5
17DE
  8
0
 10
591.22375051347785
 20
-143.69037460769559
 30
0.0
  0
VERTEX
  5
17DF
  8
0
 10
588.16698052477045
 20
-133.5665078182052
 30
0.0
  0
SEQEND
  5
17E0
  8
0
  0
POLYLINE
  5
FF2
  8
0
 66
     1
 10
0.0
 20
0.0
 30
0.0
 70
   128
1001
REVIT
1002
{
1070
     3
1000
422583
1002
}
  0
VERTEX
  5
17E1
  8
0
 10
609.55225729480787
 20
-143.11662477633101
 30
0.0
  0
VERTEX
  5
17E2
  8
0
 10
612.60902728351505
 20
-153.24049156582129
 30
0.0
  0
VERTEX
  5
17E3
  8
0
 10
601.93307786998059
 20
-152.78541059089019
 30
0.0
  0
VERTEX
  5
17E4
  8
0
 10
598.86608524529743
 20
-142.6276869507893
 30
0.0
  0
VERTEX
  5
17E5
  8
0
 10
588.15625117204115
 20
-133.532220631781
 30
0.0
  0
SEQEND
  5
17E6
  8
0
  0
POLYLINE
  5
FF3
  8
0
 66
     1
 10
0.0
 20
0.0
 30
0.0
 70
   128
1001
REVIT
1002
{
1070
     3
1000
422583
1002
}
  0
VERTEX
  5
17E7
  8
0
 10
599.74289696821631
 20
-139.0404343181425
 30
0.0
  0
VERTEX
  5
17E8
  8
0
 10
589.5225388637308
 20
-130.3606618518557
 30
0.0
  0
VERTEX
  5
17E9
  8
0
 10
749.65094707957883
 20
138.85703605118991
 30
0.0
  0
SEQEND
  5
17EA
  8
0
  0
POLYLINE
  5
FF4
  8
0
 66
     1
 10
0.0
 20
0.0
 30
0.0
 70
   129
1001
REVIT
1002
{
1070
     3
1000
422583
1002
}
  0
VERTEX
  5
17EB
  8
0
 10
586.91804432058154
 20
-133.185557761669
 30
0.0
  0
VERTEX
  5
17EC
  8
0
 10
556.39231765860688
 20
-140.8785504879778
 30
0.0
  0
VERTEX
  5
17ED
  8
0
 10
558.45738618812209
 20
-147.71795246497311
 30
0.0
  0
VERTEX
  5
17EE
  8
0
 10
571.21338723075814
 20
-148.0740505105166
 30
0.0
  0
VERTEX
  5
17EF
  8
0
 10
589.98503694526482
 20
-143.3432814017695
 30
0.0
  0
SEQEND
  5
17F0
  8
0
  0
POLYLINE
  5
FF5
  8
0
 66
     1
 10
0.0
 20
0.0
 30
0.0
 70
   129
1001
REVIT
1002
{
1070
     3
1000
422583
1002
}
  0
VERTEX
  5
17F1
  8
0
 10
717.5981303136283
 20
132.23069725767201
 30
0.0
  0
VERTEX
  5
17F2
  8
0
 10
557.29218461166874
 20
-137.2854875524427
 30
0.0
  0
VERTEX
  5
17F3
  8
0
 10
587.22832228858942
 20
-129.74108109317851
 30
0.0
  0
VERTEX
  5
17F4
  8
0
 10
747.5342679905491
 20
139.77510371693651
 30
0.0
  0
SEQEND
  5
17F5
  8
0
  0
POLYLINE
  5
FF6
  8
0
 66
     1
 10
0.0
 20
0.0
 30
0.0
 70
   128
1001
REVIT
1002
{
1070
     3
1000
422583
1002
}
  0
VERTEX
  5
17F6
  8
0
 10
723.5749887923173
 20
136.7072137041265
 30
0.0
  0
VERTEX
  5
17F7
  8
0
 10
718.34873248606004
 20
135.39010986594201
 30
0.0
  0
VERTEX
  5
17F8
  8
0
 10
717.90324347453179
 20
136.86554682245509
 30
0.0
  0
SEQEND
  5
17F9
  8
0
  0
POLYLINE
  5
FF7
  8
0
 66
     1
 10
0.0
 20
0.0
 30
0.0
 70
   129
1001
REVIT
1002
{
1070
     3
1000
422583
1002
}
  0
VERTEX
  5
17FA
  8
0
 10
539.73692244612027
 20
-135.31873032389959
 30
0.0
  0
VERTEX
  5
17FB
  8
0
 10
556.95778517658789
 20
-147.24359256952471
 30
0.0
  0
VERTEX
  5
17FC
  8
0
 10
554.93019880323118
 20
-140.52832958804939
 30
0.0
  0
VERTEX
  5
17FD
  8
0
 10
536.93705022747395
 20
-126.0456958875869
 30
0.0
  0
SEQEND
  5
17FE
  8
0
  0
POLYLINE
  5
FF8
  8
0
 66
     1
 10
0.0
 20
0.0
 30
0.0
 70
   128
1001
REVIT
1002
{
1070
     3
1000
422583
1002
}
  0
VERTEX
  5
17FF
  8
0
 10
555.87604156750683
 20
-136.7241798777128
 30
0.0
  0
VERTEX
  5
1800
  8
0
 10
716.07239652098895
 20
132.60775424668469
 30
0.0
  0
VERTEX
  5
1801
  8
0
 10
698.2436647418649
 20
146.95804933893669
 30
0.0
  0
VERTEX
  5
1802
  8
0
 10
537.93771903990535
 20
-122.5581354711781
 30
0.0
  0
VERTEX
  5
1803
  8
0
 10
555.77118655693721
 20
-136.91224234529449
 30
0.0
  0
SEQEND
  5
1804
  8
0
  0
LINE
  5
FF9
  8
0
 10
716.8942522627018
 20
135.73418245286089
 30
0.0
 11
715.37885719339749
 21
136.95391959935401
 31
0.0
1001
REVIT
1002
{
1070
     3
1000
422583
1002
}
  0
LINE
  5
FFA
  8
0
 10
677.36727838992317
 20
154.3231418148363
 30
0.0
 11
677.65144898230687
 21
153.38198326073689
 31
0.0
1001
REVIT
1002
{
1070
     3
1000
422583
1002
}
  0
LINE
  5
FFB
  8
0
 10
716.84465307367907
 20
135.8793019973028
 30
0.0
 11
716.53533932773371
 21
136.90373339766299
 31
0.0
1001
REVIT
1002
{
1070
     3
1000
422583
1002
}
  0
LINE
  5
FFC
  8
0
 10
760.04884267017587
 20
130.47575049197241
 30
0.0
 11
770.247571628625
 21
130.04101187176229
 31
0.0
1001
REVIT
1002
{
1070
     3
1000
422583
1002
}
  0
POLYLINE
  5
FFD
  8
0
 66
     1
 10
0.0
 20
0.0
 30
0.0
 70
   128
1001
REVIT
1002
{
1070
     3
1000
422583
1002
}
  0
VERTEX
  5
1805
  8
0
 10
749.81822778005585
 20
139.164233667281
 30
0.0
  0
VERTEX
  5
1806
  8
0
 10
760.04884267017587
 20
130.47575049197241
 30
0.0
  0
VERTEX
  5
1807
  8
0
 10
599.7428969682162
 20
-139.0404343181425
 30
0.0
  0
VERTEX
  5
1808
  8
0
 10
609.93140110852869
 20
-139.47473708763579
 30
0.0
  0
VERTEX
  5
1809
  8
0
 10
770.05980932437762
 20
129.74296081540939
 30
0.0
  0
SEQEND
  5
180A
  8
0
  0
LINE
  5
FFE
  8
0
 10
598.86608524529754
 20
-142.6276869507891
 30
0.0
 11
609.54253979629323
 21
-143.08278945808649
 31
0.0
1001
REVIT
1002
{
1070
     3
1000
422583
1002
}
  0
POLYLINE
  5
FFF
  8
0
 66
     1
 10
0.0
 20
0.0
 30
0.0
 70
   128
1001
REVIT
1002
{
1070
     3
1000
422583
1002
}
  0
VERTEX
  5
180B
  8
0
 10
794.89050845506233
 20
101.5603073623744
 30
0.0
  0
VERTEX
  5
180C
  8
0
 10
795.26488394592218
 20
101.04132634027
 30
0.0
  0
VERTEX
  5
180D
  8
0
 10
795.12571461622701
 20
101.5022480845375
 30
0.0
  0
SEQEND
  5
180E
  8
0
  0
POLYLINE
  5
1000
  8
0
 66
     1
 10
0.0
 20
0.0
 30
0.0
 70
   129
1001
REVIT
1002
{
1070
     3
1000
422583
1002
}
  0
VERTEX
  5
180F
  8
0
 10
634.16814084024497
 20
-171.6163209171666
 30
0.0
  0
VERTEX
  5
1810
  8
0
 10
794.47408654220487
 20
97.899863892948247
 30
0.0
  0
VERTEX
  5
1811
  8
0
 10
772.21859697234208
 20
128.75171452520661
 30
0.0
  0
VERTEX
  5
1812
  8
0
 10
611.91265127038264
 20
-140.76447028490821
 30
0.0
  0
SEQEND
  5
1813
  8
0
  0
POLYLINE
  5
1001
  8
0
 66
     1
 10
0.0
 20
0.0
 30
0.0
 70
   129
1001
REVIT
1002
{
1070
     3
1000
422583
1002
}
  0
VERTEX
  5
1814
  8
0
 10
613.68165271975931
 20
-153.92558316908969
 30
0.0
  0
VERTEX
  5
1815
  8
0
 10
610.61466009507615
 20
-143.76785952898859
 30
0.0
  0
VERTEX
  5
1816
  8
0
 10
633.30846911846925
 20
-175.22733401364971
 30
0.0
  0
VERTEX
  5
1817
  8
0
 10
635.37353764798434
 20
-182.0667359906447
 30
0.0
  0
VERTEX
  5
1818
  8
0
 10
627.6371021147022
 20
-173.2714366443538
 30
0.0
  0
SEQEND
  5
1819
  8
0
  0
LINE
  5
1002
  8
0
 10
796.60970563497767
 20
100.1353023793569
 30
0.0
 11
805.24525858875995
 21
99.004297298836676
 31
0.0
1001
REVIT
1002
{
1070
     3
1000
422583
1002
}
  0
POLYLINE
  5
1003
  8
0
 66
     1
 10
0.0
 20
0.0
 30
0.0
 70
   128
1001
REVIT
1002
{
1070
     3
1000
422583
1002
}
  0
VERTEX
  5
181A
  8
0
 10
635.57944809468268
 20
-172.55256816880819
 30
0.0
  0
VERTEX
  5
181B
  8
0
 10
655.82679850844499
 20
-175.204379385484
 30
0.0
  0
VERTEX
  5
181C
  8
0
 10
816.13274421040489
 20
94.311805424631046
 30
0.0
  0
VERTEX
  5
181D
  8
0
 10
795.89077054935785
 20
96.962912443825644
 30
0.0
  0
VERTEX
  5
181E
  8
0
 10
635.69441559587528
 20
-172.3690216805719
 30
0.0
  0
SEQEND
  5
181F
  8
0
  0
POLYLINE
  5
1004
  8
0
 66
     1
 10
0.0
 20
0.0
 30
0.0
 70
   129
1001
REVIT
1002
{
1070
     3
1000
422583
1002
}
  0
VERTEX
  5
1820
  8
0
 10
655.0906087868392
 20
-178.8100493909115
 30
0.0
  0
VERTEX
  5
1821
  8
0
 10
634.66196338109876
 20
-176.13449382826289
 30
0.0
  0
VERTEX
  5
1822
  8
0
 10
636.68954975445536
 20
-182.84975680973821
 30
0.0
  0
VERTEX
  5
1823
  8
0
 10
657.8904810054853
 20
-188.08308382722419
 30
0.0
  0
SEQEND
  5
1824
  8
0
  0
POLYLINE
  5
1005
  8
0
 66
     1
 10
0.0
 20
0.0
 30
0.0
 70
   128
1001
REVIT
1002
{
1070
     3
1000
422583
1002
}
  0
VERTEX
  5
1825
  8
0
 10
720.85804653922048
 20
-205.89425609453801
 30
0.0
  0
VERTEX
  5
1826
  8
0
 10
710.14871918271751
 20
-196.7992201113436
 30
0.0
  0
VERTEX
  5
1827
  8
0
 10
707.09194919401023
 20
-186.67535332185341
 30
0.0
  0
SEQEND
  5
1828
  8
0
  0
POLYLINE
  5
1006
  8
0
 66
     1
 10
0.0
 20
0.0
 30
0.0
 70
   128
1001
REVIT
1002
{
1070
     3
1000
422583
1002
}
  0
VERTEX
  5
1829
  8
0
 10
728.47722596404765
 20
-196.22547027997979
 30
0.0
  0
VERTEX
  5
182A
  8
0
 10
731.53399595275539
 20
-206.34933706946961
 30
0.0
  0
VERTEX
  5
182B
  8
0
 10
720.85804653922003
 20
-205.89425609453829
 30
0.0
  0
VERTEX
  5
182C
  8
0
 10
717.79105391453697
 20
-195.73653245443751
 30
0.0
  0
VERTEX
  5
182D
  8
0
 10
707.0812198412807
 20
-186.64106613542921
 30
0.0
  0
SEQEND
  5
182E
  8
0
  0
POLYLINE
  5
1007
  8
0
 66
     1
 10
0.0
 20
0.0
 30
0.0
 70
   128
1001
REVIT
1002
{
1070
     3
1000
422583
1002
}
  0
VERTEX
  5
182F
  8
0
 10
718.66786563745563
 20
-192.1492798217906
 30
0.0
  0
VERTEX
  5
1830
  8
0
 10
708.44750753297035
 20
-183.46950735550371
 30
0.0
  0
VERTEX
  5
1831
  8
0
 10
868.57591574881792
 20
85.748190547541554
 30
0.0
  0
SEQEND
  5
1832
  8
0
  0
POLYLINE
  5
1008
  8
0
 66
     1
 10
0.0
 20
0.0
 30
0.0
 70
   129
1001
REVIT
1002
{
1070
     3
1000
422583
1002
}
  0
VERTEX
  5
1833
  8
0
 10
705.84301298982098
 20
-186.2944032653169
 30
0.0
  0
VERTEX
  5
1834
  8
0
 10
675.31728632784609
 20
-193.9873959916259
 30
0.0
  0
VERTEX
  5
1835
  8
0
 10
677.38235485736163
 20
-200.82679796862129
 30
0.0
  0
VERTEX
  5
1836
  8
0
 10
690.13835589999735
 20
-201.18289601416501
 30
0.0
  0
VERTEX
  5
1837
  8
0
 10
708.91000561450448
 20
-196.45212690541771
 30
0.0
  0
SEQEND
  5
1838
  8
0
  0
POLYLINE
  5
1009
  8
0
 66
     1
 10
0.0
 20
0.0
 30
0.0
 70
   129
1001
REVIT
1002
{
1070
     3
1000
422583
1002
}
  0
VERTEX
  5
1839
  8
0
 10
836.52309898286808
 20
79.121851754023908
 30
0.0
  0
VERTEX
  5
183A
  8
0
 10
676.21715328090852
 20
-190.3943330560906
 30
0.0
  0
VERTEX
  5
183B
  8
0
 10
706.15329095782874
 20
-182.84992659682661
 30
0.0
  0
VERTEX
  5
183C
  8
0
 10
866.45923665978853
 20
86.666258213288444
 30
0.0
  0
SEQEND
  5
183D
  8
0
  0
POLYLINE
  5
100A
  8
0
 66
     1
 10
0.0
 20
0.0
 30
0.0
 70
   128
1001
REVIT
1002
{
1070
     3
1000
422583
1002
}
  0
VERTEX
  5
183E
  8
0
 10
842.49995746155651
 20
83.598368200478475
 30
0.0
  0
VERTEX
  5
183F
  8
0
 10
837.2737011552997
 20
82.281264362293797
 30
0.0
  0
VERTEX
  5
1840
  8
0
 10
836.82821214377134
 20
83.756701318806989
 30
0.0
  0
SEQEND
  5
1841
  8
0
  0
POLYLINE
  5
100B
  8
0
 66
     1
 10
0.0
 20
0.0
 30
0.0
 70
   129
1001
REVIT
1002
{
1070
     3
1000
422583
1002
}
  0
VERTEX
  5
1842
  8
0
 10
658.66189111535971
 20
-188.4275758275478
 30
0.0
  0
VERTEX
  5
1843
  8
0
 10
675.88275384582698
 20
-200.35243807317281
 30
0.0
  0
VERTEX
  5
1844
  8
0
 10
673.85516747247016
 20
-193.63717509169729
 30
0.0
  0
VERTEX
  5
1845
  8
0
 10
655.86201889671338
 20
-179.154541391235
 30
0.0
  0
SEQEND
  5
1846
  8
0
  0
POLYLINE
  5
100C
  8
0
 66
     1
 10
0.0
 20
0.0
 30
0.0
 70
   128
1001
REVIT
1002
{
1070
     3
1000
422583
1002
}
  0
VERTEX
  5
1847
  8
0
 10
674.80101023674661
 20
-189.83302538136081
 30
0.0
  0
VERTEX
  5
1848
  8
0
 10
834.99736519022827
 20
79.498908743036594
 30
0.0
  0
VERTEX
  5
1849
  8
0
 10
817.16863341110434
 20
93.849203835288876
 30
0.0
  0
VERTEX
  5
184A
  8
0
 10
656.86268770914489
 20
-175.6669809748262
 30
0.0
  0
VERTEX
  5
184B
  8
0
 10
674.69615522617676
 20
-190.02108784894239
 30
0.0
  0
SEQEND
  5
184C
  8
0
  0
LINE
  5
100D
  8
0
 10
835.81922093194078
 20
82.625336949212482
 30
0.0
 11
834.30382586263613
 21
83.845074095706039
 31
0.0
1001
REVIT
1002
{
1070
     3
1000
422583
1002
}
  0
LINE
  5
100E
  8
0
 10
796.29224705916295
 20
101.21429631118831
 30
0.0
 11
796.57641765154654
 21
100.273137757089
 31
0.0
1001
REVIT
1002
{
1070
     3
1000
422583
1002
}
  0
LINE
  5
100F
  8
0
 10
835.76962174291862
 20
82.770456493654379
 30
0.0
 11
835.46030799697314
 21
83.794887894014806
 31
0.0
1001
REVIT
1002
{
1070
     3
1000
422583
1002
}
  0
LINE
  5
1010
  8
0
 10
878.97381133941519
 20
77.366904988323796
 30
0.0
 11
889.17254029786409
 21
76.932166368113627
 31
0.0
1001
REVIT
1002
{
1070
     3
1000
422583
1002
}
  0
POLYLINE
  5
1011
  8
0
 66
     1
 10
0.0
 20
0.0
 30
0.0
 70
   128
1001
REVIT
1002
{
1070
     3
1000
422583
1002
}
  0
VERTEX
  5
184D
  8
0
 10
868.7431964492954
 20
86.055388163633054
 30
0.0
  0
VERTEX
  5
184E
  8
0
 10
878.97381133941542
 20
77.366904988324507
 30
0.0
  0
VERTEX
  5
184F
  8
0
 10
718.66786563745563
 20
-192.1492798217904
 30
0.0
  0
VERTEX
  5
1850
  8
0
 10
728.8563697777679
 20
-192.5835825912842
 30
0.0
  0
VERTEX
  5
1851
  8
0
 10
888.98477799361694
 20
76.634115311761363
 30
0.0
  0
SEQEND
  5
1852
  8
0
  0
LINE
  5
1012
  8
0
 10
717.79105391453697
 20
-195.73653245443751
 30
0.0
 11
728.46750846553255
 21
-196.19163496173471
 31
0.0
1001
REVIT
1002
{
1070
     3
1000
422583
1002
}
  0
POLYLINE
  5
1013
  8
0
 66
     1
 10
0.0
 20
0.0
 30
0.0
 70
   128
1001
REVIT
1002
{
1070
     3
1000
422583
1002
}
  0
VERTEX
  5
1853
  8
0
 10
913.81547712430165
 20
48.451461858726162
 30
0.0
  0
VERTEX
  5
1854
  8
0
 10
914.18985261516173
 20
47.932480836621927
 30
0.0
  0
VERTEX
  5
1855
  8
0
 10
914.05068328546645
 20
48.393402580889401
 30
0.0
  0
SEQEND
  5
1856
  8
0
  0
POLYLINE
  5
1014
  8
0
 66
     1
 10
0.0
 20
0.0
 30
0.0
 70
   129
1001
REVIT
1002
{
1070
     3
1000
422583
1002
}
  0
VERTEX
  5
1857
  8
0
 10
753.09310950948463
 20
-224.72516642081499
 30
0.0
  0
VERTEX
  5
1858
  8
0
 10
913.39905521144362
 20
44.79101838929973
 30
0.0
  0
VERTEX
  5
1859
  8
0
 10
891.14356564158163
 20
75.642869021558596
 30
0.0
  0
VERTEX
  5
185A
  8
0
 10
730.83761993962185
 20
-193.8733157885564
 30
0.0
  0
SEQEND
  5
185B
  8
0
  0
POLYLINE
  5
1015
  8
0
 66
     1
 10
0.0
 20
0.0
 30
0.0
 70
   129
1001
REVIT
1002
{
1070
     3
1000
422583
1002
}
  0
VERTEX
  5
185C
  8
0
 10
732.60662138899863
 20
-207.0344286727381
 30
0.0
  0
VERTEX
  5
185D
  8
0
 10
729.53962876431569
 20
-196.87670503263681
 30
0.0
  0
VERTEX
  5
185E
  8
0
 10
752.23343778770845
 20
-228.33617951729781
 30
0.0
  0
VERTEX
  5
185F
  8
0
 10
754.29850631722388
 20
-235.17558149429269
 30
0.0
  0
VERTEX
  5
1860
  8
0
 10
746.56207078394175
 20
-226.38028214800181
 30
0.0
  0
SEQEND
  5
1861
  8
0
  0
LINE
  5
1016
  8
0
 10
915.53467430421665
 20
47.026456875708782
 30
0.0
 11
924.1702272579995
 21
45.895451795188457
 31
0.0
1001
REVIT
1002
{
1070
     3
1000
422583
1002
}
  0
POLYLINE
  5
1017
  8
0
 66
     1
 10
0.0
 20
0.0
 30
0.0
 70
   128
1001
REVIT
1002
{
1070
     3
1000
422583
1002
}
  0
VERTEX
  5
1862
  8
0
 10
754.50441676392268
 20
-225.66141367245649
 30
0.0
  0
VERTEX
  5
1863
  8
0
 10
774.75176717768466
 20
-228.3132248891321
 30
0.0
  0
VERTEX
  5
1864
  8
0
 10
935.05771287964365
 20
41.20295992098189
 30
0.0
  0
VERTEX
  5
1865
  8
0
 10
914.8157392185966
 20
43.854066940176907
 30
0.0
  0
VERTEX
  5
1866
  8
0
 10
754.61938426511517
 20
-225.47786718421969
 30
0.0
  0
SEQEND
  5
1867
  8
0
  0
POLYLINE
  5
1018
  8
0
 66
     1
 10
0.0
 20
0.0
 30
0.0
 70
   129
1001
REVIT
1002
{
1070
     3
1000
422583
1002
}
  0
VERTEX
  5
1868
  8
0
 10
774.01557745607874
 20
-231.91889489455949
 30
0.0
  0
VERTEX
  5
1869
  8
0
 10
753.58693205033819
 20
-229.24333933191119
 30
0.0
  0
VERTEX
  5
186A
  8
0
 10
755.61451842369456
 20
-235.95860231338619
 30
0.0
  0
VERTEX
  5
186B
  8
0
 10
776.81544967472473
 20
-241.19192933087231
 30
0.0
  0
SEQEND
  5
186C
  8
0
  0
POLYLINE
  5
1019
  8
0
 66
     1
 10
0.0
 20
0.0
 30
0.0
 70
   128
1001
REVIT
1002
{
1070
     3
1000
422583
1002
}
  0
VERTEX
  5
186D
  8
0
 10
782.83888127595617
 20
-245.17326774102679
 30
0.0
  0
VERTEX
  5
186E
  8
0
 10
780.27454091889035
 20
-236.68030285529571
 30
0.0
  0
VERTEX
  5
186F
  8
0
 10
774.78698756595293
 20
-232.2633868948829
 30
0.0
  0
VERTEX
  5
1870
  8
0
 10
777.58685978459903
 20
-241.5364213311953
 30
0.0
  0
VERTEX
  5
1871
  8
0
 10
782.83888127595606
 20
-245.17326774102679
 30
0.0
  0
VERTEX
  5
1872
  8
0
 10
783.03677568402895
 20
-244.84055552860349
 30
0.0
  0
VERTEX
  5
1873
  8
0
 10
780.48209005511126
 20
-236.37956661162991
 30
0.0
  0
SEQEND
  5
1874
  8
0
  0
POLYLINE
  5
101A
  8
0
 66
     1
 10
0.0
 20
0.0
 30
0.0
 70
   129
1001
REVIT
1002
{
1070
     3
1000
422583
1002
}
  0
VERTEX
  5
1875
  8
0
 10
781.15135264180935
 20
-233.09305022264891
 30
0.0
  0
VERTEX
  5
1876
  8
0
 10
775.78765637838455
 20
-228.77582647847419
 30
0.0
  0
VERTEX
  5
1877
  8
0
 10
936.0936020803432
 20
40.740358331639847
 30
0.0
  0
VERTEX
  5
1878
  8
0
 10
941.45729834376834
 20
36.423134587464858
 30
0.0
  0
SEQEND
  5
1879
  8
0
  0
POLYLINE
  5
101B
  8
0
 66
     1
 10
0.0
 20
0.0
 30
0.0
 70
   128
1001
REVIT
1002
{
1070
     3
1000
422583
1002
}
  0
VERTEX
  5
187A
  8
0
 10
939.74872416388064
 20
41.586298582541147
 30
0.0
  0
VERTEX
  5
187B
  8
0
 10
942.23095574634419
 20
39.588357498624141
 30
0.0
  0
VERTEX
  5
187C
  8
0
 10
939.16396312221173
 20
49.746081136900017
 30
0.0
  0
VERTEX
  5
187D
  8
0
 10
938.09934061715762
 20
50.60299273883831
 30
0.0
  0
SEQEND
  5
187E
  8
0
  0
LINE
  5
101C
  8
0
 10
915.21721572840238
 20
48.105450807540009
 30
0.0
 11
915.50138632078608
 21
47.164292253440948
 31
0.0
1001
REVIT
1002
{
1070
     3
1000
422583
1002
}
  0
LINE
  5
101D
  8
0
 10
193.32585955574541
 20
58.371201379534021
 30
0.0
 11
340.93576938856421
 21
306.54203224984587
 31
0.0
1001
REVIT
1002
{
1070
     3
1000
422583
1002
}
  0
POLYLINE
  5
101E
  8
0
 66
     1
 10
0.0
 20
0.0
 30
0.0
 70
   128
1001
REVIT
1002
{
1070
     3
1000
422583
1002
}
  0
VERTEX
  5
187F
  8
0
 10
956.9835170947598
 20
82.471525608085628
 30
0.0
  0
VERTEX
  5
1880
  8
0
 10
957.28041750957334
 20
82.317678037405926
 30
0.0
  0
VERTEX
  5
1881
  8
0
 10
940.04077484513039
 20
53.33333376954652
 30
0.0
  0
VERTEX
  5
1882
  8
0
 10
939.77811469448329
 20
53.544748171729381
 30
0.0
  0
SEQEND
  5
1883
  8
0
  0
POLYLINE
  5
101F
  8
0
 66
     1
 10
0.0
 20
0.0
 30
0.0
 70
   128
1001
REVIT
1002
{
1070
     3
1000
422583
1002
}
  0
VERTEX
  5
1884
  8
0
 10
940.13485422897372
 20
53.169837319575841
 30
0.0
  0
VERTEX
  5
1885
  8
0
 10
957.37449689341599
 20
82.154181587435062
 30
0.0
  0
VERTEX
  5
1886
  8
0
 10
957.28041750957289
 20
82.317678037405756
 30
0.0
  0
SEQEND
  5
1887
  8
0
  0
LINE
  5
1020
  8
0
 10
942.44348365033011
 20
39.872604316582994
 30
0.0
 11
939.37151225843263
 21
50.046817380565678
 31
0.0
1001
REVIT
1002
{
1070
     3
1000
422583
1002
}
  0
LINE
  5
1021
  8
0
 10
781.24543202565246
 20
-233.25654667261981
 30
0.0
 11
941.56667192741133
 21
36.285351683936881
 31
0.0
1001
REVIT
1002
{
1070
     3
1000
422583
1002
}
  0
LINE
  5
1022
  8
0
 10
331.03440029956209
 20
-68.30572554155674
 30
0.0
 11
337.79752848350262
 21
-58.593674067087029
 31
0.0
1001
REVIT
1002
{
1070
     3
1000
422583
1002
}
  0
POLYLINE
  5
1023
  8
0
 66
     1
 10
0.0
 20
0.0
 30
0.0
 70
   128
1001
REVIT
1002
{
1070
     3
1000
422583
1002
}
  0
VERTEX
  5
1888
  8
0
 10
322.57461316011251
 20
-46.023867602436049
 30
0.0
  0
VERTEX
  5
1889
  8
0
 10
322.1016418615751
 20
-46.703068332099498
 30
0.0
  0
VERTEX
  5
188A
  8
0
 10
328.52419397153801
 20
-68.886822328189567
 30
0.0
  0
VERTEX
  5
188B
  8
0
 10
286.20879571695042
 20
-39.969214201888143
 30
0.0
  0
SEQEND
  5
188C
  8
0
  0
POLYLINE
  5
1024
  8
0
 66
     1
 10
0.0
 20
0.0
 30
0.0
 70
   128
1001
REVIT
1002
{
1070
     3
1000
422583
1002
}
  0
VERTEX
  5
188D
  8
0
 10
284.04587340674328
 20
-38.705654647290089
 30
0.0
  0
VERTEX
  5
188E
  8
0
 10
177.6285157599666
 20
13.15735513333243
 30
0.0
  0
VERTEX
  5
188F
  8
0
 10
156.15296624884789
 20
87.334769209352004
 30
0.0
  0
VERTEX
  5
1890
  8
0
 10
322.1016418615751
 20
-46.703068332099498
 30
0.0
  0
SEQEND
  5
1891
  8
0
  0
POLYLINE
  5
1025
  8
0
 66
     1
 10
0.0
 20
0.0
 30
0.0
 70
   128
1001
REVIT
1002
{
1070
     3
1000
422583
1002
}
  0
VERTEX
  5
1892
  8
0
 10
328.37550921287038
 20
-66.060396506834238
 30
0.0
  0
VERTEX
  5
1893
  8
0
 10
330.87982001609311
 20
-67.77179900855144
 30
0.0
  0
VERTEX
  5
1894
  8
0
 10
337.79752848350262
 20
-57.837765689415278
 30
0.0
  0
SEQEND
  5
1895
  8
0
  0
POLYLINE
  5
1026
  8
0
 66
     1
 10
0.0
 20
0.0
 30
0.0
 70
   128
1001
REVIT
1002
{
1070
     3
1000
422583
1002
}
  0
VERTEX
  5
1896
  8
0
 10
328.99716527007507
 20
-68.207621598526046
 30
0.0
  0
VERTEX
  5
1897
  8
0
 10
322.57461316011251
 20
-46.023867602435971
 30
0.0
  0
VERTEX
  5
1898
  8
0
 10
156.62593754738509
 20
88.013969939015453
 30
0.0
  0
SEQEND
  5
1899
  8
0
  0
POLYLINE
  5
1027
  8
0
 66
     1
 10
0.0
 20
0.0
 30
0.0
 70
   128
1001
REVIT
1002
{
1070
     3
1000
422583
1002
}
  0
VERTEX
  5
189A
  8
0
 10
154.62322926541469
 20
92.815238881438077
 30
0.0
  0
VERTEX
  5
189B
  8
0
 10
156.98840031638309
 20
96.211694244723475
 30
0.0
  0
VERTEX
  5
189C
  8
0
 10
176.2247031346555
 20
111.1632904360488
 30
0.0
  0
SEQEND
  5
189D
  8
0
  0
POLYLINE
  5
1028
  8
0
 66
     1
 10
0.0
 20
0.0
 30
0.0
 70
   128
1001
REVIT
1002
{
1070
     3
1000
422583
1002
}
  0
VERTEX
  5
189E
  8
0
 10
176.2247031346555
 20
109.8012072591069
 30
0.0
  0
VERTEX
  5
189F
  8
0
 10
157.83425088505061
 20
95.507056329503584
 30
0.0
  0
VERTEX
  5
18A0
  8
0
 10
155.4786348098103
 20
92.124322193080076
 30
0.0
  0
VERTEX
  5
18A1
  8
0
 10
156.6816834752546
 20
87.968943586164045
 30
0.0
  0
SEQEND
  5
18A2
  8
0
  0
LINE
  5
1029
  8
0
 10
156.98840031638309
 20
96.211694244723503
 30
0.0
 11
157.83425088505061
 21
95.507056329503584
 31
0.0
1001
REVIT
1002
{
1070
     3
1000
422583
1002
}
  0
POLYLINE
  5
102A
  8
0
 66
     1
 10
0.0
 20
0.0
 30
0.0
 70
   128
1001
REVIT
1002
{
1070
     3
1000
422583
1002
}
  0
VERTEX
  5
18A3
  8
0
 10
178.48277216002089
 20
70.360060764014037
 30
0.0
  0
VERTEX
  5
18A4
  8
0
 10
178.48277216002089
 20
73.160341435074656
 30
0.0
  0
VERTEX
  5
18A5
  8
0
 10
176.97739280977731
 20
75.354171690122755
 30
0.0
  0
VERTEX
  5
18A6
  8
0
 10
176.97739280977731
 20
149.36741268609629
 30
0.0
  0
VERTEX
  5
18A7
  8
0
 10
176.2247031346555
 20
149.7035446196638
 30
0.0
  0
VERTEX
  5
18A8
  8
0
 10
176.2247031346555
 20
75.146791611913898
 30
0.0
  0
VERTEX
  5
18A9
  8
0
 10
177.20922581072071
 20
73.712019949088443
 30
0.0
  0
SEQEND
  5
18AA
  8
0
  0
POLYLINE
  5
102B
  8
0
 66
     1
 10
0.0
 20
0.0
 30
0.0
 70
   128
1001
REVIT
1002
{
1070
     3
1000
422583
1002
}
  0
VERTEX
  5
18AB
  8
0
 10
177.35373764733939
 20
73.501418920626548
 30
0.0
  0
VERTEX
  5
18AC
  8
0
 10
177.7300824848991
 20
72.952961356866211
 30
0.0
  0
VERTEX
  5
18AD
  8
0
 10
177.7300824848991
 20
70.968013168699414
 30
0.0
  0
SEQEND
  5
18AE
  8
0
  0
LINE
  5
102C
  8
0
 10
176.2247031346555
 20
149.7035446196638
 30
0.0
 11
337.38034584816762
 21
441.41807891142628
 31
0.0
1001
REVIT
1002
{
1070
     3
1000
422583
1002
}
  0
LINE
  5
102D
  8
0
 10
176.97739280977731
 20
149.36741268609629
 30
0.0
 11
337.38034584816751
 21
439.71947207876559
 31
0.0
1001
REVIT
1002
{
1070
     3
1000
422583
1002
}
  0
LINE
  5
102E
  8
0
 10
176.97739280977751
 20
75.354171690122939
 30
0.0
 11
512.32505835417146
 21
682.38093434601387
 31
0.0
1001
REVIT
1002
{
1070
     3
1000
422583
1002
}
  0
LINE
  5
102F
  8
0
 10
178.48277216002089
 20
73.160341435074656
 30
0.0
 11
514.50467690337143
 21
681.40757251895877
 31
0.0
1001
REVIT
1002
{
1070
     3
1000
422583
1002
}
  0
LINE
  5
1030
  8
0
 10
187.95437095925189
 20
62.709788073246443
 30
0.0
 11
565.05541711087483
 21
745.31608225442915
 31
0.0
1001
REVIT
1002
{
1070
     3
1000
422583
1002
}
  0
LINE
  5
1031
  8
0
 10
189.0178312441364
 20
-69.695785266699858
 30
0.0
 11
923.97738092163706
 21
-397.90989885468099
 31
0.0
1001
REVIT
1002
{
1070
     3
1000
422583
1002
}
  0
LINE
  5
1032
  8
0
 10
176.06240870406231
 20
14.873013907234119
 30
0.0
 11
175.78106496906489
 21
15.844786513927771
 31
0.0
1001
REVIT
1002
{
1070
     3
1000
422583
1002
}
  0
LINE
  5
1033
  8
0
 10
175.22396261814379
 20
17.769040500798042
 30
0.0
 11
154.2994730560545
 21
90.043071289758714
 31
0.0
1001
REVIT
1002
{
1070
     3
1000
422583
1002
}
  0
LINE
  5
1034
  8
0
 10
284.36061018771278
 20
-39.224991849645249
 30
0.0
 11
177.94325254093599
 21
12.63801793097733
 31
0.0
1001
REVIT
1002
{
1070
     3
1000
422583
1002
}
  0
LINE
  5
1035
  8
0
 10
328.91926983375049
 20
-69.507455391373554
 30
0.0
 11
286.06949521268649
 21
-40.224663738622638
 31
0.0
1001
REVIT
1002
{
1070
     3
1000
422583
1002
}
  0
POLYLINE
  5
1036
  8
0
 66
     1
 10
0.0
 20
0.0
 30
0.0
 70
   128
1001
REVIT
1002
{
1070
     3
1000
422583
1002
}
  0
VERTEX
  5
18AF
  8
0
 10
511.92129808992348
 20
872.75704182944264
 30
0.0
  0
VERTEX
  5
18B0
  8
0
 10
648.8835151880171
 20
1120.6780497668699
 30
0.0
  0
VERTEX
  5
18B1
  8
0
 10
956.99569530524116
 20
983.08304045348609
 30
0.0
  0
VERTEX
  5
18B2
  8
0
 10
956.99569530524116
 20
792.88724196432804
 30
0.0
  0
VERTEX
  5
18B3
  8
0
 10
949.05199324578302
 20
778.50801634238155
 30
0.0
  0
VERTEX
  5
18B4
  8
0
 10
949.05199324578302
 20
968.70381483153983
 30
0.0
  0
VERTEX
  5
18B5
  8
0
 10
655.99360663099469
 20
1099.5761854735749
 30
0.0
  0
VERTEX
  5
18B6
  8
0
 10
640.99737457427364
 20
1106.273118677336
 30
0.0
  0
SEQEND
  5
18B7
  8
0
  0
LINE
  5
1037
  8
0
 10
949.05199324578302
 20
968.7038148315396
 30
0.0
 11
956.99569530524116
 21
983.08304045348609
 31
0.0
1001
REVIT
1002
{
1070
     3
1000
422583
1002
}
  0
POLYLINE
  5
1038
  8
0
 66
     1
 10
0.0
 20
0.0
 30
0.0
 70
   128
1001
REVIT
1002
{
1070
     3
1000
422583
1002
}
  0
VERTEX
  5
18B8
  8
0
 10
949.78197290452613
 20
779.8293828959022
 30
0.0
  0
VERTEX
  5
18B9
  8
0
 10
1171.896254504418
 20
680.63883277307013
 30
0.0
  0
VERTEX
  5
18BA
  8
0
 10
1183.029907062501
 20
697.48262173539922
 30
0.0
  0
VERTEX
  5
18BB
  8
0
 10
956.99569530524161
 20
798.42371228251955
 30
0.0
  0
SEQEND
  5
18BC
  8
0
  0
POLYLINE
  5
1039
  8
0
 66
     1
 10
0.0
 20
0.0
 30
0.0
 70
   128
1001
REVIT
1002
{
1070
     3
1000
422583
1002
}
  0
VERTEX
  5
18BD
  8
0
 10
949.6877495107733
 20
779.65882521039259
 30
0.0
  0
VERTEX
  5
18BE
  8
0
 10
1171.9661240232469
 20
680.39499539499388
 30
0.0
  0
VERTEX
  5
18BF
  8
0
 10
1183.208294713337
 20
697.4029583787966
 30
0.0
  0
VERTEX
  5
18C0
  8
0
 10
1183.208294713337
 20
751.4029583787966
 30
0.0
  0
VERTEX
  5
18C1
  8
0
 10
1082.408573697862
 20
796.4175324428079
 30
0.0
  0
SEQEND
  5
18C2
  8
0
  0
POLYLINE
  5
103A
  8
0
 66
     1
 10
0.0
 20
0.0
 30
0.0
 70
   128
1001
REVIT
1002
{
1070
     3
1000
422583
1002
}
  0
VERTEX
  5
18C3
  8
0
 10
1183.029907062501
 20
697.48262173539899
 30
0.0
  0
VERTEX
  5
18C4
  8
0
 10
1183.029907062501
 20
751.13308073275903
 30
0.0
  0
VERTEX
  5
18C5
  8
0
 10
1183.208294713337
 20
751.4029583787966
 30
0.0
  0
SEQEND
  5
18C6
  8
0
  0
LINE
  5
103B
  8
0
 10
1171.896254504418
 20
680.63883277307013
 30
0.0
 11
1171.9661240232469
 21
680.39499539499388
 31
0.0
1001
REVIT
1002
{
1070
     3
1000
422583
1002
}
  0
LINE
  5
103C
  8
0
 10
1082.408573697862
 20
796.06799144016793
 30
0.0
 11
1183.029907062501
 21
751.13308073275903
 31
0.0
1001
REVIT
1002
{
1070
     3
1000
422583
1002
}
  0
LINE
  5
103D
  8
0
 10
1082.408573697862
 20
750.30084718449461
 30
0.0
 11
1082.408573697862
 21
931.1731562843247
 31
0.0
1001
REVIT
1002
{
1070
     3
1000
422583
1002
}
  0
LINE
  5
103E
  8
0
 10
648.94107663373165
 20
1120.652344299282
 30
0.0
 11
650.44645598397517
 21
1123.3772940974679
 31
0.0
1001
REVIT
1002
{
1070
     3
1000
422583
1002
}
  0
ARC
  5
1041
  8
0
 10
755.47873410840259
 20
1081.5471361260541
 30
0.0
 40
236.88490549057121
 50
242.76744776749351
 51
260.7860993173868
1001
REVIT
1002
{
1070
     3
1000
422583
1002
}
  0
ARC
  5
1042
  8
0
 10
696.03629587895045
 20
786.81936973323525
 30
0.0
 40
64.587150973266617
 50
35.742146501484427
 51
70.544570061310495
1001
REVIT
1002
{
1070
     3
1000
422583
1002
}
  0
ARC
  5
1043
  8
0
 10
822.70235672457761
 20
931.86474856819109
 30
0.0
 40
130.4958723423851
 50
235.32402336042111
 51
261.19915359378319
1001
REVIT
1002
{
1070
     3
1000
422583
1002
}
  0
ARC
  5
1044
  8
0
 10
792.32939179028585
 20
677.61551842716938
 30
0.0
 40
125.7212812172191
 50
61.50154153997984
 51
85.251698544754447
1001
REVIT
1002
{
1070
     3
1000
422583
1002
}
  0
ARC
  5
1045
  8
0
 10
960.50594229801789
 20
893.61966422150465
 30
0.0
 40
151.12551954736381
 50
224.2831280524652
 51
255.13525253089099
1001
REVIT
1002
{
1070
     3
1000
422583
1002
}
  0
ARC
  5
1046
  8
0
 10
498.54282672354623
 20
-982.23198698005888
 30
0.0
 40
1780.7988254675649
 50
75.06582182057474
 51
76.252553968872107
1001
REVIT
1002
{
1070
     3
1000
422583
1002
}
  0
ARC
  5
1047
  8
0
 10
1091.328431582981
 20
874.85279913306294
 30
0.0
 40
191.13556284553789
 50
225.54677670257439
 51
247.03092235045159
1001
REVIT
1002
{
1070
     3
1000
422583
1002
}
  0
ARC
  5
1048
  8
0
 10
1050.7213267756099
 20
812.80921986379974
 30
0.0
 40
118.8971221939002
 50
253.39345334676261
 51
276.21482727108969
1001
REVIT
1002
{
1070
     3
1000
422583
1002
}
  0
ARC
  5
1049
  8
0
 10
1051.4133635886869
 20
639.76243659700424
 30
0.0
 40
56.184395177652739
 50
26.97248638781172
 51
77.480324973989298
1001
REVIT
1002
{
1070
     3
1000
422583
1002
}
  0
ARC
  5
104A
  8
0
 10
1157.580221048529
 20
721.73502758278664
 30
0.0
 40
79.608979286532715
 50
225.20127625729481
 51
268.59879025971401
1001
REVIT
1002
{
1070
     3
1000
422583
1002
}
  0
POLYLINE
  5
1069
  8
0
 62
   250
 66
     1
 10
0.0
 20
0.0
 30
0.0
 70
   128
1001
REVIT
1002
{
1070
     3
1000
274314
1002
}
  0
VERTEX
  5
18C7
  8
0
 62
   250
 10
2097.00621620626
 20
110.48173590992459
 30
0.0
  0
VERTEX
  5
18C8
  8
0
 62
   250
 10
2117.0800316447221
 20
88.489782290522513
 30
0.0
  0
VERTEX
  5
18C9
  8
0
 62
   250
 10
2117.0800316447221
 20
81.717133437157074
 30
0.0
  0
VERTEX
  5
18CA
  8
0
 62
   250
 10
2118.4882990148558
 20
80.819209349013036
 30
0.0
  0
SEQEND
  5
18CB
  8
0
 62
   250
  0
LINE
  5
106A
  8
0
 62
   250
 10
2012.2398590824
 20
334.94884274087991
 30
0.0
 11
1931.086712871821
 21
279.9519706684365
 31
0.0
1001
REVIT
1002
{
1070
     3
1000
274314
1002
}
  0
POLYLINE
  5
106B
  8
0
 62
   250
 66
     1
 10
0.0
 20
0.0
 30
0.0
 70
   128
1001
REVIT
1002
{
1070
     3
1000
274314
1002
}
  0
VERTEX
  5
18CC
  8
0
 62
   250
 10
1977.9288420155519
 20
207.39936644112669
 30
0.0
  0
VERTEX
  5
18CD
  8
0
 62
   250
 10
1931.790846556888
 20
197.61111150805721
 30
0.0
  0
VERTEX
  5
18CE
  8
0
 62
   250
 10
1931.790846556888
 20
279.15074918751941
 30
0.0
  0
VERTEX
  5
18CF
  8
0
 62
   250
 10
2012.943992767468
 20
334.14762125996339
 30
0.0
  0
VERTEX
  5
18D0
  8
0
 62
   250
 10
2012.943992767468
 20
224.79820137770369
 30
0.0
  0
VERTEX
  5
18D1
  8
0
 62
   250
 10
1981.188413815501
 20
203.27768621892159
 30
0.0
  0
VERTEX
  5
18D2
  8
0
 62
   250
 10
1981.188413815501
 20
204.50026601274479
 30
0.0
  0
SEQEND
  5
18D3
  8
0
 62
   250
  0
POLYLINE
  5
106C
  8
0
 62
   250
 66
     1
 10
0.0
 20
0.0
 30
0.0
 70
   128
1001
REVIT
1002
{
1070
     3
1000
274314
1002
}
  0
VERTEX
  5
18D4
  8
0
 62
   250
 10
2017.879111951733
 20
333.65689149799363
 30
0.0
  0
VERTEX
  5
18D5
  8
0
 62
   250
 10
2155.889314224949
 20
176.6174812383116
 30
0.0
  0
VERTEX
  5
18D6
  8
0
 62
   250
 10
2155.183634692683
 20
176.1392475681165
 30
0.0
  0
VERTEX
  5
18D7
  8
0
 62
   250
 10
2017.1734324194681
 20
333.1786578277983
 30
0.0
  0
SEQEND
  5
18D8
  8
0
 62
   250
  0
POLYLINE
  5
106D
  8
0
 62
   250
 66
     1
 10
0.0
 20
0.0
 30
0.0
 70
   128
1001
REVIT
1002
{
1070
     3
1000
274314
1002
}
  0
VERTEX
  5
18D9
  8
0
 62
   250
 10
2119.1939785471209
 20
82.928109998235456
 30
0.0
  0
VERTEX
  5
18DA
  8
0
 62
   250
 10
2154.4795010076159
 20
106.8408411169229
 30
0.0
  0
VERTEX
  5
18DB
  8
0
 62
   250
 10
2154.4795010076159
 20
112.5865164963696
 30
0.0
  0
VERTEX
  5
18DC
  8
0
 62
   250
 10
2117.306711857696
 20
153.3113232674101
 30
0.0
  0
SEQEND
  5
18DD
  8
0
 62
   250
  0
POLYLINE
  5
106E
  8
0
 62
   250
 66
     1
 10
0.0
 20
0.0
 30
0.0
 70
   128
1001
REVIT
1002
{
1070
     3
1000
274314
1002
}
  0
VERTEX
  5
18DE
  8
0
 62
   250
 10
2115.3759065892941
 20
155.0384996929352
 30
0.0
  0
VERTEX
  5
18DF
  8
0
 62
   250
 10
2017.173432419467
 20
224.8860162560733
 30
0.0
  0
VERTEX
  5
18E0
  8
0
 62
   250
 10
2017.173432419467
 20
333.17865782779847
 30
0.0
  0
SEQEND
  5
18E1
  8
0
 62
   250
  0
POLYLINE
  5
106F
  8
0
 62
   250
 66
     1
 10
0.0
 20
0.0
 30
0.0
 70
   128
1001
REVIT
1002
{
1070
     3
1000
274314
1002
}
  0
VERTEX
  5
18E2
  8
0
 62
   250
 10
2089.6059235897128
 20
133.7732030256731
 30
0.0
  0
VERTEX
  5
18E3
  8
0
 62
   250
 10
2114.3105451492861
 20
150.515337803595
 30
0.0
  0
VERTEX
  5
18E4
  8
0
 62
   250
 10
2152.3624624108179
 20
108.8273985022493
 30
0.0
  0
VERTEX
  5
18E5
  8
0
 62
   250
 10
2120.6068834588532
 20
87.306883343467305
 30
0.0
  0
VERTEX
  5
18E6
  8
0
 62
   250
 10
2119.1939785471218
 20
88.854797310428438
 30
0.0
  0
SEQEND
  5
18E7
  8
0
 62
   250
  0
POLYLINE
  5
1070
  8
0
 62
   250
 66
     1
 10
0.0
 20
0.0
 30
0.0
 70
   128
1001
REVIT
1002
{
1070
     3
1000
274314
1002
}
  0
VERTEX
  5
18E8
  8
0
 62
   250
 10
1984.4620612702699
 20
200.81388627893591
 30
0.0
  0
VERTEX
  5
18E9
  8
0
 62
   250
 10
2014.901317686707
 20
221.4423396326863
 30
0.0
  0
VERTEX
  5
18EA
  8
0
 62
   250
 10
2113.1037918565339
 20
151.5948230695482
 30
0.0
  0
VERTEX
  5
18EB
  8
0
 62
   250
 10
2088.1634461055178
 20
134.69293979379779
 30
0.0
  0
SEQEND
  5
18EC
  8
0
 62
   250
  0
POLYLINE
  5
1071
  8
0
 62
   250
 66
     1
 10
0.0
 20
0.0
 30
0.0
 70
   128
1001
REVIT
1002
{
1070
     3
1000
274314
1002
}
  0
VERTEX
  5
18ED
  8
0
 62
   250
 10
1933.3707538003921
 20
193.8192041934924
 30
0.0
  0
VERTEX
  5
18EE
  8
0
 62
   250
 10
1979.146543898938
 20
203.5306166376821
 30
0.0
  0
VERTEX
  5
18EF
  8
0
 62
   250
 10
2117.1567461721529
 20
115.5340559995763
 30
0.0
  0
VERTEX
  5
18F0
  8
0
 62
   250
 10
2071.0187507134901
 20
105.7458010665069
 30
0.0
  0
VERTEX
  5
18F1
  8
0
 62
   250
 10
2069.8248342274451
 20
106.50705308071041
 30
0.0
  0
SEQEND
  5
18F2
  8
0
 62
   250
  0
LINE
  5
1072
  8
0
 62
   250
 10
2154.4795010076159
 20
106.8408411169229
 30
0.0
 11
2155.183634692683
 21
106.3918790728509
 31
0.0
1001
REVIT
1002
{
1070
     3
1000
274314
1002
}
  0
POLYLINE
  5
1073
  8
0
 62
   250
 66
     1
 10
0.0
 20
0.0
 30
0.0
 70
   128
1001
REVIT
1002
{
1070
     3
1000
274314
1002
}
  0
VERTEX
  5
18F3
  8
0
 62
   250
 10
2119.1939785471218
 20
113.7221182318376
 30
0.0
  0
VERTEX
  5
18F4
  8
0
 62
   250
 10
2119.1939785471218
 20
82.001961892897924
 30
0.0
  0
VERTEX
  5
18F5
  8
0
 62
   250
 10
2155.183634692683
 20
106.3918790728509
 30
0.0
  0
VERTEX
  5
18F6
  8
0
 62
   250
 10
2155.183634692683
 20
176.1392475681165
 30
0.0
  0
SEQEND
  5
18F7
  8
0
 62
   250
  0
POLYLINE
  5
1074
  8
0
 62
   250
 66
     1
 10
0.0
 20
0.0
 30
0.0
 70
   128
1001
REVIT
1002
{
1070
     3
1000
274314
1002
}
  0
VERTEX
  5
18F8
  8
0
 62
   250
 10
2155.889314224949
 20
176.6174812383116
 30
0.0
  0
VERTEX
  5
18F9
  8
0
 62
   250
 10
2155.889314224949
 20
106.1655938693566
 30
0.0
  0
VERTEX
  5
18FA
  8
0
 62
   250
 10
2118.4882990148558
 20
80.819209349013036
 30
0.0
  0
VERTEX
  5
18FB
  8
0
 62
   250
 10
2118.4882990148558
 20
113.2438845616425
 30
0.0
  0
VERTEX
  5
18FC
  8
0
 62
   250
 10
2116.375572634724
 20
114.59097812399391
 30
0.0
  0
SEQEND
  5
18FD
  8
0
 62
   250
  0
LINE
  5
1075
  8
0
 62
   250
 10
2116.858513114882
 20
114.6934347758333
 30
0.0
 11
2070.7205176562179
 21
104.9051798427638
 31
0.0
1001
REVIT
1002
{
1070
     3
1000
274314
1002
}
  0
POLYLINE
  5
1076
  8
0
 62
   250
 66
     1
 10
0.0
 20
0.0
 30
0.0
 70
   128
1001
REVIT
1002
{
1070
     3
1000
274314
1002
}
  0
VERTEX
  5
18FE
  8
0
 62
   250
 10
1931.080529483027
 20
194.35129069506081
 30
0.0
  0
VERTEX
  5
18FF
  8
0
 62
   250
 10
1931.786209015293
 20
194.82952436525599
 30
0.0
  0
VERTEX
  5
1900
  8
0
 62
   250
 10
1931.786209015293
 20
275.3123837341837
 30
0.0
  0
VERTEX
  5
1901
  8
0
 62
   250
 10
1931.080529483027
 20
274.83415006398877
 30
0.0
  0
VERTEX
  5
1902
  8
0
 62
   250
 10
1931.080529483027
 20
194.35129069506081
 30
0.0
  0
VERTEX
  5
1903
  8
0
 62
   250
 10
2069.0907317562442
 20
106.35473005695469
 30
0.0
  0
VERTEX
  5
1904
  8
0
 62
   250
 10
2069.7964112885088
 20
106.8329637271499
 30
0.0
  0
VERTEX
  5
1905
  8
0
 62
   250
 10
1931.786209015293
 20
194.82952436525599
 30
0.0
  0
SEQEND
  5
1906
  8
0
 62
   250
  0
LINE
  5
1077
  8
0
 62
   250
 10
2117.0800316447198
 20
87.607971288898185
 30
0.0
 11
2096.331897184361
 21
110.3386779719502
 31
0.0
1001
REVIT
1002
{
1070
     3
1000
274314
1002
}
  0
LINE
  5
1078
  8
0
 62
   250
 10
1929.915691270257
 20
196.17855721291031
 30
0.0
 11
1929.915691270257
 21
277.65666365188241
 31
0.0
1001
REVIT
1002
{
1070
     3
1000
274314
1002
}
  0
LINE
  5
1079
  8
0
 62
   250
 10
1931.654857527365
 20
193.03671650874389
 30
0.0
 11
2069.6650598005799
 21
105.0401558706379
 31
0.0
1001
REVIT
1002
{
1070
     3
1000
274314
1002
}
  0
LINE
  5
107A
  8
0
 62
   250
 10
2118.476068491701
 20
115.3653359647335
 30
0.0
 11
1980.465866218485
 21
203.36189660283949
 31
0.0
1001
REVIT
1002
{
1070
     3
1000
274314
1002
}
  0
VIEWPORT
  5
927
 67
     1
  8
0
 10
145.32501220703119
 20
101.8250000476837
 30
0.0
 40
329.64468531468532
 41
222.18000000000001
 68
     1
 69
     1
1001
ACAD
1000
MVIEW
1002
{
1070
    16
1010
0.0
1020
0.0
1030
0.0
1010
0.0
1020
0.0
1030
1.0
1040
0.0
1040
222.18000000000001
1040
145.32501220703119
1040
101.8250000476837
1040
50.0
1040
0.0
1040
0.0
1070
     0
1070
   100
1070
     1
1070
     1
1070
     0
1070
     0
1070
     0
1070
     0
1040
0.0
1040
0.0
1040
0.0
1040
10.0
1040
10.0
1040
10.0
1040
10.0
1070
     0
1002
{
1002
}
1002
}
  0
VIEWPORT
  5
92B
 67
     1
  8
0
 10
145.32500612735751
 20
101.82499849796289
 30
0.0
 40
232.5200098037719
 41
162.9199975967407
 68
     2
 69
     2
1001
ACAD
1000
MVIEW
1002
{
1070
    16
1010
0.0
1020
0.0
1030
0.0
1010
0.0
1020
0.0
1030
1.0
1040
0.0
1040
1719.5581204411451
1040
936.97192315399491
1040
359.74187254024622
1040
50.0
1040
0.0
1040
0.0
1070
     0
1070
  1000
1070
     1
1070
     1
1070
     0
1070
     0
1070
     0
1070
     0
1040
0.0
1040
0.0
1040
0.0
1040
1.0
1040
1.0
1040
0.0
1040
0.0
1070
     0
1002
{
1002
}
1002
}
  0
ENDSEC
  0
EOF
