  0
SECTION
  2
HEADER
  9
$ACADVER
  1
AC1009
  9
$INSBASE
 10
0.0
 20
0.0
 30
0.0
  9
$EXTMIN
 10
-737.27037819581903
 20
-243.96363762743729
 30
0.0
  9
$EXTMAX
 10
274.93216436871973
 20
466.7799875833644
 30
0.0
  9
$LIMMIN
 10
0.0
 20
0.0
  9
$LIMMAX
 10
12.0
 20
9.0
  9
$ORTHOMODE
 70
     0
  9
$REGENMODE
 70
     1
  9
$FILLMODE
 70
     1
  9
$QTEXTMODE
 70
     0
  9
$MIRRTEXT
 70
     0
  9
$DRAGMODE
 70
     2
  9
$LTSCALE
 40
1.0
  9
$OSMODE
 70
     0
  9
$ATTMODE
 70
     1
  9
$TEXTSIZE
 40
0.2
  9
$TRACEWID
 40
0.05
  9
$TEXTSTYLE
  7
STANDARD
  9
$CLAYER
  8
0
  9
$CELTYPE
  6
BYLAYER
  9
$CECOLOR
 62
   256
  9
$DIMSCALE
 40
1.0
  9
$DIMASZ
 40
0.18
  9
$DIMEXO
 40
0.0625
  9
$DIMDLI
 40
0.38
  9
$DIMRND
 40
0.0
  9
$DIMDLE
 40
0.0
  9
$DIMEXE
 40
0.18
  9
$DIMTP
 40
0.0
  9
$DIMTM
 40
0.0
  9
$DIMTXT
 40
0.18
  9
$DIMCEN
 40
0.09
  9
$DIMTSZ
 40
0.0
  9
$DIMTOL
 70
     0
  9
$DIMLIM
 70
     0
  9
$DIMTIH
 70
     1
  9
$DIMTOH
 70
     1
  9
$DIMSE1
 70
     0
  9
$DIMSE2
 70
     0
  9
$DIMTAD
 70
     0
  9
$DIMZIN
 70
     0
  9
$DIMBLK
  1

  9
$DIMASO
 70
     1
  9
$DIMSHO
 70
     1
  9
$DIMPOST
  1

  9
$DIMAPOST
  1

  9
$DIMALT
 70
     0
  9
$DIMALTD
 70
     2
  9
$DIMALTF
 40
25.399999999999999
  9
$DIMLFAC
 40
1.0
  9
$DIMTOFL
 70
     0
  9
$DIMTVP
 40
0.0
  9
$DIMTIX
 70
     0
  9
$DIMSOXD
 70
     0
  9
$DIMSAH
 70
     0
  9
$DIMBLK1
  1

  9
$DIMBLK2
  1

  9
$DIMSTYLE
  2
STANDARD
  9
$DIMCLRD
 70
     0
  9
$DIMCLRE
 70
     0
  9
$DIMCLRT
 70
     0
  9
$DIMTFAC
 40
1.0
  9
$DIMGAP
 40
0.09
  9
$LUNITS
 70
     2
  9
$LUPREC
 70
     4
  9
$SKETCHINC
 40
0.1
  9
$FILLETRAD
 40
0.0
  9
$AUNITS
 70
     0
  9
$AUPREC
 70
     0
  9
$MENU
  1
.
  9
$ELEVATION
 40
0.0
  9
$PELEVATION
 40
0.0
  9
$THICKNESS
 40
0.0
  9
$LIMCHECK
 70
     0
  9
$BLIPMODE
 70
     0
  9
$CHAMFERA
 40
0.0
  9
$CHAMFERB
 40
0.0
  9
$SKPOLY
 70
     0
  9
$TDCREATE
 40
2457745.6346624312
  9
$TDUPDATE
 40
2457745.6594838081
  9
$TDINDWG
 40
0.0001306134
  9
$TDUSRTIMER
 40
0.0001306134
  9
$USRTIMER
 70
     1
  9
$ANGBASE
 50
0.0
  9
$ANGDIR
 70
     0
  9
$PDMODE
 70
     0
  9
$PDSIZE
 40
0.0
  9
$PLINEWID
 40
0.0
  9
$COORDS
 70
     2
  9
$SPLFRAME
 70
     0
  9
$SPLINETYPE
 70
     6
  9
$SPLINESEGS
 70
     8
  9
$ATTDIA
 70
     0
  9
$ATTREQ
 70
     0
  9
$HANDLING
 70
     1
  9
$HANDSEED
  5
9B5
  9
$SURFTAB1
 70
     6
  9
$SURFTAB2
 70
     6
  9
$SURFTYPE
 70
     6
  9
$SURFU
 70
     6
  9
$SURFV
 70
     6
  9
$UCSNAME
  2

  9
$UCSORG
 10
0.0
 20
0.0
 30
0.0
  9
$UCSXDIR
 10
1.0
 20
0.0
 30
0.0
  9
$UCSYDIR
 10
0.0
 20
1.0
 30
0.0
  9
$PUCSNAME
  2

  9
$PUCSORG
 10
0.0
 20
0.0
 30
0.0
  9
$PUCSXDIR
 10
1.0
 20
0.0
 30
0.0
  9
$PUCSYDIR
 10
0.0
 20
1.0
 30
0.0
  9
$USERI1
 70
     0
  9
$USERI2
 70
     0
  9
$USERI3
 70
     0
  9
$USERI4
 70
     0
  9
$USERI5
 70
     0
  9
$USERR1
 40
0.0
  9
$USERR2
 40
0.0
  9
$USERR3
 40
0.0
  9
$USERR4
 40
0.0
  9
$USERR5
 40
0.0
  9
$WORLDVIEW
 70
     1
  9
$SHADEDGE
 70
     3
  9
$SHADEDIF
 70
    70
  9
$TILEMODE
 70
     1
  9
$MAXACTVP
 70
    64
  9
$PLIMCHECK
 70
     0
  9
$PEXTMIN
 10
28.674481201171879
 20
19.966517114639291
 30
0.0
  9
$PEXTMAX
 10
258.07033081054692
 20
179.69865403175351
 30
0.0
  9
$PLIMMIN
 10
-5.069427490234375
 20
-5.1964163780212402
  9
$PLIMMAX
 10
291.89889526367187
 20
204.77691125869751
  9
$UNITMODE
 70
     0
  9
$VISRETAIN
 70
     1
  9
$PLINEGEN
 70
     0
  9
$PSLTSCALE
 70
     1
  0
ENDSEC
  0
SECTION
  2
TABLES
  0
TABLE
  2
VPORT
 70
     1
  0
VPORT
  2
*ACTIVE
 70
     0
 10
0.0
 20
0.0
 11
1.0
 21
1.0
 12
-203.5921779981235
 22
111.3180233831314
 13
0.0
 23
0.0
 14
1.0
 24
1.0
 15
0.0
 25
0.0
 16
0.0
 26
0.0
 36
1.0
 17
0.0
 27
0.0
 37
0.0
 40
704.41624118281402
 41
1.5065088757396441
 42
50.0
 43
0.0
 44
0.0
 50
0.0
 51
0.0
 71
     0
 72
  1000
 73
     1
 74
     1
 75
     0
 76
     0
 77
     0
 78
     0
  0
ENDTAB
  0
TABLE
  2
LTYPE
 70
     2
  0
LTYPE
  2
CONTINUOUS
 70
     0
  3
Solid line
 72
    65
 73
     0
 40
0.0
  0
LTYPE
  2
DASH
 70
     0
  3

 72
    65
 73
     2
 40
6.3499999999999996
 49
3.1749999999999998
 49
-3.1749999999999998
  0
ENDTAB
  0
TABLE
  2
LAYER
 70
     9
  0
LAYER
  2
0
 70
     0
 62
     7
  6
CONTINUOUS
  0
ENDTAB
  0
TABLE
  2
STYLE
 70
     8
  0
STYLE
  2
STANDARD
 70
     0
 40
0.0
 41
1.0
 50
0.0
 71
     0
 42
0.2
  3
txt
  4

  0
STYLE
  2
ARIAL
 70
     0
 40
12.2941616766467
 41
1.0
 50
0.0
 71
     0
 42
0.2
  3
txt
  4

  0
ENDTAB
  0
TABLE
  2
VIEW
 70
     1
  0
ENDTAB
  0
TABLE
  2
UCS
 70
     0
  0
ENDTAB
  0
TABLE
  2
APPID
 70
     6
  0
APPID
  2
ACAD
 70
     0
  0
APPID
  2
ACADANNOTATIVE
 70
     0
  0
APPID
  2
REVIT
 70
     0
  0
APPID
  2
ACAD_PSEXT
 70
     0
  0
APPID
  2
ACAD_NAV_VCDISPLAY
 70
     0
  0
APPID
  2
ACAD_MLEADERVER
 70
     0
  0
ENDTAB
  0
TABLE
  2
DIMSTYLE
 70
     2
  0
DIMSTYLE
  2
STANDARD
 70
     0
  3

  4

  5

  6

  7

 40
1.0
 41
0.18
 42
0.0625
 43
0.38
 44
0.18
 45
0.0
 46
0.0
 47
0.0
 48
0.0
140
0.18
141
0.09
142
0.0
143
25.399999999999999
144
1.0
145
0.0
146
1.0
147
0.09
 71
     0
 72
     0
 73
     1
 74
     1
 75
     0
 76
     0
 77
     0
 78
     0
170
     0
171
     2
172
     0
173
     0
174
     0
175
     0
176
     0
177
     0
178
     0
  0
ENDTAB
  0
ENDSEC
  0
SECTION
  2
BLOCKS
  0
BLOCK
  8
0
  2
$MODEL_SPACE
 70
     0
 10
0.0
 20
0.0
 30
0.0
  3
$MODEL_SPACE
  1

  0
ENDBLK
  5
72
  8
0
  0
BLOCK
 67
     1
  8
0
  2
$PAPER_SPACE
 70
     0
 10
0.0
 20
0.0
 30
0.0
  3
$PAPER_SPACE
  1

  0
ENDBLK
  5
76
 67
     1
  8
0
  0
BLOCK
  8
0
  2
*U24
 70
     1
 10
0.0
 20
0.0
 30
0.0
  3
*U24
  1

  0
SOLID
  5
4CF
  8
0
  6
CONTINUOUS
 10
120.0654921590432
 20
349.39031666656382
 30
0.0
 11
119.2929496731058
 21
349.26795795730169
 31
0.0
 12
120.8380346449806
 22
349.26795795730169
 32
0.0
 13
120.8380346449806
 23
349.26795795730169
 33
0.0
210
0.0
220
0.0
230
1.0
  0
SOLID
  5
4D0
  8
0
  6
CONTINUOUS
 10
119.2929496731058
 20
349.26795795730169
 30
0.0
 11
118.596029028312
 21
348.9128591525012
 31
0.0
 12
121.5349552897744
 22
348.9128591525012
 32
0.0
 13
121.5349552897744
 23
348.9128591525012
 33
0.0
210
0.0
220
0.0
230
1.0
  0
SOLID
  5
4D1
  8
0
  6
CONTINUOUS
 10
-119.2929496731058
 20
349.26795795730169
 30
0.0
 11
-120.8380346449806
 21
349.26795795730169
 31
0.0
 12
-121.5349552897744
 22
348.9128591525012
 32
0.0
 13
-121.5349552897744
 23
348.9128591525012
 33
0.0
210
0.0
220
0.0
230
-1.0
  0
SOLID
  5
4D2
  8
0
  6
CONTINUOUS
 10
118.596029028312
 20
348.9128591525012
 30
0.0
 11
118.0429496731058
 21
348.359779797295
 31
0.0
 12
122.0880346449806
 22
348.359779797295
 32
0.0
 13
122.0880346449806
 23
348.359779797295
 33
0.0
210
0.0
220
0.0
230
1.0
  0
SOLID
  5
4D3
  8
0
  6
CONTINUOUS
 10
-118.596029028312
 20
348.9128591525012
 30
0.0
 11
-121.5349552897744
 21
348.9128591525012
 31
0.0
 12
-122.0880346449806
 22
348.359779797295
 32
0.0
 13
-122.0880346449806
 23
348.359779797295
 33
0.0
210
0.0
220
0.0
230
-1.0
  0
SOLID
  5
4D4
  8
0
  6
CONTINUOUS
 10
118.0429496731058
 20
348.359779797295
 30
0.0
 11
117.6878508683053
 21
347.6628591525012
 31
0.0
 12
122.4431334497811
 22
347.6628591525012
 32
0.0
 13
122.4431334497811
 23
347.6628591525012
 33
0.0
210
0.0
220
0.0
230
1.0
  0
SOLID
  5
4D5
  8
0
  6
CONTINUOUS
 10
-118.0429496731058
 20
348.359779797295
 30
0.0
 11
-122.0880346449806
 21
348.359779797295
 31
0.0
 12
-122.4431334497811
 22
347.6628591525012
 32
0.0
 13
-122.4431334497811
 23
347.6628591525012
 33
0.0
210
0.0
220
0.0
230
-1.0
  0
SOLID
  5
4D6
  8
0
  6
CONTINUOUS
 10
117.6878508683053
 20
347.6628591525012
 30
0.0
 11
117.5654921590432
 21
346.89031666656382
 31
0.0
 12
122.5654921590432
 22
346.89031666656382
 32
0.0
 13
122.5654921590432
 23
346.89031666656382
 33
0.0
210
0.0
220
0.0
230
1.0
  0
SOLID
  5
4D7
  8
0
  6
CONTINUOUS
 10
-117.6878508683053
 20
347.6628591525012
 30
0.0
 11
-122.4431334497811
 21
347.6628591525012
 31
0.0
 12
-122.5654921590432
 22
346.89031666656382
 32
0.0
 13
-122.5654921590432
 23
346.89031666656382
 33
0.0
210
0.0
220
0.0
230
-1.0
  0
SOLID
  5
4D8
  8
0
  6
CONTINUOUS
 10
117.5654921590432
 20
346.89031666656382
 30
0.0
 11
117.6878508683053
 21
346.1177741806265
 31
0.0
 12
122.4431334497811
 22
346.1177741806265
 32
0.0
 13
122.4431334497811
 23
346.1177741806265
 33
0.0
210
0.0
220
0.0
230
1.0
  0
SOLID
  5
4D9
  8
0
  6
CONTINUOUS
 10
-117.5654921590432
 20
346.89031666656382
 30
0.0
 11
-122.5654921590432
 21
346.89031666656382
 31
0.0
 12
-122.4431334497811
 22
346.1177741806265
 32
0.0
 13
-122.4431334497811
 23
346.1177741806265
 33
0.0
210
0.0
220
0.0
230
-1.0
  0
SOLID
  5
4DA
  8
0
  6
CONTINUOUS
 10
117.6878508683053
 20
346.1177741806265
 30
0.0
 11
118.0429496731058
 21
345.42085353583258
 31
0.0
 12
122.0880346449806
 22
345.42085353583258
 32
0.0
 13
122.0880346449806
 23
345.42085353583258
 33
0.0
210
0.0
220
0.0
230
1.0
  0
SOLID
  5
4DB
  8
0
  6
CONTINUOUS
 10
-117.6878508683053
 20
346.1177741806265
 30
0.0
 11
-122.4431334497811
 21
346.1177741806265
 31
0.0
 12
-122.0880346449806
 22
345.42085353583258
 32
0.0
 13
-122.0880346449806
 23
345.42085353583258
 33
0.0
210
0.0
220
0.0
230
-1.0
  0
SOLID
  5
4DC
  8
0
  6
CONTINUOUS
 10
118.0429496731058
 20
345.42085353583258
 30
0.0
 11
118.596029028312
 21
344.86777418062638
 31
0.0
 12
121.5349552897744
 22
344.86777418062638
 32
0.0
 13
121.5349552897744
 23
344.86777418062638
 33
0.0
210
0.0
220
0.0
230
1.0
  0
SOLID
  5
4DD
  8
0
  6
CONTINUOUS
 10
-118.0429496731058
 20
345.42085353583258
 30
0.0
 11
-122.0880346449806
 21
345.42085353583258
 31
0.0
 12
-121.5349552897744
 22
344.86777418062638
 32
0.0
 13
-121.5349552897744
 23
344.86777418062638
 33
0.0
210
0.0
220
0.0
230
-1.0
  0
SOLID
  5
4DE
  8
0
  6
CONTINUOUS
 10
-119.2929496731058
 20
344.51267537582589
 30
0.0
 11
-120.8380346449806
 21
344.51267537582589
 31
0.0
 12
-120.0654921590432
 22
344.39031666656382
 32
0.0
 13
-120.0654921590432
 23
344.39031666656382
 33
0.0
210
0.0
220
0.0
230
-1.0
  0
SOLID
  5
4DF
  8
0
  6
CONTINUOUS
 10
118.596029028312
 20
344.86777418062638
 30
0.0
 11
119.2929496731058
 21
344.51267537582589
 31
0.0
 12
120.8380346449806
 22
344.51267537582589
 32
0.0
 13
120.8380346449806
 23
344.51267537582589
 33
0.0
210
0.0
220
0.0
230
1.0
  0
SOLID
  5
4E0
  8
0
  6
CONTINUOUS
 10
-118.596029028312
 20
344.86777418062638
 30
0.0
 11
-121.5349552897744
 21
344.86777418062638
 31
0.0
 12
-120.8380346449806
 22
344.51267537582589
 32
0.0
 13
-120.8380346449806
 23
344.51267537582589
 33
0.0
210
0.0
220
0.0
230
-1.0
  0
LINE
  5
4E1
  8
0
  6
CONTINUOUS
 10
120.0654921590432
 20
349.39031666656382
 30
0.0
 11
119.2929496731058
 21
349.26795795730169
 31
0.0
  0
LINE
  5
4E2
  8
0
  6
CONTINUOUS
 10
120.8380346449806
 20
349.26795795730169
 30
0.0
 11
120.0654921590432
 21
349.39031666656382
 31
0.0
  0
LINE
  5
4E3
  8
0
  6
CONTINUOUS
 10
119.2929496731058
 20
349.26795795730169
 30
0.0
 11
118.596029028312
 21
348.9128591525012
 31
0.0
  0
LINE
  5
4E4
  8
0
  6
CONTINUOUS
 10
120.8380346449806
 20
349.26795795730169
 30
0.0
 11
121.5349552897744
 21
348.9128591525012
 31
0.0
  0
LINE
  5
4E5
  8
0
  6
CONTINUOUS
 10
118.596029028312
 20
348.9128591525012
 30
0.0
 11
118.0429496731058
 21
348.359779797295
 31
0.0
  0
LINE
  5
4E6
  8
0
  6
CONTINUOUS
 10
121.5349552897744
 20
348.9128591525012
 30
0.0
 11
122.0880346449806
 21
348.359779797295
 31
0.0
  0
LINE
  5
4E7
  8
0
  6
CONTINUOUS
 10
118.0429496731058
 20
348.359779797295
 30
0.0
 11
117.6878508683053
 21
347.6628591525012
 31
0.0
  0
LINE
  5
4E8
  8
0
  6
CONTINUOUS
 10
122.0880346449806
 20
348.359779797295
 30
0.0
 11
122.4431334497811
 21
347.6628591525012
 31
0.0
  0
LINE
  5
4E9
  8
0
  6
CONTINUOUS
 10
117.6878508683053
 20
347.6628591525012
 30
0.0
 11
117.5654921590432
 21
346.89031666656382
 31
0.0
  0
LINE
  5
4EA
  8
0
  6
CONTINUOUS
 10
122.4431334497811
 20
347.6628591525012
 30
0.0
 11
122.5654921590432
 21
346.89031666656382
 31
0.0
  0
LINE
  5
4EB
  8
0
  6
CONTINUOUS
 10
117.5654921590432
 20
346.89031666656382
 30
0.0
 11
117.6878508683053
 21
346.1177741806265
 31
0.0
  0
LINE
  5
4EC
  8
0
  6
CONTINUOUS
 10
122.5654921590432
 20
346.89031666656382
 30
0.0
 11
122.4431334497811
 21
346.1177741806265
 31
0.0
  0
LINE
  5
4ED
  8
0
  6
CONTINUOUS
 10
117.6878508683053
 20
346.1177741806265
 30
0.0
 11
118.0429496731058
 21
345.42085353583258
 31
0.0
  0
LINE
  5
4EE
  8
0
  6
CONTINUOUS
 10
122.4431334497811
 20
346.1177741806265
 30
0.0
 11
122.0880346449806
 21
345.42085353583258
 31
0.0
  0
LINE
  5
4EF
  8
0
  6
CONTINUOUS
 10
118.0429496731058
 20
345.42085353583258
 30
0.0
 11
118.596029028312
 21
344.86777418062638
 31
0.0
  0
LINE
  5
4F0
  8
0
  6
CONTINUOUS
 10
122.0880346449806
 20
345.42085353583258
 30
0.0
 11
121.5349552897744
 21
344.86777418062638
 31
0.0
  0
LINE
  5
4F1
  8
0
  6
CONTINUOUS
 10
120.8380346449806
 20
344.51267537582589
 30
0.0
 11
120.0654921590432
 21
344.39031666656382
 31
0.0
  0
LINE
  5
4F2
  8
0
  6
CONTINUOUS
 10
120.0654921590432
 20
344.39031666656382
 30
0.0
 11
119.2929496731058
 21
344.51267537582589
 31
0.0
  0
LINE
  5
4F3
  8
0
  6
CONTINUOUS
 10
118.596029028312
 20
344.86777418062638
 30
0.0
 11
119.2929496731058
 21
344.51267537582589
 31
0.0
  0
LINE
  5
4F4
  8
0
  6
CONTINUOUS
 10
121.5349552897744
 20
344.86777418062638
 30
0.0
 11
120.8380346449806
 21
344.51267537582589
 31
0.0
  0
ENDBLK
  5
4F6
  8
0
  0
BLOCK
  8
0
  2
*U25
 70
     1
 10
0.0
 20
0.0
 30
0.0
  3
*U25
  1

  0
TEXT
  5
4F8
  8
0
 10
-48.895437581720969
 20
450.44937807693299
 30
0.0
 40
12.2941616766467
  1
Tilcor Antica Tile
  7
ARIAL
  0
ENDBLK
  5
4FA
  8
0
  0
BLOCK
  8
0
  2
*U26
 70
     1
 10
0.0
 20
0.0
 30
0.0
  3
*U26
  1

  0
TEXT
  5
4FC
  8
0
 62
     7
 10
-734.73355424821625
 20
-236.79204331605999
 30
0.0
 40
12.294161676646709
  1
* Similar design detail for metal fascia systems
  7
ARIAL
  0
ENDBLK
  5
4FE
  8
0
  0
BLOCK
  8
0
  2
*U27
 70
     1
 10
0.0
 20
0.0
 30
0.0
  3
*U27
  1

  0
SOLID
  5
500
  8
0
  6
CONTINUOUS
 10
57.467704130765313
 20
255.29246749175039
 30
0.0
 11
56.695161644827948
 21
255.1701087824882
 31
0.0
 12
58.240246616702677
 22
255.1701087824882
 32
0.0
 13
58.240246616702677
 23
255.1701087824882
 33
0.0
210
0.0
220
0.0
230
1.0
  0
SOLID
  5
501
  8
0
  6
CONTINUOUS
 10
56.695161644827948
 20
255.1701087824882
 30
0.0
 11
55.998241000034128
 21
254.81500997768779
 31
0.0
 12
58.937167261496498
 22
254.81500997768779
 32
0.0
 13
58.937167261496498
 23
254.81500997768779
 33
0.0
210
0.0
220
0.0
230
1.0
  0
SOLID
  5
502
  8
0
  6
CONTINUOUS
 10
-56.695161644827948
 20
255.1701087824882
 30
0.0
 11
-58.240246616702677
 21
255.1701087824882
 31
0.0
 12
-58.937167261496498
 22
254.81500997768779
 32
0.0
 13
-58.937167261496498
 23
254.81500997768779
 33
0.0
210
0.0
220
0.0
230
-1.0
  0
SOLID
  5
503
  8
0
  6
CONTINUOUS
 10
55.998241000034128
 20
254.81500997768779
 30
0.0
 11
55.445161644827948
 21
254.26193062248149
 31
0.0
 12
59.490246616702677
 22
254.26193062248149
 32
0.0
 13
59.490246616702677
 23
254.26193062248149
 33
0.0
210
0.0
220
0.0
230
1.0
  0
SOLID
  5
504
  8
0
  6
CONTINUOUS
 10
-55.998241000034128
 20
254.81500997768779
 30
0.0
 11
-58.937167261496498
 21
254.81500997768779
 31
0.0
 12
-59.490246616702677
 22
254.26193062248149
 32
0.0
 13
-59.490246616702677
 23
254.26193062248149
 33
0.0
210
0.0
220
0.0
230
-1.0
  0
SOLID
  5
505
  8
0
  6
CONTINUOUS
 10
55.445161644827948
 20
254.26193062248149
 30
0.0
 11
55.090062840027429
 21
253.56500997768771
 31
0.0
 12
59.845345421503197
 22
253.56500997768771
 32
0.0
 13
59.845345421503197
 23
253.56500997768771
 33
0.0
210
0.0
220
0.0
230
1.0
  0
SOLID
  5
506
  8
0
  6
CONTINUOUS
 10
-55.445161644827948
 20
254.26193062248149
 30
0.0
 11
-59.490246616702677
 21
254.26193062248149
 31
0.0
 12
-59.845345421503197
 22
253.56500997768771
 32
0.0
 13
-59.845345421503197
 23
253.56500997768771
 33
0.0
210
0.0
220
0.0
230
-1.0
  0
SOLID
  5
507
  8
0
  6
CONTINUOUS
 10
55.090062840027429
 20
253.56500997768771
 30
0.0
 11
54.967704130765313
 21
252.79246749175039
 31
0.0
 12
59.967704130765313
 22
252.79246749175039
 32
0.0
 13
59.967704130765313
 23
252.79246749175039
 33
0.0
210
0.0
220
0.0
230
1.0
  0
SOLID
  5
508
  8
0
  6
CONTINUOUS
 10
-55.090062840027429
 20
253.56500997768771
 30
0.0
 11
-59.845345421503197
 21
253.56500997768771
 31
0.0
 12
-59.967704130765313
 22
252.79246749175039
 32
0.0
 13
-59.967704130765313
 23
252.79246749175039
 33
0.0
210
0.0
220
0.0
230
-1.0
  0
SOLID
  5
509
  8
0
  6
CONTINUOUS
 10
54.967704130765313
 20
252.79246749175039
 30
0.0
 11
55.090062840027429
 21
252.01992500581301
 31
0.0
 12
59.845345421503197
 22
252.01992500581301
 32
0.0
 13
59.845345421503197
 23
252.01992500581301
 33
0.0
210
0.0
220
0.0
230
1.0
  0
SOLID
  5
50A
  8
0
  6
CONTINUOUS
 10
-54.967704130765313
 20
252.79246749175039
 30
0.0
 11
-59.967704130765313
 21
252.79246749175039
 31
0.0
 12
-59.845345421503197
 22
252.01992500581301
 32
0.0
 13
-59.845345421503197
 23
252.01992500581301
 33
0.0
210
0.0
220
0.0
230
-1.0
  0
SOLID
  5
50B
  8
0
  6
CONTINUOUS
 10
55.090062840027429
 20
252.01992500581301
 30
0.0
 11
55.445161644827948
 21
251.3230043610192
 31
0.0
 12
59.490246616702677
 22
251.3230043610192
 32
0.0
 13
59.490246616702677
 23
251.3230043610192
 33
0.0
210
0.0
220
0.0
230
1.0
  0
SOLID
  5
50C
  8
0
  6
CONTINUOUS
 10
-55.090062840027429
 20
252.01992500581301
 30
0.0
 11
-59.845345421503197
 21
252.01992500581301
 31
0.0
 12
-59.490246616702677
 22
251.3230043610192
 32
0.0
 13
-59.490246616702677
 23
251.3230043610192
 33
0.0
210
0.0
220
0.0
230
-1.0
  0
SOLID
  5
50D
  8
0
  6
CONTINUOUS
 10
55.445161644827948
 20
251.3230043610192
 30
0.0
 11
55.998241000034128
 21
250.76992500581301
 31
0.0
 12
58.937167261496491
 22
250.76992500581301
 32
0.0
 13
58.937167261496491
 23
250.76992500581301
 33
0.0
210
0.0
220
0.0
230
1.0
  0
SOLID
  5
50E
  8
0
  6
CONTINUOUS
 10
-55.445161644827948
 20
251.3230043610192
 30
0.0
 11
-59.490246616702677
 21
251.3230043610192
 31
0.0
 12
-58.937167261496491
 22
250.76992500581301
 32
0.0
 13
-58.937167261496491
 23
250.76992500581301
 33
0.0
210
0.0
220
0.0
230
-1.0
  0
SOLID
  5
50F
  8
0
  6
CONTINUOUS
 10
-56.695161644827941
 20
250.41482620101249
 30
0.0
 11
-58.240246616702677
 21
250.41482620101249
 31
0.0
 12
-57.467704130765313
 22
250.29246749175039
 32
0.0
 13
-57.467704130765313
 23
250.29246749175039
 33
0.0
210
0.0
220
0.0
230
-1.0
  0
SOLID
  5
510
  8
0
  6
CONTINUOUS
 10
55.998241000034128
 20
250.76992500581301
 30
0.0
 11
56.695161644827941
 21
250.41482620101249
 31
0.0
 12
58.240246616702677
 22
250.41482620101249
 32
0.0
 13
58.240246616702677
 23
250.41482620101249
 33
0.0
210
0.0
220
0.0
230
1.0
  0
SOLID
  5
511
  8
0
  6
CONTINUOUS
 10
-55.998241000034128
 20
250.76992500581301
 30
0.0
 11
-58.937167261496491
 21
250.76992500581301
 31
0.0
 12
-58.240246616702677
 22
250.41482620101249
 32
0.0
 13
-58.240246616702677
 23
250.41482620101249
 33
0.0
210
0.0
220
0.0
230
-1.0
  0
LINE
  5
512
  8
0
  6
CONTINUOUS
 10
57.467704130765313
 20
255.29246749175039
 30
0.0
 11
56.695161644827948
 21
255.1701087824882
 31
0.0
  0
LINE
  5
513
  8
0
  6
CONTINUOUS
 10
58.240246616702677
 20
255.1701087824882
 30
0.0
 11
57.467704130765313
 21
255.29246749175039
 31
0.0
  0
LINE
  5
514
  8
0
  6
CONTINUOUS
 10
56.695161644827948
 20
255.1701087824882
 30
0.0
 11
55.998241000034128
 21
254.81500997768779
 31
0.0
  0
LINE
  5
515
  8
0
  6
CONTINUOUS
 10
58.240246616702677
 20
255.1701087824882
 30
0.0
 11
58.937167261496498
 21
254.81500997768779
 31
0.0
  0
LINE
  5
516
  8
0
  6
CONTINUOUS
 10
55.998241000034128
 20
254.81500997768779
 30
0.0
 11
55.445161644827948
 21
254.26193062248149
 31
0.0
  0
LINE
  5
517
  8
0
  6
CONTINUOUS
 10
58.937167261496498
 20
254.81500997768779
 30
0.0
 11
59.490246616702677
 21
254.26193062248149
 31
0.0
  0
LINE
  5
518
  8
0
  6
CONTINUOUS
 10
55.445161644827948
 20
254.26193062248149
 30
0.0
 11
55.090062840027429
 21
253.56500997768771
 31
0.0
  0
LINE
  5
519
  8
0
  6
CONTINUOUS
 10
59.490246616702677
 20
254.26193062248149
 30
0.0
 11
59.845345421503197
 21
253.56500997768771
 31
0.0
  0
LINE
  5
51A
  8
0
  6
CONTINUOUS
 10
55.090062840027429
 20
253.56500997768771
 30
0.0
 11
54.967704130765313
 21
252.79246749175039
 31
0.0
  0
LINE
  5
51B
  8
0
  6
CONTINUOUS
 10
59.845345421503197
 20
253.56500997768771
 30
0.0
 11
59.967704130765313
 21
252.79246749175039
 31
0.0
  0
LINE
  5
51C
  8
0
  6
CONTINUOUS
 10
54.967704130765313
 20
252.79246749175039
 30
0.0
 11
55.090062840027429
 21
252.01992500581301
 31
0.0
  0
LINE
  5
51D
  8
0
  6
CONTINUOUS
 10
59.967704130765313
 20
252.79246749175039
 30
0.0
 11
59.845345421503197
 21
252.01992500581301
 31
0.0
  0
LINE
  5
51E
  8
0
  6
CONTINUOUS
 10
55.090062840027429
 20
252.01992500581301
 30
0.0
 11
55.445161644827948
 21
251.3230043610192
 31
0.0
  0
LINE
  5
51F
  8
0
  6
CONTINUOUS
 10
59.845345421503197
 20
252.01992500581301
 30
0.0
 11
59.490246616702677
 21
251.3230043610192
 31
0.0
  0
LINE
  5
520
  8
0
  6
CONTINUOUS
 10
55.445161644827948
 20
251.3230043610192
 30
0.0
 11
55.998241000034128
 21
250.76992500581301
 31
0.0
  0
LINE
  5
521
  8
0
  6
CONTINUOUS
 10
59.490246616702677
 20
251.3230043610192
 30
0.0
 11
58.937167261496491
 21
250.76992500581301
 31
0.0
  0
LINE
  5
522
  8
0
  6
CONTINUOUS
 10
58.240246616702677
 20
250.41482620101249
 30
0.0
 11
57.467704130765313
 21
250.29246749175039
 31
0.0
  0
LINE
  5
523
  8
0
  6
CONTINUOUS
 10
57.467704130765313
 20
250.29246749175039
 30
0.0
 11
56.695161644827941
 21
250.41482620101249
 31
0.0
  0
LINE
  5
524
  8
0
  6
CONTINUOUS
 10
55.998241000034128
 20
250.76992500581301
 30
0.0
 11
56.695161644827941
 21
250.41482620101249
 31
0.0
  0
LINE
  5
525
  8
0
  6
CONTINUOUS
 10
58.937167261496491
 20
250.76992500581301
 30
0.0
 11
58.240246616702677
 21
250.41482620101249
 31
0.0
  0
ENDBLK
  5
527
  8
0
  0
BLOCK
  8
0
  2
*U28
 70
     1
 10
0.0
 20
0.0
 30
0.0
  3
*U28
  1

  0
TEXT
  5
529
  8
0
 10
-49.843077601817193
 20
390.23251889054183
 30
0.0
 40
12.2941616766467
  1
Rafter
  7
ARIAL
  0
ENDBLK
  5
52B
  8
0
  0
BLOCK
  8
0
  2
*U29
 70
     1
 10
0.0
 20
0.0
 30
0.0
  3
*U29
  1

  0
SOLID
  5
52D
  8
0
  6
CONTINUOUS
 10
-498.74805997483128
 20
18.674638231084469
 30
0.0
 11
-499.52060246076871
 21
18.55227952182236
 31
0.0
 12
-497.9755174888939
 22
18.55227952182236
 32
0.0
 13
-497.9755174888939
 23
18.55227952182236
 33
0.0
210
0.0
220
0.0
230
1.0
  0
SOLID
  5
52E
  8
0
  6
CONTINUOUS
 10
-499.52060246076871
 20
18.55227952182236
 30
0.0
 11
-500.21752310556252
 21
18.19718071702184
 31
0.0
 12
-497.27859684410009
 22
18.19718071702184
 32
0.0
 13
-497.27859684410009
 23
18.19718071702184
 33
0.0
210
0.0
220
0.0
230
1.0
  0
SOLID
  5
52F
  8
0
  6
CONTINUOUS
 10
499.52060246076871
 20
18.55227952182236
 30
0.0
 11
497.9755174888939
 21
18.55227952182236
 31
0.0
 12
497.27859684410009
 22
18.19718071702184
 32
0.0
 13
497.27859684410009
 23
18.19718071702184
 33
0.0
210
0.0
220
0.0
230
-1.0
  0
SOLID
  5
530
  8
0
  6
CONTINUOUS
 10
-500.21752310556252
 20
18.19718071702184
 30
0.0
 11
-500.77060246076871
 21
17.644101361815661
 31
0.0
 12
-496.7255174888939
 22
17.644101361815661
 32
0.0
 13
-496.7255174888939
 23
17.644101361815661
 33
0.0
210
0.0
220
0.0
230
1.0
  0
SOLID
  5
531
  8
0
  6
CONTINUOUS
 10
500.21752310556252
 20
18.19718071702184
 30
0.0
 11
497.27859684410009
 21
18.19718071702184
 31
0.0
 12
496.7255174888939
 22
17.644101361815661
 32
0.0
 13
496.7255174888939
 23
17.644101361815661
 33
0.0
210
0.0
220
0.0
230
-1.0
  0
SOLID
  5
532
  8
0
  6
CONTINUOUS
 10
-500.77060246076871
 20
17.644101361815661
 30
0.0
 11
-501.12570126556921
 21
16.947180717021851
 31
0.0
 12
-496.37041868409341
 22
16.947180717021851
 32
0.0
 13
-496.37041868409341
 23
16.947180717021851
 33
0.0
210
0.0
220
0.0
230
1.0
  0
SOLID
  5
533
  8
0
  6
CONTINUOUS
 10
500.77060246076871
 20
17.644101361815661
 30
0.0
 11
496.7255174888939
 21
17.644101361815661
 31
0.0
 12
496.37041868409341
 22
16.947180717021851
 32
0.0
 13
496.37041868409341
 23
16.947180717021851
 33
0.0
210
0.0
220
0.0
230
-1.0
  0
SOLID
  5
534
  8
0
  6
CONTINUOUS
 10
-501.12570126556921
 20
16.947180717021851
 30
0.0
 11
-501.24805997483128
 21
16.174638231084479
 31
0.0
 12
-496.24805997483128
 22
16.174638231084479
 32
0.0
 13
-496.24805997483128
 23
16.174638231084479
 33
0.0
210
0.0
220
0.0
230
1.0
  0
SOLID
  5
535
  8
0
  6
CONTINUOUS
 10
501.12570126556921
 20
16.947180717021851
 30
0.0
 11
496.37041868409341
 21
16.947180717021851
 31
0.0
 12
496.24805997483128
 22
16.174638231084479
 32
0.0
 13
496.24805997483128
 23
16.174638231084479
 33
0.0
210
0.0
220
0.0
230
-1.0
  0
SOLID
  5
536
  8
0
  6
CONTINUOUS
 10
-501.24805997483128
 20
16.174638231084479
 30
0.0
 11
-501.12570126556921
 21
15.402095745147109
 31
0.0
 12
-496.37041868409341
 22
15.402095745147109
 32
0.0
 13
-496.37041868409341
 23
15.402095745147109
 33
0.0
210
0.0
220
0.0
230
1.0
  0
SOLID
  5
537
  8
0
  6
CONTINUOUS
 10
501.24805997483128
 20
16.174638231084479
 30
0.0
 11
496.24805997483128
 21
16.174638231084479
 31
0.0
 12
496.37041868409341
 22
15.402095745147109
 32
0.0
 13
496.37041868409341
 23
15.402095745147109
 33
0.0
210
0.0
220
0.0
230
-1.0
  0
SOLID
  5
538
  8
0
  6
CONTINUOUS
 10
-501.12570126556921
 20
15.402095745147109
 30
0.0
 11
-500.77060246076871
 21
14.7051751003533
 31
0.0
 12
-496.7255174888939
 22
14.7051751003533
 32
0.0
 13
-496.7255174888939
 23
14.7051751003533
 33
0.0
  0
SOLID
  5
539
  8
0
  6
CONTINUOUS
 10
501.12570126556921
 20
15.402095745147109
 30
0.0
 11
496.37041868409341
 21
15.402095745147109
 31
0.0
 12
496.7255174888939
 22
14.7051751003533
 32
0.0
 13
496.7255174888939
 23
14.7051751003533
 33
0.0
210
0.0
220
0.0
230
-1.0
  0
SOLID
  5
53A
  8
0
  6
CONTINUOUS
 10
-500.77060246076871
 20
14.7051751003533
 30
0.0
 11
-500.21752310556252
 21
14.152095745147109
 31
0.0
 12
-497.27859684410009
 22
14.152095745147109
 32
0.0
 13
-497.27859684410009
 23
14.152095745147109
 33
0.0
210
0.0
220
0.0
230
1.0
  0
SOLID
  5
53B
  8
0
  6
CONTINUOUS
 10
500.77060246076871
 20
14.7051751003533
 30
0.0
 11
496.7255174888939
 21
14.7051751003533
 31
0.0
 12
497.27859684410009
 22
14.152095745147109
 32
0.0
 13
497.27859684410009
 23
14.152095745147109
 33
0.0
210
0.0
220
0.0
230
-1.0
  0
SOLID
  5
53C
  8
0
  6
CONTINUOUS
 10
499.52060246076871
 20
13.796996940346601
 30
0.0
 11
497.9755174888939
 21
13.796996940346601
 31
0.0
 12
498.74805997483128
 22
13.674638231084479
 32
0.0
 13
498.74805997483128
 23
13.674638231084479
 33
0.0
210
0.0
220
0.0
230
-1.0
  0
SOLID
  5
53D
  8
0
  6
CONTINUOUS
 10
-500.21752310556252
 20
14.152095745147109
 30
0.0
 11
-499.52060246076871
 21
13.796996940346601
 31
0.0
 12
-497.9755174888939
 22
13.796996940346601
 32
0.0
 13
-497.9755174888939
 23
13.796996940346601
 33
0.0
210
0.0
220
0.0
230
1.0
  0
SOLID
  5
53E
  8
0
  6
CONTINUOUS
 10
500.21752310556252
 20
14.152095745147109
 30
0.0
 11
497.27859684410009
 21
14.152095745147109
 31
0.0
 12
497.9755174888939
 22
13.796996940346601
 32
0.0
 13
497.9755174888939
 23
13.796996940346601
 33
0.0
210
0.0
220
0.0
230
-1.0
  0
LINE
  5
53F
  8
0
  6
CONTINUOUS
 10
-498.74805997483128
 20
18.674638231084469
 30
0.0
 11
-499.52060246076871
 21
18.55227952182236
 31
0.0
  0
LINE
  5
540
  8
0
  6
CONTINUOUS
 10
-497.9755174888939
 20
18.55227952182236
 30
0.0
 11
-498.74805997483128
 21
18.674638231084469
 31
0.0
  0
LINE
  5
541
  8
0
  6
CONTINUOUS
 10
-499.52060246076871
 20
18.55227952182236
 30
0.0
 11
-500.21752310556252
 21
18.19718071702184
 31
0.0
  0
LINE
  5
542
  8
0
  6
CONTINUOUS
 10
-497.9755174888939
 20
18.55227952182236
 30
0.0
 11
-497.27859684410009
 21
18.19718071702184
 31
0.0
  0
LINE
  5
543
  8
0
  6
CONTINUOUS
 10
-500.21752310556252
 20
18.19718071702184
 30
0.0
 11
-500.77060246076871
 21
17.644101361815661
 31
0.0
  0
LINE
  5
544
  8
0
  6
CONTINUOUS
 10
-497.27859684410009
 20
18.19718071702184
 30
0.0
 11
-496.7255174888939
 21
17.644101361815661
 31
0.0
  0
LINE
  5
545
  8
0
  6
CONTINUOUS
 10
-500.77060246076871
 20
17.644101361815661
 30
0.0
 11
-501.12570126556921
 21
16.947180717021851
 31
0.0
  0
LINE
  5
546
  8
0
  6
CONTINUOUS
 10
-496.7255174888939
 20
17.644101361815661
 30
0.0
 11
-496.37041868409341
 21
16.947180717021851
 31
0.0
  0
LINE
  5
547
  8
0
  6
CONTINUOUS
 10
-501.12570126556921
 20
16.947180717021851
 30
0.0
 11
-501.24805997483128
 21
16.174638231084479
 31
0.0
  0
LINE
  5
548
  8
0
  6
CONTINUOUS
 10
-496.37041868409341
 20
16.947180717021851
 30
0.0
 11
-496.24805997483128
 21
16.174638231084479
 31
0.0
  0
LINE
  5
549
  8
0
  6
CONTINUOUS
 10
-501.24805997483128
 20
16.174638231084479
 30
0.0
 11
-501.12570126556921
 21
15.402095745147109
 31
0.0
  0
LINE
  5
54A
  8
0
  6
CONTINUOUS
 10
-496.24805997483128
 20
16.174638231084479
 30
0.0
 11
-496.37041868409341
 21
15.402095745147109
 31
0.0
  0
LINE
  5
54B
  8
0
  6
CONTINUOUS
 10
-501.12570126556921
 20
15.402095745147109
 30
0.0
 11
-500.77060246076871
 21
14.7051751003533
 31
0.0
  0
LINE
  5
54C
  8
0
  6
CONTINUOUS
 10
-496.37041868409341
 20
15.402095745147109
 30
0.0
 11
-496.7255174888939
 21
14.7051751003533
 31
0.0
  0
LINE
  5
54D
  8
0
  6
CONTINUOUS
 10
-500.77060246076871
 20
14.7051751003533
 30
0.0
 11
-500.21752310556252
 21
14.152095745147109
 31
0.0
  0
LINE
  5
54E
  8
0
  6
CONTINUOUS
 10
-496.7255174888939
 20
14.7051751003533
 30
0.0
 11
-497.27859684410009
 21
14.152095745147109
 31
0.0
  0
LINE
  5
54F
  8
0
  6
CONTINUOUS
 10
-497.9755174888939
 20
13.796996940346601
 30
0.0
 11
-498.74805997483128
 21
13.674638231084479
 31
0.0
  0
LINE
  5
550
  8
0
  6
CONTINUOUS
 10
-498.74805997483128
 20
13.674638231084479
 30
0.0
 11
-499.52060246076871
 21
13.796996940346601
 31
0.0
  0
LINE
  5
551
  8
0
  6
CONTINUOUS
 10
-500.21752310556252
 20
14.152095745147109
 30
0.0
 11
-499.52060246076871
 21
13.796996940346601
 31
0.0
  0
LINE
  5
552
  8
0
  6
CONTINUOUS
 10
-497.27859684410009
 20
14.152095745147109
 30
0.0
 11
-497.9755174888939
 21
13.796996940346601
 31
0.0
  0
ENDBLK
  5
554
  8
0
  0
BLOCK
  8
0
  2
*U30
 70
     1
 10
0.0
 20
0.0
 30
0.0
  3
*U30
  1

  0
TEXT
  5
556
  8
0
 10
-732.46581451528391
 20
-35.476771766981571
 30
0.0
 40
12.2941616766467
  1
Selected fascia* & gutter
  7
ARIAL
  0
TEXT
  5
557
  8
0
 10
-732.7341727510634
 20
-54.70754099775079
 30
0.0
 40
12.2941616766467
  1
(Fascia board height not to
  7
ARIAL
  0
TEXT
  5
558
  8
0
 10
-732.32324920252609
 20
-73.93831022852001
 30
0.0
 40
12.2941616766467
  1
exceed batten height)
  7
ARIAL
  0
ENDBLK
  5
55A
  8
0
  0
BLOCK
  8
0
  2
*U31
 70
     1
 10
0.0
 20
0.0
 30
0.0
  3
*U31
  1

  0
SOLID
  5
55C
  8
0
  6
CONTINUOUS
 10
-97.992596134563996
 20
275.4601171767124
 30
0.0
 11
-98.765138620501375
 21
275.33775846745021
 31
0.0
 12
-97.220053648626603
 22
275.33775846745021
 32
0.0
 13
-97.220053648626603
 23
275.33775846745021
 33
0.0
  0
SOLID
  5
55D
  8
0
  6
CONTINUOUS
 10
-98.765138620501375
 20
275.33775846745021
 30
0.0
 11
-99.462059265295167
 21
274.98265966264972
 31
0.0
 12
-96.523133003832797
 22
274.98265966264972
 32
0.0
 13
-96.523133003832797
 23
274.98265966264972
 33
0.0
210
0.0
220
0.0
230
1.0
  0
SOLID
  5
55E
  8
0
  6
CONTINUOUS
 10
98.765138620501375
 20
275.33775846745021
 30
0.0
 11
97.220053648626603
 21
275.33775846745021
 31
0.0
 12
96.523133003832797
 22
274.98265966264972
 32
0.0
 13
96.523133003832797
 23
274.98265966264972
 33
0.0
210
0.0
220
0.0
230
-1.0
  0
SOLID
  5
55F
  8
0
  6
CONTINUOUS
 10
-99.462059265295167
 20
274.98265966264972
 30
0.0
 11
-100.0151386205013
 21
274.42958030744347
 31
0.0
 12
-95.970053648626603
 22
274.42958030744347
 32
0.0
 13
-95.970053648626603
 23
274.42958030744347
 33
0.0
210
0.0
220
0.0
230
1.0
  0
SOLID
  5
560
  8
0
  6
CONTINUOUS
 10
99.462059265295167
 20
274.98265966264972
 30
0.0
 11
96.523133003832797
 21
274.98265966264972
 31
0.0
 12
95.970053648626603
 22
274.42958030744347
 32
0.0
 13
95.970053648626603
 23
274.42958030744347
 33
0.0
210
0.0
220
0.0
230
-1.0
  0
SOLID
  5
561
  8
0
  6
CONTINUOUS
 10
-100.0151386205013
 20
274.42958030744347
 30
0.0
 11
-100.37023742530189
 21
273.73265966264972
 31
0.0
 12
-95.614954843826084
 22
273.73265966264972
 32
0.0
 13
-95.614954843826084
 23
273.73265966264972
 33
0.0
210
0.0
220
0.0
230
1.0
  0
SOLID
  5
562
  8
0
  6
CONTINUOUS
 10
100.0151386205013
 20
274.42958030744347
 30
0.0
 11
95.970053648626603
 21
274.42958030744347
 31
0.0
 12
95.614954843826084
 22
273.73265966264972
 32
0.0
 13
95.614954843826084
 23
273.73265966264972
 33
0.0
210
0.0
220
0.0
230
-1.0
  0
SOLID
  5
563
  8
0
  6
CONTINUOUS
 10
-100.37023742530189
 20
273.73265966264972
 30
0.0
 11
-100.492596134564
 21
272.96011717671229
 31
0.0
 12
-95.492596134563968
 22
272.96011717671229
 32
0.0
 13
-95.492596134563968
 23
272.96011717671229
 33
0.0
210
0.0
220
0.0
230
1.0
  0
SOLID
  5
564
  8
0
  6
CONTINUOUS
 10
100.37023742530189
 20
273.73265966264972
 30
0.0
 11
95.614954843826084
 21
273.73265966264972
 31
0.0
 12
95.492596134563968
 22
272.96011717671229
 32
0.0
 13
95.492596134563968
 23
272.96011717671229
 33
0.0
210
0.0
220
0.0
230
-1.0
  0
SOLID
  5
565
  8
0
  6
CONTINUOUS
 10
-100.492596134564
 20
272.96011717671229
 30
0.0
 11
-100.37023742530189
 21
272.18757469077502
 31
0.0
 12
-95.614954843826084
 22
272.18757469077502
 32
0.0
 13
-95.614954843826084
 23
272.18757469077502
 33
0.0
210
0.0
220
0.0
230
1.0
  0
SOLID
  5
566
  8
0
  6
CONTINUOUS
 10
100.492596134564
 20
272.96011717671229
 30
0.0
 11
95.492596134563968
 21
272.96011717671229
 31
0.0
 12
95.614954843826084
 22
272.18757469077502
 32
0.0
 13
95.614954843826084
 23
272.18757469077502
 33
0.0
210
0.0
220
0.0
230
-1.0
  0
SOLID
  5
567
  8
0
  6
CONTINUOUS
 10
-100.37023742530189
 20
272.18757469077502
 30
0.0
 11
-100.0151386205013
 21
271.49065404598122
 31
0.0
 12
-95.970053648626603
 22
271.49065404598122
 32
0.0
 13
-95.970053648626603
 23
271.49065404598122
 33
0.0
210
0.0
220
0.0
230
1.0
  0
SOLID
  5
568
  8
0
  6
CONTINUOUS
 10
100.37023742530189
 20
272.18757469077502
 30
0.0
 11
95.614954843826084
 21
272.18757469077502
 31
0.0
 12
95.970053648626603
 22
271.49065404598122
 32
0.0
 13
95.970053648626603
 23
271.49065404598122
 33
0.0
210
0.0
220
0.0
230
-1.0
  0
SOLID
  5
569
  8
0
  6
CONTINUOUS
 10
-100.0151386205013
 20
271.49065404598122
 30
0.0
 11
-99.462059265295167
 21
270.93757469077491
 31
0.0
 12
-96.523133003832797
 22
270.93757469077491
 32
0.0
 13
-96.523133003832797
 23
270.93757469077491
 33
0.0
210
0.0
220
0.0
230
1.0
  0
SOLID
  5
56A
  8
0
  6
CONTINUOUS
 10
100.0151386205013
 20
271.49065404598122
 30
0.0
 11
95.970053648626603
 21
271.49065404598122
 31
0.0
 12
96.523133003832797
 22
270.93757469077491
 32
0.0
 13
96.523133003832797
 23
270.93757469077491
 33
0.0
210
0.0
220
0.0
230
-1.0
  0
SOLID
  5
56B
  8
0
  6
CONTINUOUS
 10
98.765138620501375
 20
270.58247588597447
 30
0.0
 11
97.220053648626617
 21
270.58247588597447
 31
0.0
 12
97.992596134563996
 22
270.46011717671229
 32
0.0
 13
97.992596134563996
 23
270.46011717671229
 33
0.0
210
0.0
220
0.0
230
-1.0
  0
SOLID
  5
56C
  8
0
  6
CONTINUOUS
 10
-99.462059265295167
 20
270.93757469077491
 30
0.0
 11
-98.765138620501375
 21
270.58247588597447
 31
0.0
 12
-97.220053648626617
 22
270.58247588597447
 32
0.0
 13
-97.220053648626617
 23
270.58247588597447
 33
0.0
210
0.0
220
0.0
230
1.0
  0
SOLID
  5
56D
  8
0
  6
CONTINUOUS
 10
99.462059265295167
 20
270.93757469077491
 30
0.0
 11
96.523133003832797
 21
270.93757469077491
 31
0.0
 12
97.220053648626617
 22
270.58247588597447
 32
0.0
 13
97.220053648626617
 23
270.58247588597447
 33
0.0
210
0.0
220
0.0
230
-1.0
  0
LINE
  5
56E
  8
0
  6
CONTINUOUS
 10
-97.992596134563996
 20
275.4601171767124
 30
0.0
 11
-98.765138620501375
 21
275.33775846745021
 31
0.0
  0
LINE
  5
56F
  8
0
  6
CONTINUOUS
 10
-97.220053648626603
 20
275.33775846745021
 30
0.0
 11
-97.992596134563996
 21
275.4601171767124
 31
0.0
  0
LINE
  5
570
  8
0
  6
CONTINUOUS
 10
-98.765138620501375
 20
275.33775846745021
 30
0.0
 11
-99.462059265295167
 21
274.98265966264972
 31
0.0
  0
LINE
  5
571
  8
0
  6
CONTINUOUS
 10
-97.220053648626603
 20
275.33775846745021
 30
0.0
 11
-96.523133003832797
 21
274.98265966264972
 31
0.0
  0
LINE
  5
572
  8
0
  6
CONTINUOUS
 10
-99.462059265295167
 20
274.98265966264972
 30
0.0
 11
-100.0151386205013
 21
274.42958030744347
 31
0.0
  0
LINE
  5
573
  8
0
  6
CONTINUOUS
 10
-96.523133003832797
 20
274.98265966264972
 30
0.0
 11
-95.970053648626603
 21
274.42958030744347
 31
0.0
  0
LINE
  5
574
  8
0
  6
CONTINUOUS
 10
-100.0151386205013
 20
274.42958030744347
 30
0.0
 11
-100.37023742530189
 21
273.73265966264972
 31
0.0
  0
LINE
  5
575
  8
0
  6
CONTINUOUS
 10
-95.970053648626603
 20
274.42958030744347
 30
0.0
 11
-95.614954843826084
 21
273.73265966264972
 31
0.0
  0
LINE
  5
576
  8
0
  6
CONTINUOUS
 10
-100.37023742530189
 20
273.73265966264972
 30
0.0
 11
-100.492596134564
 21
272.96011717671229
 31
0.0
  0
LINE
  5
577
  8
0
  6
CONTINUOUS
 10
-95.614954843826084
 20
273.73265966264972
 30
0.0
 11
-95.492596134563968
 21
272.96011717671229
 31
0.0
  0
LINE
  5
578
  8
0
  6
CONTINUOUS
 10
-100.492596134564
 20
272.96011717671229
 30
0.0
 11
-100.37023742530189
 21
272.18757469077502
 31
0.0
  0
LINE
  5
579
  8
0
  6
CONTINUOUS
 10
-95.492596134563968
 20
272.96011717671229
 30
0.0
 11
-95.614954843826084
 21
272.18757469077502
 31
0.0
  0
LINE
  5
57A
  8
0
  6
CONTINUOUS
 10
-100.37023742530189
 20
272.18757469077502
 30
0.0
 11
-100.0151386205013
 21
271.49065404598122
 31
0.0
  0
LINE
  5
57B
  8
0
  6
CONTINUOUS
 10
-95.614954843826084
 20
272.18757469077502
 30
0.0
 11
-95.970053648626603
 21
271.49065404598122
 31
0.0
  0
LINE
  5
57C
  8
0
  6
CONTINUOUS
 10
-100.0151386205013
 20
271.49065404598122
 30
0.0
 11
-99.462059265295167
 21
270.93757469077491
 31
0.0
  0
LINE
  5
57D
  8
0
  6
CONTINUOUS
 10
-95.970053648626603
 20
271.49065404598122
 30
0.0
 11
-96.523133003832797
 21
270.93757469077491
 31
0.0
  0
LINE
  5
57E
  8
0
  6
CONTINUOUS
 10
-97.220053648626617
 20
270.58247588597447
 30
0.0
 11
-97.992596134563996
 21
270.46011717671229
 31
0.0
  0
LINE
  5
57F
  8
0
  6
CONTINUOUS
 10
-97.992596134563996
 20
270.46011717671229
 30
0.0
 11
-98.765138620501375
 21
270.58247588597447
 31
0.0
  0
LINE
  5
580
  8
0
  6
CONTINUOUS
 10
-99.462059265295167
 20
270.93757469077491
 30
0.0
 11
-98.765138620501375
 21
270.58247588597447
 31
0.0
  0
LINE
  5
581
  8
0
  6
CONTINUOUS
 10
-96.523133003832797
 20
270.93757469077491
 30
0.0
 11
-97.220053648626617
 21
270.58247588597447
 31
0.0
  0
ENDBLK
  5
583
  8
0
  0
BLOCK
  8
0
  2
*U32
 70
     1
 10
0.0
 20
0.0
 30
0.0
  3
*U32
  1

  0
TEXT
  5
585
  8
0
 10
-359.65238005004329
 20
451.2319822978917
 30
0.0
 40
12.2941616766467
  1
2" x 2"  Tile batten on 14 1/2"
  7
ARIAL
  0
TEXT
  5
586
  8
0
 10
-359.45111137320868
 20
432.00121306712248
 30
0.0
 40
12.2941616766467
  1
truss spacing's
  7
ARIAL
  0
ENDBLK
  5
588
  8
0
  0
BLOCK
  8
0
  2
*U33
 70
     1
 10
0.0
 20
0.0
 30
0.0
  3
*U33
  1

  0
SOLID
  5
58A
  8
0
  6
CONTINUOUS
 10
-371.36066987241207
 20
-2.1125983903006
 30
0.0
 11
-372.1332123583494
 21
-2.2349570995627142
 31
0.0
 12
-370.5881273864747
 22
-2.2349570995627142
 32
0.0
 13
-370.5881273864747
 23
-2.2349570995627142
 33
0.0
210
0.0
220
0.0
230
1.0
  0
SOLID
  5
58B
  8
0
  6
CONTINUOUS
 10
-372.1332123583494
 20
-2.2349570995627142
 30
0.0
 11
-372.8301330031432
 21
-2.5900559043632221
 31
0.0
 12
-369.89120674168089
 22
-2.5900559043632221
 32
0.0
 13
-369.89120674168089
 23
-2.5900559043632221
 33
0.0
210
0.0
220
0.0
230
1.0
  0
SOLID
  5
58C
  8
0
  6
CONTINUOUS
 10
372.1332123583494
 20
-2.2349570995627142
 30
0.0
 11
370.5881273864747
 21
-2.2349570995627142
 31
0.0
 12
369.89120674168089
 22
-2.5900559043632221
 32
0.0
 13
369.89120674168089
 23
-2.5900559043632221
 33
0.0
210
0.0
220
0.0
230
-1.0
  0
SOLID
  5
58D
  8
0
  6
CONTINUOUS
 10
-372.8301330031432
 20
-2.5900559043632221
 30
0.0
 11
-373.3832123583494
 21
-3.143135259569394
 31
0.0
 12
-369.33812738647481
 22
-3.143135259569394
 32
0.0
 13
-369.33812738647481
 23
-3.143135259569394
 33
0.0
210
0.0
220
0.0
230
1.0
  0
SOLID
  5
58E
  8
0
  6
CONTINUOUS
 10
372.8301330031432
 20
-2.5900559043632221
 30
0.0
 11
369.89120674168089
 21
-2.5900559043632221
 31
0.0
 12
369.33812738647481
 22
-3.143135259569394
 32
0.0
 13
369.33812738647481
 23
-3.143135259569394
 33
0.0
210
0.0
220
0.0
230
-1.0
  0
SOLID
  5
58F
  8
0
  6
CONTINUOUS
 10
-373.3832123583494
 20
-3.143135259569394
 30
0.0
 11
-373.73831116314989
 21
-3.8400559043631932
 31
0.0
 12
-368.98302858167432
 22
-3.8400559043631932
 32
0.0
 13
-368.98302858167432
 23
-3.8400559043631932
 33
0.0
  0
SOLID
  5
590
  8
0
  6
CONTINUOUS
 10
373.3832123583494
 20
-3.143135259569394
 30
0.0
 11
369.33812738647481
 21
-3.143135259569394
 31
0.0
 12
368.98302858167432
 22
-3.8400559043631932
 32
0.0
 13
368.98302858167432
 23
-3.8400559043631932
 33
0.0
210
0.0
220
0.0
230
-1.0
  0
SOLID
  5
591
  8
0
  6
CONTINUOUS
 10
-373.73831116314989
 20
-3.8400559043631932
 30
0.0
 11
-373.86066987241202
 21
-4.6125983903005441
 31
0.0
 12
-368.86066987241207
 22
-4.6125983903005441
 32
0.0
 13
-368.86066987241207
 23
-4.6125983903005441
 33
0.0
210
0.0
220
0.0
230
1.0
  0
SOLID
  5
592
  8
0
  6
CONTINUOUS
 10
373.73831116314989
 20
-3.8400559043631932
 30
0.0
 11
368.98302858167432
 21
-3.8400559043631932
 31
0.0
 12
368.86066987241207
 22
-4.6125983903005441
 32
0.0
 13
368.86066987241207
 23
-4.6125983903005441
 33
0.0
210
0.0
220
0.0
230
-1.0
  0
SOLID
  5
593
  8
0
  6
CONTINUOUS
 10
-373.86066987241202
 20
-4.6125983903005441
 30
0.0
 11
-373.73831116314989
 21
-5.3851408762378954
 31
0.0
 12
-368.98302858167432
 22
-5.3851408762378954
 32
0.0
 13
-368.98302858167432
 23
-5.3851408762378954
 33
0.0
210
0.0
220
0.0
230
1.0
  0
SOLID
  5
594
  8
0
  6
CONTINUOUS
 10
373.86066987241202
 20
-4.6125983903005441
 30
0.0
 11
368.86066987241207
 21
-4.6125983903005441
 31
0.0
 12
368.98302858167432
 22
-5.3851408762378954
 32
0.0
 13
368.98302858167432
 23
-5.3851408762378954
 33
0.0
210
0.0
220
0.0
230
-1.0
  0
SOLID
  5
595
  8
0
  6
CONTINUOUS
 10
-373.73831116314989
 20
-5.3851408762378954
 30
0.0
 11
-373.3832123583494
 21
-6.0820615210316928
 31
0.0
 12
-369.33812738647481
 22
-6.0820615210316928
 32
0.0
 13
-369.33812738647481
 23
-6.0820615210316928
 33
0.0
210
0.0
220
0.0
230
1.0
  0
SOLID
  5
596
  8
0
  6
CONTINUOUS
 10
373.73831116314989
 20
-5.3851408762378954
 30
0.0
 11
368.98302858167432
 21
-5.3851408762378954
 31
0.0
 12
369.33812738647481
 22
-6.0820615210316928
 32
0.0
 13
369.33812738647481
 23
-6.0820615210316928
 33
0.0
210
0.0
220
0.0
230
-1.0
  0
SOLID
  5
597
  8
0
  6
CONTINUOUS
 10
-373.3832123583494
 20
-6.0820615210316928
 30
0.0
 11
-372.8301330031432
 21
-6.6351408762378661
 31
0.0
 12
-369.89120674168089
 22
-6.6351408762378661
 32
0.0
 13
-369.89120674168089
 23
-6.6351408762378661
 33
0.0
210
0.0
220
0.0
230
1.0
  0
SOLID
  5
598
  8
0
  6
CONTINUOUS
 10
373.3832123583494
 20
-6.0820615210316928
 30
0.0
 11
369.33812738647481
 21
-6.0820615210316928
 31
0.0
 12
369.89120674168089
 22
-6.6351408762378661
 32
0.0
 13
369.89120674168089
 23
-6.6351408762378661
 33
0.0
210
0.0
220
0.0
230
-1.0
  0
SOLID
  5
599
  8
0
  6
CONTINUOUS
 10
372.1332123583494
 20
-6.990239681038374
 30
0.0
 11
370.5881273864747
 21
-6.990239681038374
 31
0.0
 12
371.36066987241207
 22
-7.1125983903004872
 32
0.0
 13
371.36066987241207
 23
-7.1125983903004872
 33
0.0
210
0.0
220
0.0
230
-1.0
  0
SOLID
  5
59A
  8
0
  6
CONTINUOUS
 10
-372.8301330031432
 20
-6.6351408762378661
 30
0.0
 11
-372.1332123583494
 21
-6.990239681038374
 31
0.0
 12
-370.5881273864747
 22
-6.990239681038374
 32
0.0
 13
-370.5881273864747
 23
-6.990239681038374
 33
0.0
210
0.0
220
0.0
230
1.0
  0
SOLID
  5
59B
  8
0
  6
CONTINUOUS
 10
372.8301330031432
 20
-6.6351408762378661
 30
0.0
 11
369.89120674168089
 21
-6.6351408762378661
 31
0.0
 12
370.5881273864747
 22
-6.990239681038374
 32
0.0
 13
370.5881273864747
 23
-6.990239681038374
 33
0.0
210
0.0
220
0.0
230
-1.0
  0
LINE
  5
59C
  8
0
  6
CONTINUOUS
 10
-371.36066987241207
 20
-2.1125983903006
 30
0.0
 11
-372.1332123583494
 21
-2.2349570995627142
 31
0.0
  0
LINE
  5
59D
  8
0
  6
CONTINUOUS
 10
-370.5881273864747
 20
-2.2349570995627142
 30
0.0
 11
-371.36066987241207
 21
-2.1125983903006
 31
0.0
  0
LINE
  5
59E
  8
0
  6
CONTINUOUS
 10
-372.1332123583494
 20
-2.2349570995627142
 30
0.0
 11
-372.8301330031432
 21
-2.5900559043632221
 31
0.0
  0
LINE
  5
59F
  8
0
  6
CONTINUOUS
 10
-370.5881273864747
 20
-2.2349570995627142
 30
0.0
 11
-369.89120674168089
 21
-2.5900559043632221
 31
0.0
  0
LINE
  5
5A0
  8
0
  6
CONTINUOUS
 10
-372.8301330031432
 20
-2.5900559043632221
 30
0.0
 11
-373.3832123583494
 21
-3.143135259569394
 31
0.0
  0
LINE
  5
5A1
  8
0
  6
CONTINUOUS
 10
-369.89120674168089
 20
-2.5900559043632221
 30
0.0
 11
-369.33812738647481
 21
-3.143135259569394
 31
0.0
  0
LINE
  5
5A2
  8
0
  6
CONTINUOUS
 10
-373.3832123583494
 20
-3.143135259569394
 30
0.0
 11
-373.73831116314989
 21
-3.8400559043631932
 31
0.0
  0
LINE
  5
5A3
  8
0
  6
CONTINUOUS
 10
-369.33812738647481
 20
-3.143135259569394
 30
0.0
 11
-368.98302858167432
 21
-3.8400559043631932
 31
0.0
  0
LINE
  5
5A4
  8
0
  6
CONTINUOUS
 10
-373.73831116314989
 20
-3.8400559043631932
 30
0.0
 11
-373.86066987241202
 21
-4.6125983903005441
 31
0.0
  0
LINE
  5
5A5
  8
0
  6
CONTINUOUS
 10
-368.98302858167432
 20
-3.8400559043631932
 30
0.0
 11
-368.86066987241207
 21
-4.6125983903005441
 31
0.0
  0
LINE
  5
5A6
  8
0
  6
CONTINUOUS
 10
-373.86066987241202
 20
-4.6125983903005441
 30
0.0
 11
-373.73831116314989
 21
-5.3851408762378954
 31
0.0
  0
LINE
  5
5A7
  8
0
  6
CONTINUOUS
 10
-368.86066987241207
 20
-4.6125983903005441
 30
0.0
 11
-368.98302858167432
 21
-5.3851408762378954
 31
0.0
  0
LINE
  5
5A8
  8
0
  6
CONTINUOUS
 10
-373.73831116314989
 20
-5.3851408762378954
 30
0.0
 11
-373.3832123583494
 21
-6.0820615210316928
 31
0.0
  0
LINE
  5
5A9
  8
0
  6
CONTINUOUS
 10
-368.98302858167432
 20
-5.3851408762378954
 30
0.0
 11
-369.33812738647481
 21
-6.0820615210316928
 31
0.0
  0
LINE
  5
5AA
  8
0
  6
CONTINUOUS
 10
-373.3832123583494
 20
-6.0820615210316928
 30
0.0
 11
-372.8301330031432
 21
-6.6351408762378661
 31
0.0
  0
LINE
  5
5AB
  8
0
  6
CONTINUOUS
 10
-369.33812738647481
 20
-6.0820615210316928
 30
0.0
 11
-369.89120674168089
 21
-6.6351408762378661
 31
0.0
  0
LINE
  5
5AC
  8
0
  6
CONTINUOUS
 10
-370.5881273864747
 20
-6.990239681038374
 30
0.0
 11
-371.36066987241207
 21
-7.1125983903004872
 31
0.0
  0
LINE
  5
5AD
  8
0
  6
CONTINUOUS
 10
-371.36066987241207
 20
-7.1125983903004872
 30
0.0
 11
-372.1332123583494
 21
-6.990239681038374
 31
0.0
  0
LINE
  5
5AE
  8
0
  6
CONTINUOUS
 10
-372.8301330031432
 20
-6.6351408762378661
 30
0.0
 11
-372.1332123583494
 21
-6.990239681038374
 31
0.0
  0
LINE
  5
5AF
  8
0
  6
CONTINUOUS
 10
-369.89120674168089
 20
-6.6351408762378661
 30
0.0
 11
-370.5881273864747
 21
-6.990239681038374
 31
0.0
  0
ENDBLK
  5
5B1
  8
0
  0
BLOCK
  8
0
  2
*U34
 70
     1
 10
0.0
 20
0.0
 30
0.0
  3
*U34
  1

  0
TEXT
  5
5B3
  8
0
 10
-733.05284815605148
 20
-135.62109843766211
 30
0.0
 40
12.2941616766467
  1
Eaves soffit
  7
ARIAL
  0
ENDBLK
  5
5B5
  8
0
  0
BLOCK
  8
0
  2
*U35
 70
     1
 10
0.0
 20
0.0
 30
0.0
  3
*U35
  1

  0
SOLID
  5
5B7
  8
0
  6
CONTINUOUS
 10
-431.28179687252208
 20
-40.464082662386659
 30
0.0
 11
-432.0543393584594
 21
-40.586441371648768
 31
0.0
 12
-430.5092543865847
 22
-40.586441371648768
 32
0.0
 13
-430.5092543865847
 23
-40.586441371648768
 33
0.0
210
0.0
220
0.0
230
1.0
  0
SOLID
  5
5B8
  8
0
  6
CONTINUOUS
 10
-432.0543393584594
 20
-40.586441371648768
 30
0.0
 11
-432.75126000325332
 21
-40.941540176449287
 31
0.0
 12
-429.81233374179089
 22
-40.941540176449287
 32
0.0
 13
-429.81233374179089
 23
-40.941540176449287
 33
0.0
210
0.0
220
0.0
230
1.0
  0
SOLID
  5
5B9
  8
0
  6
CONTINUOUS
 10
432.0543393584594
 20
-40.586441371648768
 30
0.0
 11
430.5092543865847
 21
-40.586441371648768
 31
0.0
 12
429.81233374179089
 22
-40.941540176449287
 32
0.0
 13
429.81233374179089
 23
-40.941540176449287
 33
0.0
210
0.0
220
0.0
230
-1.0
  0
SOLID
  5
5BA
  8
0
  6
CONTINUOUS
 10
-432.75126000325332
 20
-40.941540176449287
 30
0.0
 11
-433.30433935845952
 21
-41.494619531655466
 31
0.0
 12
-429.2592543865847
 22
-41.494619531655466
 32
0.0
 13
-429.2592543865847
 23
-41.494619531655466
 33
0.0
  0
SOLID
  5
5BB
  8
0
  6
CONTINUOUS
 10
432.75126000325332
 20
-40.941540176449287
 30
0.0
 11
429.81233374179089
 21
-40.941540176449287
 31
0.0
 12
429.2592543865847
 22
-41.494619531655466
 32
0.0
 13
429.2592543865847
 23
-41.494619531655466
 33
0.0
210
0.0
220
0.0
230
-1.0
  0
SOLID
  5
5BC
  8
0
  6
CONTINUOUS
 10
-433.30433935845952
 20
-41.494619531655466
 30
0.0
 11
-433.65943816326001
 21
-42.191540176449287
 31
0.0
 12
-428.90415558178421
 22
-42.191540176449287
 32
0.0
 13
-428.90415558178421
 23
-42.191540176449287
 33
0.0
210
0.0
220
0.0
230
1.0
  0
SOLID
  5
5BD
  8
0
  6
CONTINUOUS
 10
433.30433935845952
 20
-41.494619531655466
 30
0.0
 11
429.2592543865847
 21
-41.494619531655466
 31
0.0
 12
428.90415558178421
 22
-42.191540176449287
 32
0.0
 13
428.90415558178421
 23
-42.191540176449287
 33
0.0
210
0.0
220
0.0
230
-1.0
  0
SOLID
  5
5BE
  8
0
  6
CONTINUOUS
 10
-433.65943816326001
 20
-42.191540176449287
 30
0.0
 11
-433.78179687252208
 21
-42.964082662386659
 31
0.0
 12
-428.78179687252208
 22
-42.964082662386659
 32
0.0
 13
-428.78179687252208
 23
-42.964082662386659
 33
0.0
210
0.0
220
0.0
230
1.0
  0
SOLID
  5
5BF
  8
0
  6
CONTINUOUS
 10
433.65943816326001
 20
-42.191540176449287
 30
0.0
 11
428.90415558178421
 21
-42.191540176449287
 31
0.0
 12
428.78179687252208
 22
-42.964082662386659
 32
0.0
 13
428.78179687252208
 23
-42.964082662386659
 33
0.0
210
0.0
220
0.0
230
-1.0
  0
SOLID
  5
5C0
  8
0
  6
CONTINUOUS
 10
-433.78179687252208
 20
-42.964082662386659
 30
0.0
 11
-433.65943816326001
 21
-43.736625148324023
 31
0.0
 12
-428.90415558178421
 22
-43.736625148324023
 32
0.0
 13
-428.90415558178421
 23
-43.736625148324023
 33
0.0
210
0.0
220
0.0
230
1.0
  0
SOLID
  5
5C1
  8
0
  6
CONTINUOUS
 10
433.78179687252208
 20
-42.964082662386659
 30
0.0
 11
428.78179687252208
 21
-42.964082662386659
 31
0.0
 12
428.90415558178421
 22
-43.736625148324023
 32
0.0
 13
428.90415558178421
 23
-43.736625148324023
 33
0.0
210
0.0
220
0.0
230
-1.0
  0
SOLID
  5
5C2
  8
0
  6
CONTINUOUS
 10
-433.65943816326001
 20
-43.736625148324023
 30
0.0
 11
-433.30433935845952
 21
-44.433545793117837
 31
0.0
 12
-429.2592543865847
 22
-44.433545793117837
 32
0.0
 13
-429.2592543865847
 23
-44.433545793117837
 33
0.0
  0
SOLID
  5
5C3
  8
0
  6
CONTINUOUS
 10
433.65943816326001
 20
-43.736625148324023
 30
0.0
 11
428.90415558178421
 21
-43.736625148324023
 31
0.0
 12
429.2592543865847
 22
-44.433545793117837
 32
0.0
 13
429.2592543865847
 23
-44.433545793117837
 33
0.0
210
0.0
220
0.0
230
-1.0
  0
SOLID
  5
5C4
  8
0
  6
CONTINUOUS
 10
-433.30433935845952
 20
-44.433545793117837
 30
0.0
 11
-432.75126000325332
 21
-44.986625148324023
 31
0.0
 12
-429.81233374179089
 22
-44.986625148324023
 32
0.0
 13
-429.81233374179089
 23
-44.986625148324023
 33
0.0
210
0.0
220
0.0
230
1.0
  0
SOLID
  5
5C5
  8
0
  6
CONTINUOUS
 10
433.30433935845952
 20
-44.433545793117837
 30
0.0
 11
429.2592543865847
 21
-44.433545793117837
 31
0.0
 12
429.81233374179089
 22
-44.986625148324023
 32
0.0
 13
429.81233374179089
 23
-44.986625148324023
 33
0.0
210
0.0
220
0.0
230
-1.0
  0
SOLID
  5
5C6
  8
0
  6
CONTINUOUS
 10
432.0543393584594
 20
-45.341723953124543
 30
0.0
 11
430.5092543865847
 21
-45.341723953124543
 31
0.0
 12
431.28179687252208
 22
-45.464082662386659
 32
0.0
 13
431.28179687252208
 23
-45.464082662386659
 33
0.0
210
0.0
220
0.0
230
-1.0
  0
SOLID
  5
5C7
  8
0
  6
CONTINUOUS
 10
-432.75126000325332
 20
-44.986625148324023
 30
0.0
 11
-432.0543393584594
 21
-45.341723953124543
 31
0.0
 12
-430.5092543865847
 22
-45.341723953124543
 32
0.0
 13
-430.5092543865847
 23
-45.341723953124543
 33
0.0
210
0.0
220
0.0
230
1.0
  0
SOLID
  5
5C8
  8
0
  6
CONTINUOUS
 10
432.75126000325332
 20
-44.986625148324023
 30
0.0
 11
429.81233374179089
 21
-44.986625148324023
 31
0.0
 12
430.5092543865847
 22
-45.341723953124543
 32
0.0
 13
430.5092543865847
 23
-45.341723953124543
 33
0.0
210
0.0
220
0.0
230
-1.0
  0
LINE
  5
5C9
  8
0
  6
CONTINUOUS
 10
-431.28179687252208
 20
-40.464082662386659
 30
0.0
 11
-432.0543393584594
 21
-40.586441371648768
 31
0.0
  0
LINE
  5
5CA
  8
0
  6
CONTINUOUS
 10
-430.5092543865847
 20
-40.586441371648768
 30
0.0
 11
-431.28179687252208
 21
-40.464082662386659
 31
0.0
  0
LINE
  5
5CB
  8
0
  6
CONTINUOUS
 10
-432.0543393584594
 20
-40.586441371648768
 30
0.0
 11
-432.75126000325332
 21
-40.941540176449287
 31
0.0
  0
LINE
  5
5CC
  8
0
  6
CONTINUOUS
 10
-430.5092543865847
 20
-40.586441371648768
 30
0.0
 11
-429.81233374179089
 21
-40.941540176449287
 31
0.0
  0
LINE
  5
5CD
  8
0
  6
CONTINUOUS
 10
-432.75126000325332
 20
-40.941540176449287
 30
0.0
 11
-433.30433935845952
 21
-41.494619531655466
 31
0.0
  0
LINE
  5
5CE
  8
0
  6
CONTINUOUS
 10
-429.81233374179089
 20
-40.941540176449287
 30
0.0
 11
-429.2592543865847
 21
-41.494619531655466
 31
0.0
  0
LINE
  5
5CF
  8
0
  6
CONTINUOUS
 10
-433.30433935845952
 20
-41.494619531655466
 30
0.0
 11
-433.65943816326001
 21
-42.191540176449287
 31
0.0
  0
LINE
  5
5D0
  8
0
  6
CONTINUOUS
 10
-429.2592543865847
 20
-41.494619531655466
 30
0.0
 11
-428.90415558178421
 21
-42.191540176449287
 31
0.0
  0
LINE
  5
5D1
  8
0
  6
CONTINUOUS
 10
-433.65943816326001
 20
-42.191540176449287
 30
0.0
 11
-433.78179687252208
 21
-42.964082662386659
 31
0.0
  0
LINE
  5
5D2
  8
0
  6
CONTINUOUS
 10
-428.90415558178421
 20
-42.191540176449287
 30
0.0
 11
-428.78179687252208
 21
-42.964082662386659
 31
0.0
  0
LINE
  5
5D3
  8
0
  6
CONTINUOUS
 10
-433.78179687252208
 20
-42.964082662386659
 30
0.0
 11
-433.65943816326001
 21
-43.736625148324023
 31
0.0
  0
LINE
  5
5D4
  8
0
  6
CONTINUOUS
 10
-428.78179687252208
 20
-42.964082662386659
 30
0.0
 11
-428.90415558178421
 21
-43.736625148324023
 31
0.0
  0
LINE
  5
5D5
  8
0
  6
CONTINUOUS
 10
-433.65943816326001
 20
-43.736625148324023
 30
0.0
 11
-433.30433935845952
 21
-44.433545793117837
 31
0.0
  0
LINE
  5
5D6
  8
0
  6
CONTINUOUS
 10
-428.90415558178421
 20
-43.736625148324023
 30
0.0
 11
-429.2592543865847
 21
-44.433545793117837
 31
0.0
  0
LINE
  5
5D7
  8
0
  6
CONTINUOUS
 10
-433.30433935845952
 20
-44.433545793117837
 30
0.0
 11
-432.75126000325332
 21
-44.986625148324023
 31
0.0
  0
LINE
  5
5D8
  8
0
  6
CONTINUOUS
 10
-429.2592543865847
 20
-44.433545793117837
 30
0.0
 11
-429.81233374179089
 21
-44.986625148324023
 31
0.0
  0
LINE
  5
5D9
  8
0
  6
CONTINUOUS
 10
-430.5092543865847
 20
-45.341723953124543
 30
0.0
 11
-431.28179687252208
 21
-45.464082662386659
 31
0.0
  0
LINE
  5
5DA
  8
0
  6
CONTINUOUS
 10
-431.28179687252208
 20
-45.464082662386659
 30
0.0
 11
-432.0543393584594
 21
-45.341723953124543
 31
0.0
  0
LINE
  5
5DB
  8
0
  6
CONTINUOUS
 10
-432.75126000325332
 20
-44.986625148324023
 30
0.0
 11
-432.0543393584594
 21
-45.341723953124543
 31
0.0
  0
LINE
  5
5DC
  8
0
  6
CONTINUOUS
 10
-429.81233374179089
 20
-44.986625148324023
 30
0.0
 11
-430.5092543865847
 21
-45.341723953124543
 31
0.0
  0
ENDBLK
  5
5DE
  8
0
  0
BLOCK
  8
0
  2
*U36
 70
     1
 10
0.0
 20
0.0
 30
0.0
  3
*U36
  1

  0
TEXT
  5
5E0
  8
0
 10
-732.19745627950454
 20
-104.6186858504133
 30
0.0
 40
12.2941616766467
  1
2"x6" Flush with OSB
  7
ARIAL
  0
ENDBLK
  5
5E2
  8
0
  0
BLOCK
  8
0
  2
*U37
 70
     1
 10
0.0
 20
0.0
 30
0.0
  3
*U37
  1

  0
SOLID
  5
5E4
  8
0
  6
CONTINUOUS
 10
-341.22830697254972
 20
146.14999636024109
 30
0.0
 11
-342.0008494584871
 21
146.02763765097899
 31
0.0
 12
-340.4557644866124
 22
146.02763765097899
 32
0.0
 13
-340.4557644866124
 23
146.02763765097899
 33
0.0
  0
SOLID
  5
5E5
  8
0
  6
CONTINUOUS
 10
-342.0008494584871
 20
146.02763765097899
 30
0.0
 11
-342.6977701032809
 21
145.6725388461785
 31
0.0
 12
-339.75884384181859
 22
145.6725388461785
 32
0.0
 13
-339.75884384181859
 23
145.6725388461785
 33
0.0
210
0.0
220
0.0
230
1.0
  0
SOLID
  5
5E6
  8
0
  6
CONTINUOUS
 10
342.0008494584871
 20
146.02763765097899
 30
0.0
 11
340.4557644866124
 21
146.02763765097899
 31
0.0
 12
339.75884384181859
 22
145.6725388461785
 32
0.0
 13
339.75884384181859
 23
145.6725388461785
 33
0.0
210
0.0
220
0.0
230
-1.0
  0
SOLID
  5
5E7
  8
0
  6
CONTINUOUS
 10
-342.6977701032809
 20
145.6725388461785
 30
0.0
 11
-343.2508494584871
 21
145.1194594909723
 31
0.0
 12
-339.20576448661228
 22
145.1194594909723
 32
0.0
 13
-339.20576448661228
 23
145.1194594909723
 33
0.0
210
0.0
220
0.0
230
1.0
  0
SOLID
  5
5E8
  8
0
  6
CONTINUOUS
 10
342.6977701032809
 20
145.6725388461785
 30
0.0
 11
339.75884384181859
 21
145.6725388461785
 31
0.0
 12
339.20576448661228
 22
145.1194594909723
 32
0.0
 13
339.20576448661228
 23
145.1194594909723
 33
0.0
210
0.0
220
0.0
230
-1.0
  0
SOLID
  5
5E9
  8
0
  6
CONTINUOUS
 10
-343.2508494584871
 20
145.1194594909723
 30
0.0
 11
-343.60594826328759
 21
144.4225388461785
 31
0.0
 12
-338.8506656818119
 22
144.4225388461785
 32
0.0
 13
-338.8506656818119
 23
144.4225388461785
 33
0.0
210
0.0
220
0.0
230
1.0
  0
SOLID
  5
5EA
  8
0
  6
CONTINUOUS
 10
343.2508494584871
 20
145.1194594909723
 30
0.0
 11
339.20576448661228
 21
145.1194594909723
 31
0.0
 12
338.8506656818119
 22
144.4225388461785
 32
0.0
 13
338.8506656818119
 23
144.4225388461785
 33
0.0
210
0.0
220
0.0
230
-1.0
  0
SOLID
  5
5EB
  8
0
  6
CONTINUOUS
 10
-343.60594826328759
 20
144.4225388461785
 30
0.0
 11
-343.72830697254972
 21
143.6499963602412
 31
0.0
 12
-338.72830697254972
 22
143.6499963602412
 32
0.0
 13
-338.72830697254972
 23
143.6499963602412
 33
0.0
210
0.0
220
0.0
230
1.0
  0
SOLID
  5
5EC
  8
0
  6
CONTINUOUS
 10
343.60594826328759
 20
144.4225388461785
 30
0.0
 11
338.8506656818119
 21
144.4225388461785
 31
0.0
 12
338.72830697254972
 22
143.6499963602412
 32
0.0
 13
338.72830697254972
 23
143.6499963602412
 33
0.0
210
0.0
220
0.0
230
-1.0
  0
SOLID
  5
5ED
  8
0
  6
CONTINUOUS
 10
-343.72830697254972
 20
143.6499963602412
 30
0.0
 11
-343.60594826328759
 21
142.8774538743038
 31
0.0
 12
-338.8506656818119
 22
142.8774538743038
 32
0.0
 13
-338.8506656818119
 23
142.8774538743038
 33
0.0
210
0.0
220
0.0
230
1.0
  0
SOLID
  5
5EE
  8
0
  6
CONTINUOUS
 10
343.72830697254972
 20
143.6499963602412
 30
0.0
 11
338.72830697254972
 21
143.6499963602412
 31
0.0
 12
338.8506656818119
 22
142.8774538743038
 32
0.0
 13
338.8506656818119
 23
142.8774538743038
 33
0.0
210
0.0
220
0.0
230
-1.0
  0
SOLID
  5
5EF
  8
0
  6
CONTINUOUS
 10
-343.60594826328759
 20
142.8774538743038
 30
0.0
 11
-343.2508494584871
 21
142.18053322950999
 31
0.0
 12
-339.20576448661228
 22
142.18053322950999
 32
0.0
 13
-339.20576448661228
 23
142.18053322950999
 33
0.0
210
0.0
220
0.0
230
1.0
  0
SOLID
  5
5F0
  8
0
  6
CONTINUOUS
 10
343.60594826328759
 20
142.8774538743038
 30
0.0
 11
338.8506656818119
 21
142.8774538743038
 31
0.0
 12
339.20576448661228
 22
142.18053322950999
 32
0.0
 13
339.20576448661228
 23
142.18053322950999
 33
0.0
210
0.0
220
0.0
230
-1.0
  0
SOLID
  5
5F1
  8
0
  6
CONTINUOUS
 10
-343.2508494584871
 20
142.18053322950999
 30
0.0
 11
-342.6977701032809
 21
141.6274538743038
 31
0.0
 12
-339.75884384181859
 22
141.6274538743038
 32
0.0
 13
-339.75884384181859
 23
141.6274538743038
 33
0.0
210
0.0
220
0.0
230
1.0
  0
SOLID
  5
5F2
  8
0
  6
CONTINUOUS
 10
343.2508494584871
 20
142.18053322950999
 30
0.0
 11
339.20576448661228
 21
142.18053322950999
 31
0.0
 12
339.75884384181859
 22
141.6274538743038
 32
0.0
 13
339.75884384181859
 23
141.6274538743038
 33
0.0
210
0.0
220
0.0
230
-1.0
  0
SOLID
  5
5F3
  8
0
  6
CONTINUOUS
 10
342.0008494584871
 20
141.27235506950331
 30
0.0
 11
340.4557644866124
 21
141.27235506950331
 31
0.0
 12
341.22830697254972
 22
141.14999636024109
 32
0.0
 13
341.22830697254972
 23
141.14999636024109
 33
0.0
210
0.0
220
0.0
230
-1.0
  0
SOLID
  5
5F4
  8
0
  6
CONTINUOUS
 10
-342.6977701032809
 20
141.6274538743038
 30
0.0
 11
-342.0008494584871
 21
141.27235506950331
 31
0.0
 12
-340.4557644866124
 22
141.27235506950331
 32
0.0
 13
-340.4557644866124
 23
141.27235506950331
 33
0.0
210
0.0
220
0.0
230
1.0
  0
SOLID
  5
5F5
  8
0
  6
CONTINUOUS
 10
342.6977701032809
 20
141.6274538743038
 30
0.0
 11
339.75884384181859
 21
141.6274538743038
 31
0.0
 12
340.4557644866124
 22
141.27235506950331
 32
0.0
 13
340.4557644866124
 23
141.27235506950331
 33
0.0
210
0.0
220
0.0
230
-1.0
  0
LINE
  5
5F6
  8
0
  6
CONTINUOUS
 10
-341.22830697254972
 20
146.14999636024109
 30
0.0
 11
-342.0008494584871
 21
146.02763765097899
 31
0.0
  0
LINE
  5
5F7
  8
0
  6
CONTINUOUS
 10
-340.4557644866124
 20
146.02763765097899
 30
0.0
 11
-341.22830697254972
 21
146.14999636024109
 31
0.0
  0
LINE
  5
5F8
  8
0
  6
CONTINUOUS
 10
-342.0008494584871
 20
146.02763765097899
 30
0.0
 11
-342.6977701032809
 21
145.6725388461785
 31
0.0
  0
LINE
  5
5F9
  8
0
  6
CONTINUOUS
 10
-340.4557644866124
 20
146.02763765097899
 30
0.0
 11
-339.75884384181859
 21
145.6725388461785
 31
0.0
  0
LINE
  5
5FA
  8
0
  6
CONTINUOUS
 10
-342.6977701032809
 20
145.6725388461785
 30
0.0
 11
-343.2508494584871
 21
145.1194594909723
 31
0.0
  0
LINE
  5
5FB
  8
0
  6
CONTINUOUS
 10
-339.75884384181859
 20
145.6725388461785
 30
0.0
 11
-339.20576448661228
 21
145.1194594909723
 31
0.0
  0
LINE
  5
5FC
  8
0
  6
CONTINUOUS
 10
-343.2508494584871
 20
145.1194594909723
 30
0.0
 11
-343.60594826328759
 21
144.4225388461785
 31
0.0
  0
LINE
  5
5FD
  8
0
  6
CONTINUOUS
 10
-339.20576448661228
 20
145.1194594909723
 30
0.0
 11
-338.8506656818119
 21
144.4225388461785
 31
0.0
  0
LINE
  5
5FE
  8
0
  6
CONTINUOUS
 10
-343.60594826328759
 20
144.4225388461785
 30
0.0
 11
-343.72830697254972
 21
143.6499963602412
 31
0.0
  0
LINE
  5
5FF
  8
0
  6
CONTINUOUS
 10
-338.8506656818119
 20
144.4225388461785
 30
0.0
 11
-338.72830697254972
 21
143.6499963602412
 31
0.0
  0
LINE
  5
600
  8
0
  6
CONTINUOUS
 10
-343.72830697254972
 20
143.6499963602412
 30
0.0
 11
-343.60594826328759
 21
142.8774538743038
 31
0.0
  0
LINE
  5
601
  8
0
  6
CONTINUOUS
 10
-338.72830697254972
 20
143.6499963602412
 30
0.0
 11
-338.8506656818119
 21
142.8774538743038
 31
0.0
  0
LINE
  5
602
  8
0
  6
CONTINUOUS
 10
-343.60594826328759
 20
142.8774538743038
 30
0.0
 11
-343.2508494584871
 21
142.18053322950999
 31
0.0
  0
LINE
  5
603
  8
0
  6
CONTINUOUS
 10
-338.8506656818119
 20
142.8774538743038
 30
0.0
 11
-339.20576448661228
 21
142.18053322950999
 31
0.0
  0
LINE
  5
604
  8
0
  6
CONTINUOUS
 10
-343.2508494584871
 20
142.18053322950999
 30
0.0
 11
-342.6977701032809
 21
141.6274538743038
 31
0.0
  0
LINE
  5
605
  8
0
  6
CONTINUOUS
 10
-339.20576448661228
 20
142.18053322950999
 30
0.0
 11
-339.75884384181859
 21
141.6274538743038
 31
0.0
  0
LINE
  5
606
  8
0
  6
CONTINUOUS
 10
-340.4557644866124
 20
141.27235506950331
 30
0.0
 11
-341.22830697254972
 21
141.14999636024109
 31
0.0
  0
LINE
  5
607
  8
0
  6
CONTINUOUS
 10
-341.22830697254972
 20
141.14999636024109
 30
0.0
 11
-342.0008494584871
 21
141.27235506950331
 31
0.0
  0
LINE
  5
608
  8
0
  6
CONTINUOUS
 10
-342.6977701032809
 20
141.6274538743038
 30
0.0
 11
-342.0008494584871
 21
141.27235506950331
 31
0.0
  0
LINE
  5
609
  8
0
  6
CONTINUOUS
 10
-339.75884384181859
 20
141.6274538743038
 30
0.0
 11
-340.4557644866124
 21
141.27235506950331
 31
0.0
  0
ENDBLK
  5
60B
  8
0
  0
BLOCK
  8
0
  2
*U38
 70
     1
 10
0.0
 20
0.0
 30
0.0
  3
*U38
  1

  0
TEXT
  5
60D
  8
0
 10
-732.50774548962454
 20
-171.31719405844089
 30
0.0
 40
12.2941616766467
  1
7/16 OSB or counter batten
  7
ARIAL
  0
TEXT
  5
60E
  8
0
 10
-732.26454583844941
 20
-190.54796328921009
 30
0.0
 40
12.2941616766467
  1
over spaced sheathing
  7
ARIAL
  0
ENDBLK
  5
610
  8
0
  0
BLOCK
  8
0
  2
*U39
 70
     1
 10
0.0
 20
0.0
 30
0.0
  3
*U39
  1

  0
SOLID
  5
612
  8
0
  6
CONTINUOUS
 10
-442.10053408952308
 20
146.67086578853349
 30
0.0
 11
-442.87307657546052
 21
146.54850707927139
 31
0.0
 12
-441.32799160358582
 22
146.54850707927139
 32
0.0
 13
-441.32799160358582
 23
146.54850707927139
 33
0.0
210
0.0
220
0.0
230
1.0
  0
SOLID
  5
613
  8
0
  6
CONTINUOUS
 10
-442.87307657546052
 20
146.54850707927139
 30
0.0
 11
-443.56999722025421
 21
146.1934082744709
 31
0.0
 12
-440.63107095879201
 22
146.1934082744709
 32
0.0
 13
-440.63107095879201
 23
146.1934082744709
 33
0.0
210
0.0
220
0.0
230
1.0
  0
SOLID
  5
614
  8
0
  6
CONTINUOUS
 10
442.87307657546052
 20
146.54850707927139
 30
0.0
 11
441.32799160358582
 21
146.54850707927139
 31
0.0
 12
440.63107095879201
 22
146.1934082744709
 32
0.0
 13
440.63107095879201
 23
146.1934082744709
 33
0.0
210
0.0
220
0.0
230
-1.0
  0
SOLID
  5
615
  8
0
  6
CONTINUOUS
 10
-443.56999722025421
 20
146.1934082744709
 30
0.0
 11
-444.1230765754604
 21
145.6403289192647
 31
0.0
 12
-440.0779916035857
 22
145.6403289192647
 32
0.0
 13
-440.0779916035857
 23
145.6403289192647
 33
0.0
  0
SOLID
  5
616
  8
0
  6
CONTINUOUS
 10
443.56999722025421
 20
146.1934082744709
 30
0.0
 11
440.63107095879201
 21
146.1934082744709
 31
0.0
 12
440.0779916035857
 22
145.6403289192647
 32
0.0
 13
440.0779916035857
 23
145.6403289192647
 33
0.0
210
0.0
220
0.0
230
-1.0
  0
SOLID
  5
617
  8
0
  6
CONTINUOUS
 10
-444.1230765754604
 20
145.6403289192647
 30
0.0
 11
-444.47817538026089
 21
144.9434082744709
 31
0.0
 12
-439.72289279878521
 22
144.9434082744709
 32
0.0
 13
-439.72289279878521
 23
144.9434082744709
 33
0.0
210
0.0
220
0.0
230
1.0
  0
SOLID
  5
618
  8
0
  6
CONTINUOUS
 10
444.1230765754604
 20
145.6403289192647
 30
0.0
 11
440.0779916035857
 21
145.6403289192647
 31
0.0
 12
439.72289279878521
 22
144.9434082744709
 32
0.0
 13
439.72289279878521
 23
144.9434082744709
 33
0.0
210
0.0
220
0.0
230
-1.0
  0
SOLID
  5
619
  8
0
  6
CONTINUOUS
 10
-444.47817538026089
 20
144.9434082744709
 30
0.0
 11
-444.60053408952302
 21
144.1708657885336
 31
0.0
 12
-439.60053408952308
 22
144.1708657885336
 32
0.0
 13
-439.60053408952308
 23
144.1708657885336
 33
0.0
210
0.0
220
0.0
230
1.0
  0
SOLID
  5
61A
  8
0
  6
CONTINUOUS
 10
444.47817538026089
 20
144.9434082744709
 30
0.0
 11
439.72289279878521
 21
144.9434082744709
 31
0.0
 12
439.60053408952308
 22
144.1708657885336
 32
0.0
 13
439.60053408952308
 23
144.1708657885336
 33
0.0
210
0.0
220
0.0
230
-1.0
  0
SOLID
  5
61B
  8
0
  6
CONTINUOUS
 10
-444.60053408952302
 20
144.1708657885336
 30
0.0
 11
-444.47817538026089
 21
143.3983233025962
 31
0.0
 12
-439.72289279878521
 22
143.3983233025962
 32
0.0
 13
-439.72289279878521
 23
143.3983233025962
 33
0.0
210
0.0
220
0.0
230
1.0
  0
SOLID
  5
61C
  8
0
  6
CONTINUOUS
 10
444.60053408952302
 20
144.1708657885336
 30
0.0
 11
439.60053408952308
 21
144.1708657885336
 31
0.0
 12
439.72289279878521
 22
143.3983233025962
 32
0.0
 13
439.72289279878521
 23
143.3983233025962
 33
0.0
210
0.0
220
0.0
230
-1.0
  0
SOLID
  5
61D
  8
0
  6
CONTINUOUS
 10
-444.47817538026089
 20
143.3983233025962
 30
0.0
 11
-444.1230765754604
 21
142.70140265780239
 31
0.0
 12
-440.0779916035857
 22
142.70140265780239
 32
0.0
 13
-440.0779916035857
 23
142.70140265780239
 33
0.0
210
0.0
220
0.0
230
1.0
  0
SOLID
  5
61E
  8
0
  6
CONTINUOUS
 10
444.47817538026089
 20
143.3983233025962
 30
0.0
 11
439.72289279878521
 21
143.3983233025962
 31
0.0
 12
440.0779916035857
 22
142.70140265780239
 32
0.0
 13
440.0779916035857
 23
142.70140265780239
 33
0.0
210
0.0
220
0.0
230
-1.0
  0
SOLID
  5
61F
  8
0
  6
CONTINUOUS
 10
-444.1230765754604
 20
142.70140265780239
 30
0.0
 11
-443.56999722025421
 21
142.14832330259631
 31
0.0
 12
-440.63107095879201
 22
142.14832330259631
 32
0.0
 13
-440.63107095879201
 23
142.14832330259631
 33
0.0
210
0.0
220
0.0
230
1.0
  0
SOLID
  5
620
  8
0
  6
CONTINUOUS
 10
444.1230765754604
 20
142.70140265780239
 30
0.0
 11
440.0779916035857
 21
142.70140265780239
 31
0.0
 12
440.63107095879201
 22
142.14832330259631
 32
0.0
 13
440.63107095879201
 23
142.14832330259631
 33
0.0
210
0.0
220
0.0
230
-1.0
  0
SOLID
  5
621
  8
0
  6
CONTINUOUS
 10
442.87307657546052
 20
141.79322449779571
 30
0.0
 11
441.32799160358582
 21
141.79322449779571
 31
0.0
 12
442.10053408952308
 22
141.6708657885336
 32
0.0
 13
442.10053408952308
 23
141.6708657885336
 33
0.0
210
0.0
220
0.0
230
-1.0
  0
SOLID
  5
622
  8
0
  6
CONTINUOUS
 10
-443.56999722025421
 20
142.14832330259631
 30
0.0
 11
-442.87307657546052
 21
141.79322449779571
 31
0.0
 12
-441.32799160358582
 22
141.79322449779571
 32
0.0
 13
-441.32799160358582
 23
141.79322449779571
 33
0.0
  0
SOLID
  5
623
  8
0
  6
CONTINUOUS
 10
443.56999722025421
 20
142.14832330259631
 30
0.0
 11
440.63107095879201
 21
142.14832330259631
 31
0.0
 12
441.32799160358582
 22
141.79322449779571
 32
0.0
 13
441.32799160358582
 23
141.79322449779571
 33
0.0
210
0.0
220
0.0
230
-1.0
  0
LINE
  5
624
  8
0
  6
CONTINUOUS
 10
-442.10053408952308
 20
146.67086578853349
 30
0.0
 11
-442.87307657546052
 21
146.54850707927139
 31
0.0
  0
LINE
  5
625
  8
0
  6
CONTINUOUS
 10
-441.32799160358582
 20
146.54850707927139
 30
0.0
 11
-442.10053408952308
 21
146.67086578853349
 31
0.0
  0
LINE
  5
626
  8
0
  6
CONTINUOUS
 10
-442.87307657546052
 20
146.54850707927139
 30
0.0
 11
-443.56999722025421
 21
146.1934082744709
 31
0.0
  0
LINE
  5
627
  8
0
  6
CONTINUOUS
 10
-441.32799160358582
 20
146.54850707927139
 30
0.0
 11
-440.63107095879201
 21
146.1934082744709
 31
0.0
  0
LINE
  5
628
  8
0
  6
CONTINUOUS
 10
-443.56999722025421
 20
146.1934082744709
 30
0.0
 11
-444.1230765754604
 21
145.6403289192647
 31
0.0
  0
LINE
  5
629
  8
0
  6
CONTINUOUS
 10
-440.63107095879201
 20
146.1934082744709
 30
0.0
 11
-440.0779916035857
 21
145.6403289192647
 31
0.0
  0
LINE
  5
62A
  8
0
  6
CONTINUOUS
 10
-444.1230765754604
 20
145.6403289192647
 30
0.0
 11
-444.47817538026089
 21
144.9434082744709
 31
0.0
  0
LINE
  5
62B
  8
0
  6
CONTINUOUS
 10
-440.0779916035857
 20
145.6403289192647
 30
0.0
 11
-439.72289279878521
 21
144.9434082744709
 31
0.0
  0
LINE
  5
62C
  8
0
  6
CONTINUOUS
 10
-444.47817538026089
 20
144.9434082744709
 30
0.0
 11
-444.60053408952302
 21
144.1708657885336
 31
0.0
  0
LINE
  5
62D
  8
0
  6
CONTINUOUS
 10
-439.72289279878521
 20
144.9434082744709
 30
0.0
 11
-439.60053408952308
 21
144.1708657885336
 31
0.0
  0
LINE
  5
62E
  8
0
  6
CONTINUOUS
 10
-444.60053408952302
 20
144.1708657885336
 30
0.0
 11
-444.47817538026089
 21
143.3983233025962
 31
0.0
  0
LINE
  5
62F
  8
0
  6
CONTINUOUS
 10
-439.60053408952308
 20
144.1708657885336
 30
0.0
 11
-439.72289279878521
 21
143.3983233025962
 31
0.0
  0
LINE
  5
630
  8
0
  6
CONTINUOUS
 10
-444.47817538026089
 20
143.3983233025962
 30
0.0
 11
-444.1230765754604
 21
142.70140265780239
 31
0.0
  0
LINE
  5
631
  8
0
  6
CONTINUOUS
 10
-439.72289279878521
 20
143.3983233025962
 30
0.0
 11
-440.0779916035857
 21
142.70140265780239
 31
0.0
  0
LINE
  5
632
  8
0
  6
CONTINUOUS
 10
-444.1230765754604
 20
142.70140265780239
 30
0.0
 11
-443.56999722025421
 21
142.14832330259631
 31
0.0
  0
LINE
  5
633
  8
0
  6
CONTINUOUS
 10
-440.0779916035857
 20
142.70140265780239
 30
0.0
 11
-440.63107095879201
 21
142.14832330259631
 31
0.0
  0
LINE
  5
634
  8
0
  6
CONTINUOUS
 10
-441.32799160358582
 20
141.79322449779571
 30
0.0
 11
-442.10053408952308
 21
141.6708657885336
 31
0.0
  0
LINE
  5
635
  8
0
  6
CONTINUOUS
 10
-442.10053408952308
 20
141.6708657885336
 30
0.0
 11
-442.87307657546052
 21
141.79322449779571
 31
0.0
  0
LINE
  5
636
  8
0
  6
CONTINUOUS
 10
-443.56999722025421
 20
142.14832330259631
 30
0.0
 11
-442.87307657546052
 21
141.79322449779571
 31
0.0
  0
LINE
  5
637
  8
0
  6
CONTINUOUS
 10
-440.63107095879201
 20
142.14832330259631
 30
0.0
 11
-441.32799160358582
 21
141.79322449779571
 31
0.0
  0
ENDBLK
  5
639
  8
0
  0
BLOCK
  8
0
  2
*U40
 70
     1
 10
0.0
 20
0.0
 30
0.0
  3
*U40
  1

  0
TEXT
  5
63B
  8
0
 10
-732.19745627950454
 20
344.23109917209609
 30
0.0
 40
12.2941616766467
  1
2x2 Batten flush with Fascia
  7
ARIAL
  0
ENDBLK
  5
63D
  8
0
  0
BLOCK
  8
0
  2
*U41
 70
     1
 10
0.0
 20
0.0
 30
0.0
  3
*U41
  1

  0
SOLID
  5
63F
  8
0
  6
CONTINUOUS
 10
-473.39233209852102
 20
133.9663663716845
 30
0.0
 11
-474.1648745844584
 21
133.8440076624224
 31
0.0
 12
-472.6197896125837
 22
133.8440076624224
 32
0.0
 13
-472.6197896125837
 23
133.8440076624224
 33
0.0
  0
SOLID
  5
640
  8
0
  6
CONTINUOUS
 10
-474.1648745844584
 20
133.8440076624224
 30
0.0
 11
-474.86179522925221
 21
133.48890885762191
 31
0.0
 12
-471.92286896778978
 22
133.48890885762191
 32
0.0
 13
-471.92286896778978
 23
133.48890885762191
 33
0.0
210
0.0
220
0.0
230
1.0
  0
SOLID
  5
641
  8
0
  6
CONTINUOUS
 10
474.1648745844584
 20
133.8440076624224
 30
0.0
 11
472.6197896125837
 21
133.8440076624224
 31
0.0
 12
471.92286896778978
 22
133.48890885762191
 32
0.0
 13
471.92286896778978
 23
133.48890885762191
 33
0.0
210
0.0
220
0.0
230
-1.0
  0
SOLID
  5
642
  8
0
  6
CONTINUOUS
 10
-474.86179522925221
 20
133.48890885762191
 30
0.0
 11
-475.41487458445852
 21
132.93582950241569
 31
0.0
 12
-471.3697896125837
 22
132.93582950241569
 32
0.0
 13
-471.3697896125837
 23
132.93582950241569
 33
0.0
210
0.0
220
0.0
230
1.0
  0
SOLID
  5
643
  8
0
  6
CONTINUOUS
 10
474.86179522925221
 20
133.48890885762191
 30
0.0
 11
471.92286896778978
 21
133.48890885762191
 31
0.0
 12
471.3697896125837
 22
132.93582950241569
 32
0.0
 13
471.3697896125837
 23
132.93582950241569
 33
0.0
210
0.0
220
0.0
230
-1.0
  0
SOLID
  5
644
  8
0
  6
CONTINUOUS
 10
-475.41487458445852
 20
132.93582950241569
 30
0.0
 11
-475.76997338925889
 21
132.23890885762191
 31
0.0
 12
-471.01469080778321
 22
132.23890885762191
 32
0.0
 13
-471.01469080778321
 23
132.23890885762191
 33
0.0
210
0.0
220
0.0
230
1.0
  0
SOLID
  5
645
  8
0
  6
CONTINUOUS
 10
475.41487458445852
 20
132.93582950241569
 30
0.0
 11
471.3697896125837
 21
132.93582950241569
 31
0.0
 12
471.01469080778321
 22
132.23890885762191
 32
0.0
 13
471.01469080778321
 23
132.23890885762191
 33
0.0
210
0.0
220
0.0
230
-1.0
  0
SOLID
  5
646
  8
0
  6
CONTINUOUS
 10
-475.76997338925889
 20
132.23890885762191
 30
0.0
 11
-475.89233209852108
 21
131.4663663716845
 31
0.0
 12
-470.89233209852108
 22
131.4663663716845
 32
0.0
 13
-470.89233209852108
 23
131.4663663716845
 33
0.0
210
0.0
220
0.0
230
1.0
  0
SOLID
  5
647
  8
0
  6
CONTINUOUS
 10
475.76997338925889
 20
132.23890885762191
 30
0.0
 11
471.01469080778321
 21
132.23890885762191
 31
0.0
 12
470.89233209852108
 22
131.4663663716845
 32
0.0
 13
470.89233209852108
 23
131.4663663716845
 33
0.0
210
0.0
220
0.0
230
-1.0
  0
SOLID
  5
648
  8
0
  6
CONTINUOUS
 10
-475.89233209852108
 20
131.4663663716845
 30
0.0
 11
-475.76997338925889
 21
130.69382388574709
 31
0.0
 12
-471.01469080778321
 22
130.69382388574709
 32
0.0
 13
-471.01469080778321
 23
130.69382388574709
 33
0.0
210
0.0
220
0.0
230
1.0
  0
SOLID
  5
649
  8
0
  6
CONTINUOUS
 10
475.89233209852108
 20
131.4663663716845
 30
0.0
 11
470.89233209852108
 21
131.4663663716845
 31
0.0
 12
471.01469080778321
 22
130.69382388574709
 32
0.0
 13
471.01469080778321
 23
130.69382388574709
 33
0.0
210
0.0
220
0.0
230
-1.0
  0
SOLID
  5
64A
  8
0
  6
CONTINUOUS
 10
-475.76997338925889
 20
130.69382388574709
 30
0.0
 11
-475.41487458445852
 21
129.99690324095329
 31
0.0
 12
-471.3697896125837
 22
129.99690324095329
 32
0.0
 13
-471.3697896125837
 23
129.99690324095329
 33
0.0
210
0.0
220
0.0
230
1.0
  0
SOLID
  5
64B
  8
0
  6
CONTINUOUS
 10
475.76997338925889
 20
130.69382388574709
 30
0.0
 11
471.01469080778321
 21
130.69382388574709
 31
0.0
 12
471.3697896125837
 22
129.99690324095329
 32
0.0
 13
471.3697896125837
 23
129.99690324095329
 33
0.0
210
0.0
220
0.0
230
-1.0
  0
SOLID
  5
64C
  8
0
  6
CONTINUOUS
 10
-475.41487458445852
 20
129.99690324095329
 30
0.0
 11
-474.86179522925221
 21
129.44382388574721
 31
0.0
 12
-471.92286896778978
 22
129.44382388574721
 32
0.0
 13
-471.92286896778978
 23
129.44382388574721
 33
0.0
210
0.0
220
0.0
230
1.0
  0
SOLID
  5
64D
  8
0
  6
CONTINUOUS
 10
475.41487458445852
 20
129.99690324095329
 30
0.0
 11
471.3697896125837
 21
129.99690324095329
 31
0.0
 12
471.92286896778978
 22
129.44382388574721
 32
0.0
 13
471.92286896778978
 23
129.44382388574721
 33
0.0
210
0.0
220
0.0
230
-1.0
  0
SOLID
  5
64E
  8
0
  6
CONTINUOUS
 10
474.1648745844584
 20
129.08872508094669
 30
0.0
 11
472.6197896125837
 21
129.08872508094669
 31
0.0
 12
473.39233209852102
 22
128.9663663716845
 32
0.0
 13
473.39233209852102
 23
128.9663663716845
 33
0.0
210
0.0
220
0.0
230
-1.0
  0
SOLID
  5
64F
  8
0
  6
CONTINUOUS
 10
-474.86179522925221
 20
129.44382388574721
 30
0.0
 11
-474.1648745844584
 21
129.08872508094669
 31
0.0
 12
-472.6197896125837
 22
129.08872508094669
 32
0.0
 13
-472.6197896125837
 23
129.08872508094669
 33
0.0
210
0.0
220
0.0
230
1.0
  0
SOLID
  5
650
  8
0
  6
CONTINUOUS
 10
474.86179522925221
 20
129.44382388574721
 30
0.0
 11
471.92286896778978
 21
129.44382388574721
 31
0.0
 12
472.6197896125837
 22
129.08872508094669
 32
0.0
 13
472.6197896125837
 23
129.08872508094669
 33
0.0
210
0.0
220
0.0
230
-1.0
  0
LINE
  5
651
  8
0
  6
CONTINUOUS
 10
-473.39233209852102
 20
133.9663663716845
 30
0.0
 11
-474.1648745844584
 21
133.8440076624224
 31
0.0
  0
LINE
  5
652
  8
0
  6
CONTINUOUS
 10
-472.6197896125837
 20
133.8440076624224
 30
0.0
 11
-473.39233209852102
 21
133.9663663716845
 31
0.0
  0
LINE
  5
653
  8
0
  6
CONTINUOUS
 10
-474.1648745844584
 20
133.8440076624224
 30
0.0
 11
-474.86179522925221
 21
133.48890885762191
 31
0.0
  0
LINE
  5
654
  8
0
  6
CONTINUOUS
 10
-472.6197896125837
 20
133.8440076624224
 30
0.0
 11
-471.92286896778978
 21
133.48890885762191
 31
0.0
  0
LINE
  5
655
  8
0
  6
CONTINUOUS
 10
-474.86179522925221
 20
133.48890885762191
 30
0.0
 11
-475.41487458445852
 21
132.93582950241569
 31
0.0
  0
LINE
  5
656
  8
0
  6
CONTINUOUS
 10
-471.92286896778978
 20
133.48890885762191
 30
0.0
 11
-471.3697896125837
 21
132.93582950241569
 31
0.0
  0
LINE
  5
657
  8
0
  6
CONTINUOUS
 10
-475.41487458445852
 20
132.93582950241569
 30
0.0
 11
-475.76997338925889
 21
132.23890885762191
 31
0.0
  0
LINE
  5
658
  8
0
  6
CONTINUOUS
 10
-471.3697896125837
 20
132.93582950241569
 30
0.0
 11
-471.01469080778321
 21
132.23890885762191
 31
0.0
  0
LINE
  5
659
  8
0
  6
CONTINUOUS
 10
-475.76997338925889
 20
132.23890885762191
 30
0.0
 11
-475.89233209852108
 21
131.4663663716845
 31
0.0
  0
LINE
  5
65A
  8
0
  6
CONTINUOUS
 10
-471.01469080778321
 20
132.23890885762191
 30
0.0
 11
-470.89233209852108
 21
131.4663663716845
 31
0.0
  0
LINE
  5
65B
  8
0
  6
CONTINUOUS
 10
-475.89233209852108
 20
131.4663663716845
 30
0.0
 11
-475.76997338925889
 21
130.69382388574709
 31
0.0
  0
LINE
  5
65C
  8
0
  6
CONTINUOUS
 10
-470.89233209852108
 20
131.4663663716845
 30
0.0
 11
-471.01469080778321
 21
130.69382388574709
 31
0.0
  0
LINE
  5
65D
  8
0
  6
CONTINUOUS
 10
-475.76997338925889
 20
130.69382388574709
 30
0.0
 11
-475.41487458445852
 21
129.99690324095329
 31
0.0
  0
LINE
  5
65E
  8
0
  6
CONTINUOUS
 10
-471.01469080778321
 20
130.69382388574709
 30
0.0
 11
-471.3697896125837
 21
129.99690324095329
 31
0.0
  0
LINE
  5
65F
  8
0
  6
CONTINUOUS
 10
-475.41487458445852
 20
129.99690324095329
 30
0.0
 11
-474.86179522925221
 21
129.44382388574721
 31
0.0
  0
LINE
  5
660
  8
0
  6
CONTINUOUS
 10
-471.3697896125837
 20
129.99690324095329
 30
0.0
 11
-471.92286896778978
 21
129.44382388574721
 31
0.0
  0
LINE
  5
661
  8
0
  6
CONTINUOUS
 10
-472.6197896125837
 20
129.08872508094669
 30
0.0
 11
-473.39233209852102
 21
128.9663663716845
 31
0.0
  0
LINE
  5
662
  8
0
  6
CONTINUOUS
 10
-473.39233209852102
 20
128.9663663716845
 30
0.0
 11
-474.1648745844584
 21
129.08872508094669
 31
0.0
  0
LINE
  5
663
  8
0
  6
CONTINUOUS
 10
-474.86179522925221
 20
129.44382388574721
 30
0.0
 11
-474.1648745844584
 21
129.08872508094669
 31
0.0
  0
LINE
  5
664
  8
0
  6
CONTINUOUS
 10
-471.92286896778978
 20
129.44382388574721
 30
0.0
 11
-472.6197896125837
 21
129.08872508094669
 31
0.0
  0
ENDBLK
  5
666
  8
0
  0
BLOCK
  8
0
  2
*U42
 70
     1
 10
0.0
 20
0.0
 30
0.0
  3
*U42
  1

  0
TEXT
  5
668
  8
0
 10
-722.60316532526019
 20
125.7932894486076
 30
0.0
 40
12.2941616766467
  1
Fascia flashing
  7
ARIAL
  0
ENDBLK
  5
66A
  8
0
  0
BLOCK
  8
0
  2
*U43
 70
     1
 10
0.0
 20
0.0
 30
0.0
  3
*U43
  1

  0
SOLID
  5
676
  8
0
  6
CONTINUOUS
 10
-473.55000000000172
 20
165.1461465067417
 30
0.0
 11
-473.55000000000189
 21
147.9633376874244
 31
0.0
 12
-471.55000000000189
 22
147.9633376874244
 32
0.0
 13
-471.55000000000189
 23
147.9633376874244
 33
0.0
210
0.0
220
0.0
230
1.0
  0
SOLID
  5
677
  8
0
  6
CONTINUOUS
 10
473.55000000000172
 20
165.1461465067417
 30
0.0
 11
471.55000000000177
 21
165.1461465067417
 31
0.0
 12
471.55000000000189
 22
147.9633376874244
 32
0.0
 13
471.55000000000189
 23
147.9633376874244
 33
0.0
210
0.0
220
0.0
230
-1.0
  0
SOLID
  5
678
  8
0
  6
CONTINUOUS
 10
-473.55000000000177
 20
146.9633376874244
 30
0.0
 11
-473.55000000000223
 21
83.163337687424132
 31
0.0
 12
-471.55000000000211
 22
83.163337687424132
 32
0.0
 13
-471.55000000000211
 23
83.163337687424132
 33
0.0
210
0.0
220
0.0
230
1.0
  0
SOLID
  5
679
  8
0
  6
CONTINUOUS
 10
473.55000000000177
 20
146.9633376874244
 30
0.0
 11
471.55000000000189
 21
146.9633376874244
 31
0.0
 12
471.55000000000211
 22
83.163337687424132
 32
0.0
 13
471.55000000000211
 23
83.163337687424132
 33
0.0
210
0.0
220
0.0
230
-1.0
  0
SOLID
  5
67A
  8
0
  6
CONTINUOUS
 10
-473.55000000000223
 20
82.163337687424232
 30
0.0
 11
-473.5500000000024
 21
55.012891851198411
 31
0.0
 12
-471.5500000000024
 22
55.012891851198411
 32
0.0
 13
-471.5500000000024
 23
55.012891851198411
 33
0.0
210
0.0
220
0.0
230
1.0
  0
SOLID
  5
67B
  8
0
  6
CONTINUOUS
 10
473.55000000000223
 20
82.163337687424232
 30
0.0
 11
471.55000000000211
 21
82.163337687424232
 31
0.0
 12
471.5500000000024
 22
55.012891851198411
 32
0.0
 13
471.5500000000024
 23
55.012891851198411
 33
0.0
210
0.0
220
0.0
230
-1.0
  0
SOLID
  5
67C
  8
0
  6
CONTINUOUS
 10
-473.5500000000024
 20
55.012891851198411
 30
0.0
 11
-473.55000000000251
 21
45.146146506741559
 31
0.0
 12
-471.55000000000251
 22
45.146146506741559
 32
0.0
 13
-471.55000000000251
 23
45.146146506741559
 33
0.0
210
0.0
220
0.0
230
1.0
  0
SOLID
  5
67D
  8
0
  6
CONTINUOUS
 10
473.5500000000024
 20
55.012891851198411
 30
0.0
 11
471.5500000000024
 21
55.012891851198411
 31
0.0
 12
471.55000000000251
 22
45.146146506741559
 32
0.0
 13
471.55000000000251
 23
45.146146506741559
 33
0.0
210
0.0
220
0.0
230
-1.0
  0
LINE
  5
67E
  8
0
  6
CONTINUOUS
 10
-473.55000000000172
 20
165.1461465067417
 30
0.0
 11
-473.55000000000189
 21
147.9633376874244
 31
0.0
  0
LINE
  5
67F
  8
0
  6
CONTINUOUS
 10
-471.55000000000177
 20
165.1461465067417
 30
0.0
 11
-471.55000000000189
 21
147.9633376874244
 31
0.0
  0
LINE
  5
680
  8
0
  6
CONTINUOUS
 10
-473.55000000000177
 20
146.9633376874244
 30
0.0
 11
-473.55000000000223
 21
83.163337687424132
 31
0.0
  0
LINE
  5
681
  8
0
  6
CONTINUOUS
 10
-471.55000000000189
 20
146.9633376874244
 30
0.0
 11
-471.55000000000211
 21
83.163337687424132
 31
0.0
  0
LINE
  5
682
  8
0
  6
CONTINUOUS
 10
-473.55000000000223
 20
82.163337687424232
 30
0.0
 11
-473.5500000000024
 21
55.012891851198411
 31
0.0
  0
LINE
  5
683
  8
0
  6
CONTINUOUS
 10
-471.55000000000211
 20
82.163337687424232
 30
0.0
 11
-471.5500000000024
 21
55.012891851198411
 31
0.0
  0
LINE
  5
684
  8
0
  6
CONTINUOUS
 10
-473.5500000000024
 20
55.012891851198411
 30
0.0
 11
-473.55000000000251
 21
45.146146506741559
 31
0.0
  0
LINE
  5
685
  8
0
  6
CONTINUOUS
 10
-471.5500000000024
 20
55.012891851198411
 30
0.0
 11
-471.55000000000251
 21
45.146146506741559
 31
0.0
  0
ENDBLK
  5
687
  8
0
  0
BLOCK
  8
0
  2
*U44
 70
     1
 10
0.0
 20
0.0
 30
0.0
  3
*U44
  1

  0
SOLID
  5
689
  8
0
  6
CONTINUOUS
 10
-577.46130677724057
 20
110.8114641914289
 30
0.0
 11
-590.69149628925175
 21
110.7648641205929
 31
0.0
 12
-577.10734409753411
 22
110.7648641205929
 32
0.0
 13
-577.10734409753411
 23
110.7648641205929
 33
0.0
210
0.0
220
0.0
230
1.0
  0
SOLID
  5
68A
  8
0
  6
CONTINUOUS
 10
-590.69149628925175
 20
110.7648641205929
 30
0.0
 11
-590.72753385466149
 21
110.7518343874348
 31
0.0
 12
-577.00837344831132
 22
110.7518343874348
 32
0.0
 13
-577.00837344831132
 23
110.7518343874348
 33
0.0
210
0.0
220
0.0
230
1.0
  0
SOLID
  5
68B
  8
0
  6
CONTINUOUS
 10
590.69149628925175
 20
110.7648641205929
 30
0.0
 11
577.10734409753411
 21
110.7648641205929
 31
0.0
 12
577.00837344831132
 22
110.7518343874348
 32
0.0
 13
577.00837344831132
 23
110.7518343874348
 33
0.0
210
0.0
220
0.0
230
-1.0
  0
SOLID
  5
68C
  8
0
  6
CONTINUOUS
 10
-590.72753385466149
 20
110.7518343874348
 30
0.0
 11
-591.07129083749078
 21
110.6275456984918
 31
0.0
 12
-576.70831400981524
 22
110.6275456984918
 32
0.0
 13
-576.70831400981524
 23
110.6275456984918
 33
0.0
210
0.0
220
0.0
230
1.0
  0
SOLID
  5
68D
  8
0
  6
CONTINUOUS
 10
590.72753385466149
 20
110.7518343874348
 30
0.0
 11
577.00837344831132
 21
110.7518343874348
 31
0.0
 12
576.70831400981524
 22
110.6275456984918
 32
0.0
 13
576.70831400981524
 23
110.6275456984918
 33
0.0
210
0.0
220
0.0
230
-1.0
  0
SOLID
  5
68E
  8
0
  6
CONTINUOUS
 10
-591.07129083749078
 20
110.6275456984918
 30
0.0
 11
-591.14872610085331
 21
110.5770086480518
 31
0.0
 12
-576.58630677724057
 22
110.5770086480518
 32
0.0
 13
-576.58630677724057
 23
110.5770086480518
 33
0.0
210
0.0
220
0.0
230
1.0
  0
SOLID
  5
68F
  8
0
  6
CONTINUOUS
 10
591.07129083749078
 20
110.6275456984918
 30
0.0
 11
576.70831400981524
 21
110.6275456984918
 31
0.0
 12
576.58630677724057
 22
110.5770086480518
 32
0.0
 13
576.58630677724057
 23
110.5770086480518
 33
0.0
210
0.0
220
0.0
230
-1.0
  0
SOLID
  5
690
  8
0
  6
CONTINUOUS
 10
-591.14872610085331
 20
110.5770086480518
 30
0.0
 11
-591.40949395866255
 21
110.40682212306309
 31
0.0
 12
-576.36451537975984
 22
110.40682212306309
 32
0.0
 13
-576.36451537975984
 23
110.40682212306309
 33
0.0
210
0.0
220
0.0
230
1.0
  0
SOLID
  5
691
  8
0
  6
CONTINUOUS
 10
591.14872610085331
 20
110.5770086480518
 30
0.0
 11
576.58630677724057
 21
110.5770086480518
 31
0.0
 12
576.36451537975984
 22
110.40682212306309
 32
0.0
 13
576.36451537975984
 23
110.40682212306309
 33
0.0
210
0.0
220
0.0
230
-1.0
  0
SOLID
  5
692
  8
0
  6
CONTINUOUS
 10
-591.40949395866255
 20
110.40682212306309
 30
0.0
 11
-591.51233088082995
 21
110.29890105850539
 31
0.0
 12
-576.22386991016424
 22
110.29890105850539
 32
0.0
 13
-576.22386991016424
 23
110.29890105850539
 33
0.0
210
0.0
220
0.0
230
1.0
  0
SOLID
  5
693
  8
0
  6
CONTINUOUS
 10
591.40949395866255
 20
110.40682212306309
 30
0.0
 11
576.36451537975984
 21
110.40682212306309
 31
0.0
 12
576.22386991016424
 22
110.29890105850539
 32
0.0
 13
576.22386991016424
 23
110.29890105850539
 33
0.0
210
0.0
220
0.0
230
-1.0
  0
SOLID
  5
694
  8
0
  6
CONTINUOUS
 10
-591.51233088082995
 20
110.29890105850539
 30
0.0
 11
-591.68809389344983
 21
110.114448519164
 31
0.0
 12
-576.08233449872625
 22
110.114448519164
 32
0.0
 13
-576.08233449872625
 23
110.114448519164
 33
0.0
  0
SOLID
  5
695
  8
0
  6
CONTINUOUS
 10
591.51233088082995
 20
110.29890105850539
 30
0.0
 11
576.22386991016424
 21
110.29890105850539
 31
0.0
 12
576.08233449872625
 22
110.114448519164
 32
0.0
 13
576.08233449872625
 23
110.114448519164
 33
0.0
210
0.0
220
0.0
230
-1.0
  0
SOLID
  5
696
  8
0
  6
CONTINUOUS
 10
-591.68809389344983
 20
110.114448519164
 30
0.0
 11
-591.79237536863116
 21
109.936464191429
 31
0.0
 12
-575.94576232061797
 22
109.936464191429
 32
0.0
 13
-575.94576232061797
 23
109.936464191429
 33
0.0
  0
SOLID
  5
697
  8
0
  6
CONTINUOUS
 10
591.68809389344983
 20
110.114448519164
 30
0.0
 11
576.08233449872625
 21
110.114448519164
 31
0.0
 12
575.94576232061797
 22
109.936464191429
 32
0.0
 13
575.94576232061797
 23
109.936464191429
 33
0.0
210
0.0
220
0.0
230
-1.0
  0
SOLID
  5
698
  8
0
  6
CONTINUOUS
 10
-591.79237536863116
 20
109.936464191429
 30
0.0
 11
-591.86561318998065
 21
109.8114641914289
 31
0.0
 12
-575.89398562532131
 22
109.8114641914289
 32
0.0
 13
-575.89398562532131
 23
109.8114641914289
 33
0.0
210
0.0
220
0.0
230
1.0
  0
SOLID
  5
699
  8
0
  6
CONTINUOUS
 10
591.79237536863116
 20
109.936464191429
 30
0.0
 11
575.94576232061797
 21
109.936464191429
 31
0.0
 12
575.89398562532131
 22
109.8114641914289
 32
0.0
 13
575.89398562532131
 23
109.8114641914289
 33
0.0
210
0.0
220
0.0
230
-1.0
  0
SOLID
  5
69A
  8
0
  6
CONTINUOUS
 10
-590.29033711720319
 20
109.8114641914289
 30
0.0
 11
-580.11288521626875
 21
109.7914927324981
 31
0.0
 12
-575.88571317617175
 22
109.7914927324981
 32
0.0
 13
-575.88571317617175
 23
109.7914927324981
 33
0.0
210
0.0
220
0.0
230
1.0
  0
SOLID
  5
69B
  8
0
  6
CONTINUOUS
 10
590.29033711720319
 20
109.8114641914289
 30
0.0
 11
575.89398562532131
 21
109.8114641914289
 31
0.0
 12
575.88571317617175
 22
109.7914927324981
 32
0.0
 13
575.88571317617175
 23
109.7914927324981
 33
0.0
210
0.0
220
0.0
230
-1.0
  0
SOLID
  5
69C
  8
0
  6
CONTINUOUS
 10
-591.86561318998065
 20
109.8114641914289
 30
0.0
 11
-591.87731451911066
 21
109.7914927324981
 31
0.0
 12
-590.46226247665288
 22
109.7914927324981
 32
0.0
 13
-590.46226247665288
 23
109.7914927324981
 33
0.0
  0
SOLID
  5
69D
  8
0
  6
CONTINUOUS
 10
591.86561318998065
 20
109.8114641914289
 30
0.0
 11
590.29033711720319
 21
109.8114641914289
 31
0.0
 12
590.46226247665288
 22
109.7914927324981
 32
0.0
 13
590.46226247665288
 23
109.7914927324981
 33
0.0
210
0.0
220
0.0
230
-1.0
  0
SOLID
  5
69E
  8
0
  6
CONTINUOUS
 10
-580.11288521626875
 20
109.7914927324981
 30
0.0
 11
-577.26719249341375
 21
109.7859085611458
 31
0.0
 12
-575.88340013666289
 22
109.7859085611458
 32
0.0
 13
-575.88340013666289
 23
109.7859085611458
 33
0.0
210
0.0
220
0.0
230
1.0
  0
SOLID
  5
69F
  8
0
  6
CONTINUOUS
 10
580.11288521626875
 20
109.7914927324981
 30
0.0
 11
575.88571317617175
 21
109.7914927324981
 31
0.0
 12
575.88340013666289
 22
109.7859085611458
 32
0.0
 13
575.88340013666289
 23
109.7859085611458
 33
0.0
210
0.0
220
0.0
230
-1.0
  0
SOLID
  5
6A0
  8
0
  6
CONTINUOUS
 10
-591.87731451911066
 20
109.7914927324981
 30
0.0
 11
-591.89225318277136
 21
109.7659958932532
 31
0.0
 12
-590.51339243146685
 22
109.7659958932532
 32
0.0
 13
-590.51339243146685
 23
109.7659958932532
 33
0.0
210
0.0
220
0.0
230
1.0
  0
SOLID
  5
6A1
  8
0
  6
CONTINUOUS
 10
591.87731451911066
 20
109.7914927324981
 30
0.0
 11
590.46226247665288
 21
109.7914927324981
 31
0.0
 12
590.51339243146685
 22
109.7659958932532
 32
0.0
 13
590.51339243146685
 23
109.7659958932532
 33
0.0
210
0.0
220
0.0
230
-1.0
  0
SOLID
  5
6A2
  8
0
  6
CONTINUOUS
 10
-591.89225318277136
 20
109.7659958932532
 30
0.0
 11
-591.92621246009219
 21
109.63804616212821
 31
0.0
 12
-590.76997576354358
 22
109.63804616212821
 32
0.0
 13
-590.76997576354358
 23
109.63804616212821
 33
0.0
210
0.0
220
0.0
230
1.0
  0
SOLID
  5
6A3
  8
0
  6
CONTINUOUS
 10
591.89225318277136
 20
109.7659958932532
 30
0.0
 11
590.51339243146685
 21
109.7659958932532
 31
0.0
 12
590.76997576354358
 22
109.63804616212821
 32
0.0
 13
590.76997576354358
 23
109.63804616212821
 33
0.0
210
0.0
220
0.0
230
-1.0
  0
SOLID
  5
6A4
  8
0
  6
CONTINUOUS
 10
-577.26719249341375
 20
109.7859085611458
 30
0.0
 11
-576.93097669135068
 21
109.5917942773189
 31
0.0
 12
-575.80299536765153
 22
109.5917942773189
 32
0.0
 13
-575.80299536765153
 23
109.5917942773189
 33
0.0
210
0.0
220
0.0
230
1.0
  0
SOLID
  5
6A5
  8
0
  6
CONTINUOUS
 10
577.26719249341375
 20
109.7859085611458
 30
0.0
 11
575.88340013666289
 21
109.7859085611458
 31
0.0
 12
575.80299536765153
 22
109.5917942773189
 32
0.0
 13
575.80299536765153
 23
109.5917942773189
 33
0.0
210
0.0
220
0.0
230
-1.0
  0
SOLID
  5
6A6
  8
0
  6
CONTINUOUS
 10
-576.93097669135068
 20
109.5917942773189
 30
0.0
 11
-576.88629165288523
 21
109.5143975203584
 31
0.0
 12
-575.77093658123465
 22
109.5143975203584
 32
0.0
 13
-575.77093658123465
 23
109.5143975203584
 33
0.0
  0
SOLID
  5
6A7
  8
0
  6
CONTINUOUS
 10
576.93097669135068
 20
109.5917942773189
 30
0.0
 11
575.80299536765153
 21
109.5917942773189
 31
0.0
 12
575.77093658123465
 22
109.5143975203584
 32
0.0
 13
575.77093658123465
 23
109.5143975203584
 33
0.0
210
0.0
220
0.0
230
-1.0
  0
SOLID
  5
6A8
  8
0
  6
CONTINUOUS
 10
-591.92621246009219
 20
109.63804616212821
 30
0.0
 11
-591.99910491155219
 21
109.3634063493521
 31
0.0
 12
-590.97687257387611
 22
109.3634063493521
 32
0.0
 13
-590.97687257387611
 23
109.3634063493521
 33
0.0
  0
SOLID
  5
6A9
  8
0
  6
CONTINUOUS
 10
591.92621246009219
 20
109.63804616212821
 30
0.0
 11
590.76997576354358
 21
109.63804616212821
 31
0.0
 12
590.97687257387611
 22
109.3634063493521
 32
0.0
 13
590.97687257387611
 23
109.3634063493521
 33
0.0
210
0.0
220
0.0
230
-1.0
  0
SOLID
  5
6AA
  8
0
  6
CONTINUOUS
 10
-576.88629165288523
 20
109.5143975203584
 30
0.0
 11
-576.73686240752374
 21
109.2555784752559
 31
0.0
 12
-575.73686240752386
 22
109.2555784752559
 32
0.0
 13
-575.73686240752386
 23
109.2555784752559
 33
0.0
210
0.0
220
0.0
230
1.0
  0
SOLID
  5
6AB
  8
0
  6
CONTINUOUS
 10
576.88629165288523
 20
109.5143975203584
 30
0.0
 11
575.77093658123465
 21
109.5143975203584
 31
0.0
 12
575.73686240752386
 22
109.2555784752559
 32
0.0
 13
575.73686240752386
 23
109.2555784752559
 33
0.0
210
0.0
220
0.0
230
-1.0
  0
SOLID
  5
6AC
  8
0
  6
CONTINUOUS
 10
-576.73686240752374
 20
109.2555784752559
 30
0.0
 11
-576.72636488287299
 21
109.17584185921621
 31
0.0
 12
-575.7263648828731
 22
109.17584185921621
 32
0.0
 13
-575.7263648828731
 23
109.17584185921621
 33
0.0
  0
SOLID
  5
6AD
  8
0
  6
CONTINUOUS
 10
576.73686240752374
 20
109.2555784752559
 30
0.0
 11
575.73686240752386
 21
109.2555784752559
 31
0.0
 12
575.7263648828731
 22
109.17584185921621
 32
0.0
 13
575.7263648828731
 23
109.17584185921621
 33
0.0
210
0.0
220
0.0
230
-1.0
  0
SOLID
  5
6AE
  8
0
  6
CONTINUOUS
 10
-591.99910491155219
 20
109.3634063493521
 30
0.0
 11
-592.04892390537816
 21
109.17570132828379
 31
0.0
 12
-591.01197580698624
 22
109.17570132828379
 32
0.0
 13
-591.01197580698624
 23
109.17570132828379
 33
0.0
210
0.0
220
0.0
230
1.0
  0
SOLID
  5
6AF
  8
0
  6
CONTINUOUS
 10
591.99910491155219
 20
109.3634063493521
 30
0.0
 11
590.97687257387611
 21
109.3634063493521
 31
0.0
 12
591.01197580698624
 22
109.17570132828379
 32
0.0
 13
591.01197580698624
 23
109.17570132828379
 33
0.0
210
0.0
220
0.0
230
-1.0
  0
SOLID
  5
6B0
  8
0
  6
CONTINUOUS
 10
-576.72636488287299
 20
109.17584185921621
 30
0.0
 11
-576.71130677724057
 21
109.061464191429
 31
0.0
 12
-575.72574425301991
 22
109.061464191429
 32
0.0
 13
-575.72574425301991
 23
109.061464191429
 33
0.0
  0
SOLID
  5
6B1
  8
0
  6
CONTINUOUS
 10
576.72636488287299
 20
109.17584185921621
 30
0.0
 11
575.7263648828731
 21
109.17584185921621
 31
0.0
 12
575.72574425301991
 22
109.061464191429
 32
0.0
 13
575.72574425301991
 23
109.061464191429
 33
0.0
210
0.0
220
0.0
230
-1.0
  0
SOLID
  5
6B2
  8
0
  6
CONTINUOUS
 10
-576.71130677724057
 20
109.061464191429
 30
0.0
 11
-576.71130677724057
 21
106.40074009030479
 31
0.0
 12
-575.71130677724057
 22
106.40074009030479
 32
0.0
 13
-575.71130677724057
 23
106.40074009030479
 33
0.0
210
0.0
220
0.0
230
1.0
  0
SOLID
  5
6B3
  8
0
  6
CONTINUOUS
 10
576.71130677724057
 20
109.061464191429
 30
0.0
 11
575.72574425301991
 21
109.061464191429
 31
0.0
 12
575.71130677724057
 22
106.40074009030479
 32
0.0
 13
575.71130677724057
 23
106.40074009030479
 33
0.0
210
0.0
220
0.0
230
-1.0
  0
SOLID
  5
6B4
  8
0
  6
CONTINUOUS
 10
-592.04892390537816
 20
109.17570132828379
 30
0.0
 11
-594.00700361319207
 21
98.598688275643852
 31
0.0
 12
-592.99001215722808
 22
98.598688275643852
 32
0.0
 13
-592.99001215722808
 23
98.598688275643852
 33
0.0
210
0.0
220
0.0
230
1.0
  0
SOLID
  5
6B5
  8
0
  6
CONTINUOUS
 10
592.04892390537816
 20
109.17570132828379
 30
0.0
 11
591.01197580698624
 21
109.17570132828379
 31
0.0
 12
592.99001215722808
 22
98.598688275643852
 32
0.0
 13
592.99001215722808
 23
98.598688275643852
 33
0.0
210
0.0
220
0.0
230
-1.0
  0
SOLID
  5
6B6
  8
0
  6
CONTINUOUS
 10
-594.00700361319207
 20
98.598688275643852
 30
0.0
 11
-594.04612532181716
 21
98.387363465362824
 31
0.0
 12
-593.01599294923449
 22
98.387363465362824
 32
0.0
 13
-593.01599294923449
 23
98.387363465362824
 33
0.0
  0
SOLID
  5
6B7
  8
0
  6
CONTINUOUS
 10
594.00700361319207
 20
98.598688275643852
 30
0.0
 11
592.99001215722808
 21
98.598688275643852
 31
0.0
 12
593.01599294923449
 22
98.387363465362824
 32
0.0
 13
593.01599294923449
 23
98.387363465362824
 33
0.0
210
0.0
220
0.0
230
-1.0
  0
SOLID
  5
6B8
  8
0
  6
CONTINUOUS
 10
-594.04612532181716
 20
98.387363465362824
 30
0.0
 11
-594.08435155780194
 21
97.790229448232623
 31
0.0
 12
-593.08940607416935
 22
97.790229448232623
 32
0.0
 13
-593.08940607416935
 23
97.790229448232623
 33
0.0
210
0.0
220
0.0
230
1.0
  0
SOLID
  5
6B9
  8
0
  6
CONTINUOUS
 10
594.04612532181716
 20
98.387363465362824
 30
0.0
 11
593.01599294923449
 21
98.387363465362824
 31
0.0
 12
593.08940607416935
 22
97.790229448232623
 32
0.0
 13
593.08940607416935
 23
97.790229448232623
 33
0.0
210
0.0
220
0.0
230
-1.0
  0
SOLID
  5
6BA
  8
0
  6
CONTINUOUS
 10
-594.08435155780194
 20
97.790229448232623
 30
0.0
 11
-594.08788317976189
 21
97.735061798223512
 31
0.0
 12
-593.07969062408529
 22
97.735061798223512
 32
0.0
 13
-593.07969062408529
 23
97.735061798223512
 33
0.0
210
0.0
220
0.0
230
1.0
  0
SOLID
  5
6BB
  8
0
  6
CONTINUOUS
 10
594.08435155780194
 20
97.790229448232623
 30
0.0
 11
593.08940607416935
 21
97.790229448232623
 31
0.0
 12
593.07969062408529
 22
97.735061798223512
 32
0.0
 13
593.07969062408529
 23
97.735061798223512
 33
0.0
210
0.0
220
0.0
230
-1.0
  0
SOLID
  5
6BC
  8
0
  6
CONTINUOUS
 10
-594.08788317976189
 20
97.735061798223512
 30
0.0
 11
-594.025456645791
 21
97.380582577230641
 31
0.0
 12
-593.0172640901144
 22
97.380582577230641
 32
0.0
 13
-593.0172640901144
 23
97.380582577230641
 33
0.0
  0
SOLID
  5
6BD
  8
0
  6
CONTINUOUS
 10
594.08788317976189
 20
97.735061798223512
 30
0.0
 11
593.07969062408529
 21
97.735061798223512
 31
0.0
 12
593.0172640901144
 22
97.380582577230641
 32
0.0
 13
593.0172640901144
 23
97.380582577230641
 33
0.0
210
0.0
220
0.0
230
-1.0
  0
SOLID
  5
6BE
  8
0
  6
CONTINUOUS
 10
-594.025456645791
 20
97.380582577230641
 30
0.0
 11
-593.97451720481831
 21
97.091331000934815
 31
0.0
 12
-592.89066170266369
 22
97.091331000934815
 32
0.0
 13
-592.89066170266369
 23
97.091331000934815
 33
0.0
210
0.0
220
0.0
230
1.0
  0
SOLID
  5
6BF
  8
0
  6
CONTINUOUS
 10
594.025456645791
 20
97.380582577230641
 30
0.0
 11
593.0172640901144
 21
97.380582577230641
 31
0.0
 12
592.89066170266369
 22
97.091331000934815
 32
0.0
 13
592.89066170266369
 23
97.091331000934815
 33
0.0
210
0.0
220
0.0
230
-1.0
  0
SOLID
  5
6C0
  8
0
  6
CONTINUOUS
 10
-593.97451720481831
 20
97.091331000934815
 30
0.0
 11
-593.93433808171903
 21
96.999532774024047
 31
0.0
 12
-592.85048257956441
 22
96.999532774024047
 32
0.0
 13
-592.85048257956441
 23
96.999532774024047
 33
0.0
210
0.0
220
0.0
230
1.0
  0
SOLID
  5
6C1
  8
0
  6
CONTINUOUS
 10
593.97451720481831
 20
97.091331000934815
 30
0.0
 11
592.89066170266369
 21
97.091331000934815
 31
0.0
 12
592.85048257956441
 22
96.999532774024047
 32
0.0
 13
592.85048257956441
 23
96.999532774024047
 33
0.0
210
0.0
220
0.0
230
-1.0
  0
SOLID
  5
6C2
  8
0
  6
CONTINUOUS
 10
-593.93433808171903
 20
96.999532774024047
 30
0.0
 11
-593.78949548016044
 21
96.668607333680825
 31
0.0
 12
-592.59848381425218
 22
96.668607333680825
 32
0.0
 13
-592.59848381425218
 23
96.668607333680825
 33
0.0
210
0.0
220
0.0
230
1.0
  0
SOLID
  5
6C3
  8
0
  6
CONTINUOUS
 10
593.93433808171903
 20
96.999532774024047
 30
0.0
 11
592.85048257956441
 21
96.999532774024047
 31
0.0
 12
592.59848381425218
 22
96.668607333680825
 32
0.0
 13
592.59848381425218
 23
96.668607333680825
 33
0.0
210
0.0
220
0.0
230
-1.0
  0
SOLID
  5
6C4
  8
0
  6
CONTINUOUS
 10
-593.78949548016044
 20
96.668607333680825
 30
0.0
 11
-593.71243197395415
 21
96.492538453038875
 31
0.0
 12
-592.3236878588483
 22
96.492538453038875
 32
0.0
 13
-592.3236878588483
 23
96.492538453038875
 33
0.0
210
0.0
220
0.0
230
1.0
  0
SOLID
  5
6C5
  8
0
  6
CONTINUOUS
 10
593.78949548016044
 20
96.668607333680825
 30
0.0
 11
592.59848381425218
 21
96.668607333680825
 31
0.0
 12
592.3236878588483
 22
96.492538453038875
 32
0.0
 13
592.3236878588483
 23
96.492538453038875
 33
0.0
210
0.0
220
0.0
230
-1.0
  0
SOLID
  5
6C6
  8
0
  6
CONTINUOUS
 10
-593.71243197395415
 20
96.492538453038875
 30
0.0
 11
-593.31643391417788
 21
95.972512761071215
 31
0.0
 12
-591.51206824533244
 22
95.972512761071215
 32
0.0
 13
-591.51206824533244
 23
95.972512761071215
 33
0.0
210
0.0
220
0.0
230
1.0
  0
SOLID
  5
6C7
  8
0
  6
CONTINUOUS
 10
593.71243197395415
 20
96.492538453038875
 30
0.0
 11
592.3236878588483
 21
96.492538453038875
 31
0.0
 12
591.51206824533244
 22
95.972512761071215
 32
0.0
 13
591.51206824533244
 23
95.972512761071215
 33
0.0
210
0.0
220
0.0
230
-1.0
  0
SOLID
  5
6C8
  8
0
  6
CONTINUOUS
 10
-593.31643391417788
 20
95.972512761071215
 30
0.0
 11
-592.80889481785789
 21
95.560632621516618
 31
0.0
 12
-590.86923462221796
 22
95.560632621516618
 32
0.0
 13
-590.86923462221796
 23
95.560632621516618
 33
0.0
210
0.0
220
0.0
230
1.0
  0
SOLID
  5
6C9
  8
0
  6
CONTINUOUS
 10
593.31643391417788
 20
95.972512761071215
 30
0.0
 11
591.51206824533244
 21
95.972512761071215
 31
0.0
 12
590.86923462221796
 22
95.560632621516618
 32
0.0
 13
590.86923462221796
 23
95.560632621516618
 33
0.0
210
0.0
220
0.0
230
-1.0
  0
SOLID
  5
6CA
  8
0
  6
CONTINUOUS
 10
-462.30000000000177
 20
94.396774167516071
 30
0.0
 11
-462.8823428514828
 21
94.320107276666434
 31
0.0
 12
-461.71765714852091
 22
94.320107276666434
 32
0.0
 13
-461.71765714852091
 23
94.320107276666434
 33
0.0
210
0.0
220
0.0
230
1.0
  0
SOLID
  5
6CB
  8
0
  6
CONTINUOUS
 10
-462.8823428514828
 20
94.320107276666434
 30
0.0
 11
-463.42500000000229
 21
94.095331326030902
 31
0.0
 12
-461.17500000000138
 22
94.095331326030902
 32
0.0
 13
-461.17500000000138
 23
94.095331326030902
 33
0.0
210
0.0
220
0.0
230
1.0
  0
SOLID
  5
6CC
  8
0
  6
CONTINUOUS
 10
462.8823428514828
 20
94.320107276666434
 30
0.0
 11
461.71765714852091
 21
94.320107276666434
 31
0.0
 12
461.17500000000138
 22
94.095331326030902
 32
0.0
 13
461.17500000000138
 23
94.095331326030902
 33
0.0
210
0.0
220
0.0
230
-1.0
  0
SOLID
  5
6CD
  8
0
  6
CONTINUOUS
 10
-463.42500000000229
 20
94.095331326030902
 30
0.0
 11
-463.89099025767217
 21
93.737764425185446
 31
0.0
 12
-460.70900974233149
 22
93.737764425185446
 32
0.0
 13
-460.70900974233149
 23
93.737764425185446
 33
0.0
210
0.0
220
0.0
230
1.0
  0
SOLID
  5
6CE
  8
0
  6
CONTINUOUS
 10
463.42500000000229
 20
94.095331326030902
 30
0.0
 11
461.17500000000138
 21
94.095331326030902
 31
0.0
 12
460.70900974233149
 22
93.737764425185446
 32
0.0
 13
460.70900974233149
 23
93.737764425185446
 33
0.0
210
0.0
220
0.0
230
-1.0
  0
SOLID
  5
6CF
  8
0
  6
CONTINUOUS
 10
-463.89099025767217
 20
93.737764425185446
 30
0.0
 11
-464.15264128501991
 21
93.396774167516014
 31
0.0
 12
-460.44735871498381
 22
93.396774167516014
 32
0.0
 13
-460.44735871498381
 23
93.396774167516014
 33
0.0
210
0.0
220
0.0
230
1.0
  0
SOLID
  5
6D0
  8
0
  6
CONTINUOUS
 10
463.89099025767217
 20
93.737764425185446
 30
0.0
 11
460.70900974233149
 21
93.737764425185446
 31
0.0
 12
460.44735871498381
 22
93.396774167516014
 32
0.0
 13
460.44735871498381
 23
93.396774167516014
 33
0.0
210
0.0
220
0.0
230
-1.0
  0
SOLID
  5
6D1
  8
0
  6
CONTINUOUS
 10
-462.30000000000177
 20
93.396774167516014
 30
0.0
 11
-461.97647619362237
 21
93.354181450377354
 31
0.0
 12
-460.4146761736319
 22
93.354181450377354
 32
0.0
 13
-460.4146761736319
 23
93.354181450377354
 33
0.0
210
0.0
220
0.0
230
1.0
  0
SOLID
  5
6D2
  8
0
  6
CONTINUOUS
 10
462.30000000000177
 20
93.396774167516014
 30
0.0
 11
460.44735871498381
 21
93.396774167516014
 31
0.0
 12
460.4146761736319
 22
93.354181450377354
 32
0.0
 13
460.4146761736319
 23
93.354181450377354
 33
0.0
210
0.0
220
0.0
230
-1.0
  0
SOLID
  5
6D3
  8
0
  6
CONTINUOUS
 10
-464.15264128501991
 20
93.396774167516014
 30
0.0
 11
-464.1853238263717
 21
93.354181450377354
 31
0.0
 12
-462.62352380638021
 22
93.354181450377354
 32
0.0
 13
-462.62352380638021
 23
93.354181450377354
 33
0.0
  0
SOLID
  5
6D4
  8
0
  6
CONTINUOUS
 10
464.15264128501991
 20
93.396774167516014
 30
0.0
 11
462.30000000000177
 21
93.396774167516014
 31
0.0
 12
462.62352380638021
 22
93.354181450377354
 32
0.0
 13
462.62352380638021
 23
93.354181450377354
 33
0.0
210
0.0
220
0.0
230
-1.0
  0
SOLID
  5
6D5
  8
0
  6
CONTINUOUS
 10
-461.97647619362311
 20
93.354181450377354
 30
0.0
 11
-461.77752741370011
 21
93.271774167515645
 31
0.0
 12
-460.35144284148612
 22
93.271774167515645
 32
0.0
 13
-460.35144284148612
 23
93.271774167515645
 33
0.0
  0
SOLID
  5
6D6
  8
0
  6
CONTINUOUS
 10
461.97647619362311
 20
93.354181450377354
 30
0.0
 11
460.4146761736319
 21
93.354181450377354
 31
0.0
 12
460.35144284148612
 22
93.271774167515645
 32
0.0
 13
460.35144284148612
 23
93.271774167515645
 33
0.0
210
0.0
220
0.0
230
-1.0
  0
SOLID
  5
6D7
  8
0
  6
CONTINUOUS
 10
-464.1853238263717
 20
93.354181450377354
 30
0.0
 11
-464.2485571585176
 21
93.271774167515645
 31
0.0
 12
-462.82247258630338
 22
93.271774167515645
 32
0.0
 13
-462.82247258630338
 23
93.271774167515645
 33
0.0
210
0.0
220
0.0
230
1.0
  0
SOLID
  5
6D8
  8
0
  6
CONTINUOUS
 10
464.1853238263717
 20
93.354181450377354
 30
0.0
 11
462.62352380638021
 21
93.354181450377354
 31
0.0
 12
462.82247258630338
 22
93.271774167515645
 32
0.0
 13
462.82247258630338
 23
93.271774167515645
 33
0.0
210
0.0
220
0.0
230
-1.0
  0
SOLID
  5
6D9
  8
0
  6
CONTINUOUS
 10
-461.77752741370011
 20
93.271774167515645
 30
0.0
 11
-461.67500000000138
 21
93.229305922246553
 31
0.0
 12
-460.33385191832542
 22
93.229305922246553
 32
0.0
 13
-460.33385191832542
 23
93.229305922246553
 33
0.0
210
0.0
220
0.0
230
1.0
  0
SOLID
  5
6DA
  8
0
  6
CONTINUOUS
 10
461.77752741370011
 20
93.271774167515645
 30
0.0
 11
460.35144284148612
 21
93.271774167515645
 31
0.0
 12
460.33385191832542
 22
93.229305922246553
 32
0.0
 13
460.33385191832542
 23
93.229305922246553
 33
0.0
210
0.0
220
0.0
230
-1.0
  0
SOLID
  5
6DB
  8
0
  6
CONTINUOUS
 10
-464.2485571585176
 20
93.271774167515645
 30
0.0
 11
-464.26614808167818
 21
93.229305922246553
 31
0.0
 12
-462.92500000000229
 22
93.229305922246553
 32
0.0
 13
-462.92500000000229
 23
93.229305922246553
 33
0.0
210
0.0
220
0.0
230
1.0
  0
SOLID
  5
6DC
  8
0
  6
CONTINUOUS
 10
464.2485571585176
 20
93.271774167515645
 30
0.0
 11
462.82247258630338
 21
93.271774167515645
 31
0.0
 12
462.92500000000229
 22
93.229305922246553
 32
0.0
 13
462.92500000000229
 23
93.229305922246553
 33
0.0
210
0.0
220
0.0
230
-1.0
  0
SOLID
  5
6DD
  8
0
  6
CONTINUOUS
 10
-461.67500000000138
 20
93.229305922246553
 30
0.0
 11
-461.41611652351781
 21
93.030657643998865
 31
0.0
 12
-460.25156910733318
 22
93.030657643998865
 32
0.0
 13
-460.25156910733318
 23
93.030657643998865
 33
0.0
210
0.0
220
0.0
230
1.0
  0
SOLID
  5
6DE
  8
0
  6
CONTINUOUS
 10
461.67500000000138
 20
93.229305922246553
 30
0.0
 11
460.33385191832542
 21
93.229305922246553
 31
0.0
 12
460.25156910733318
 22
93.030657643998865
 32
0.0
 13
460.25156910733318
 23
93.030657643998865
 33
0.0
210
0.0
220
0.0
230
-1.0
  0
SOLID
  5
6DF
  8
0
  6
CONTINUOUS
 10
-464.26614808167818
 20
93.229305922246553
 30
0.0
 11
-464.34843089267048
 21
93.030657643998865
 31
0.0
 12
-463.18388347648568
 22
93.030657643998865
 32
0.0
 13
-463.18388347648568
 23
93.030657643998865
 33
0.0
  0
SOLID
  5
6E0
  8
0
  6
CONTINUOUS
 10
464.26614808167818
 20
93.229305922246553
 30
0.0
 11
462.92500000000229
 21
93.229305922246553
 31
0.0
 12
463.18388347648568
 22
93.030657643998865
 32
0.0
 13
463.18388347648568
 23
93.030657643998865
 33
0.0
210
0.0
220
0.0
230
-1.0
  0
SOLID
  5
6E1
  8
0
  6
CONTINUOUS
 10
-592.80889481785789
 20
95.560632621516618
 30
0.0
 11
-588.71176953181873
 21
92.977056469710377
 31
0.0
 12
-586.83697023565696
 22
92.977056469710377
 32
0.0
 13
-586.83697023565696
 23
92.977056469710377
 33
0.0
210
0.0
220
0.0
230
1.0
  0
SOLID
  5
6E2
  8
0
  6
CONTINUOUS
 10
592.80889481785789
 20
95.560632621516618
 30
0.0
 11
590.86923462221796
 21
95.560632621516618
 31
0.0
 12
586.83697023565696
 22
92.977056469710377
 32
0.0
 13
586.83697023565696
 23
92.977056469710377
 33
0.0
210
0.0
220
0.0
230
-1.0
  0
SOLID
  5
6E3
  8
0
  6
CONTINUOUS
 10
-461.41611652351781
 20
93.030657643998865
 30
0.0
 11
-461.2174682452706
 21
92.771774167515616
 31
0.0
 12
-460.14433606029962
 22
92.771774167515616
 32
0.0
 13
-460.14433606029962
 23
92.771774167515616
 33
0.0
210
0.0
220
0.0
230
1.0
  0
SOLID
  5
6E4
  8
0
  6
CONTINUOUS
 10
461.41611652351781
 20
93.030657643998865
 30
0.0
 11
460.25156910733318
 21
93.030657643998865
 31
0.0
 12
460.14433606029962
 22
92.771774167515616
 32
0.0
 13
460.14433606029962
 23
92.771774167515616
 33
0.0
210
0.0
220
0.0
230
-1.0
  0
SOLID
  5
6E5
  8
0
  6
CONTINUOUS
 10
-464.34843089267048
 20
93.030657643998865
 30
0.0
 11
-464.45566393970421
 21
92.771774167515616
 31
0.0
 12
-463.38253175473329
 22
92.771774167515616
 32
0.0
 13
-463.38253175473329
 23
92.771774167515616
 33
0.0
210
0.0
220
0.0
230
1.0
  0
SOLID
  5
6E6
  8
0
  6
CONTINUOUS
 10
464.34843089267048
 20
93.030657643998865
 30
0.0
 11
463.18388347648568
 21
93.030657643998865
 31
0.0
 12
463.38253175473329
 22
92.771774167515616
 32
0.0
 13
463.38253175473329
 23
92.771774167515616
 33
0.0
210
0.0
220
0.0
230
-1.0
  0
SOLID
  5
6E7
  8
0
  6
CONTINUOUS
 10
-461.2174682452706
 20
92.771774167515616
 30
0.0
 11
-461.1997990758216
 21
92.729117018996064
 31
0.0
 12
-460.12666689085057
 22
92.729117018996064
 32
0.0
 13
-460.12666689085057
 23
92.729117018996064
 33
0.0
210
0.0
220
0.0
230
1.0
  0
SOLID
  5
6E8
  8
0
  6
CONTINUOUS
 10
461.2174682452706
 20
92.771774167515616
 30
0.0
 11
460.14433606029962
 21
92.771774167515616
 31
0.0
 12
460.12666689085057
 22
92.729117018996064
 32
0.0
 13
460.12666689085057
 23
92.729117018996064
 33
0.0
210
0.0
220
0.0
230
-1.0
  0
SOLID
  5
6E9
  8
0
  6
CONTINUOUS
 10
-464.45566393970421
 20
92.771774167515616
 30
0.0
 11
-464.4733331091532
 21
92.729117018996064
 31
0.0
 12
-463.40020092418217
 22
92.729117018996064
 32
0.0
 13
-463.40020092418217
 23
92.729117018996064
 33
0.0
210
0.0
220
0.0
230
1.0
  0
SOLID
  5
6EA
  8
0
  6
CONTINUOUS
 10
464.45566393970421
 20
92.771774167515616
 30
0.0
 11
463.38253175473329
 21
92.771774167515616
 31
0.0
 12
463.40020092418217
 22
92.729117018996064
 32
0.0
 13
463.40020092418217
 23
92.729117018996064
 33
0.0
210
0.0
220
0.0
230
-1.0
  0
SOLID
  5
6EB
  8
0
  6
CONTINUOUS
 10
-461.1997990758216
 20
92.729117018996064
 30
0.0
 11
-461.09259271713961
 21
92.470297973893423
 31
0.0
 12
-460.09259271713972
 22
92.470297973893423
 32
0.0
 13
-460.09259271713972
 23
92.470297973893423
 33
0.0
210
0.0
220
0.0
230
1.0
  0
SOLID
  5
6EC
  8
0
  6
CONTINUOUS
 10
461.1997990758216
 20
92.729117018996064
 30
0.0
 11
460.12666689085057
 21
92.729117018996064
 31
0.0
 12
460.09259271713972
 22
92.470297973893423
 32
0.0
 13
460.09259271713972
 23
92.470297973893423
 33
0.0
210
0.0
220
0.0
230
-1.0
  0
SOLID
  5
6ED
  8
0
  6
CONTINUOUS
 10
-464.4733331091532
 20
92.729117018996064
 30
0.0
 11
-464.50740728286411
 21
92.470297973893423
 31
0.0
 12
-463.50740728286399
 22
92.470297973893423
 32
0.0
 13
-463.50740728286399
 23
92.470297973893423
 33
0.0
210
0.0
220
0.0
230
1.0
  0
SOLID
  5
6EE
  8
0
  6
CONTINUOUS
 10
464.4733331091532
 20
92.729117018996064
 30
0.0
 11
463.40020092418217
 21
92.729117018996064
 31
0.0
 12
463.50740728286399
 22
92.470297973893423
 32
0.0
 13
463.50740728286399
 23
92.470297973893423
 33
0.0
210
0.0
220
0.0
230
-1.0
  0
SOLID
  5
6EF
  8
0
  6
CONTINUOUS
 10
-461.09259271713961
 20
92.470297973893423
 30
0.0
 11
-461.05000000000092
 21
92.14677416751509
 31
0.0
 12
-460.05000000000098
 22
92.14677416751509
 32
0.0
 13
-460.05000000000098
 23
92.14677416751509
 33
0.0
210
0.0
220
0.0
230
1.0
  0
SOLID
  5
6F0
  8
0
  6
CONTINUOUS
 10
461.09259271713961
 20
92.470297973893423
 30
0.0
 11
460.09259271713972
 21
92.470297973893423
 31
0.0
 12
460.05000000000098
 22
92.14677416751509
 32
0.0
 13
460.05000000000098
 23
92.14677416751509
 33
0.0
210
0.0
220
0.0
230
-1.0
  0
SOLID
  5
6F1
  8
0
  6
CONTINUOUS
 10
-464.50740728286411
 20
92.470297973893423
 30
0.0
 11
-464.5500000000028
 21
92.14677416751509
 31
0.0
 12
-463.50999574841319
 22
92.14677416751509
 32
0.0
 13
-463.50999574841319
 23
92.14677416751509
 33
0.0
210
0.0
220
0.0
230
1.0
  0
SOLID
  5
6F2
  8
0
  6
CONTINUOUS
 10
464.50740728286411
 20
92.470297973893423
 30
0.0
 11
463.50740728286399
 21
92.470297973893423
 31
0.0
 12
463.50999574841319
 22
92.14677416751509
 32
0.0
 13
463.50999574841319
 23
92.14677416751509
 33
0.0
210
0.0
220
0.0
230
-1.0
  0
SOLID
  5
6F3
  8
0
  6
CONTINUOUS
 10
-588.71176953181873
 20
92.977056469710377
 30
0.0
 11
-587.37036066419375
 21
92.131187300899114
 31
0.0
 12
-585.6695161862516
 22
92.131187300899114
 32
0.0
 13
-585.6695161862516
 23
92.131187300899114
 33
0.0
210
0.0
220
0.0
230
1.0
  0
SOLID
  5
6F4
  8
0
  6
CONTINUOUS
 10
588.71176953181873
 20
92.977056469710377
 30
0.0
 11
586.83697023565696
 21
92.977056469710377
 31
0.0
 12
585.6695161862516
 22
92.131187300899114
 32
0.0
 13
585.6695161862516
 23
92.131187300899114
 33
0.0
210
0.0
220
0.0
230
-1.0
  0
SOLID
  5
6F5
  8
0
  6
CONTINUOUS
 10
-587.37036066419375
 20
92.131187300899114
 30
0.0
 11
-585.42109144315191
 21
90.718860420340903
 31
0.0
 12
-583.72024696520987
 22
90.718860420340903
 32
0.0
 13
-583.72024696520987
 23
90.718860420340903
 33
0.0
210
0.0
220
0.0
230
1.0
  0
SOLID
  5
6F6
  8
0
  6
CONTINUOUS
 10
587.37036066419375
 20
92.131187300899114
 30
0.0
 11
585.6695161862516
 21
92.131187300899114
 31
0.0
 12
583.72024696520987
 22
90.718860420340903
 32
0.0
 13
583.72024696520987
 23
90.718860420340903
 33
0.0
210
0.0
220
0.0
230
-1.0
  0
SOLID
  5
6F7
  8
0
  6
CONTINUOUS
 10
-585.42109144315191
 20
90.718860420340903
 30
0.0
 11
-584.3566695679765
 21
89.947642360599914
 31
0.0
 12
-582.89544810790164
 22
89.947642360599914
 32
0.0
 13
-582.89544810790164
 23
89.947642360599914
 33
0.0
210
0.0
220
0.0
230
1.0
  0
SOLID
  5
6F8
  8
0
  6
CONTINUOUS
 10
585.42109144315191
 20
90.718860420340903
 30
0.0
 11
583.72024696520987
 21
90.718860420340903
 31
0.0
 12
582.89544810790164
 22
89.947642360599914
 32
0.0
 13
582.89544810790164
 23
89.947642360599914
 33
0.0
210
0.0
220
0.0
230
-1.0
  0
SOLID
  5
6F9
  8
0
  6
CONTINUOUS
 10
-584.3566695679765
 20
89.947642360599914
 30
0.0
 11
-582.41426267394286
 21
88.131418607656457
 31
0.0
 12
-580.953041213868
 22
88.131418607656457
 32
0.0
 13
-580.953041213868
 23
88.131418607656457
 33
0.0
210
0.0
220
0.0
230
1.0
  0
SOLID
  5
6FA
  8
0
  6
CONTINUOUS
 10
584.3566695679765
 20
89.947642360599914
 30
0.0
 11
582.89544810790164
 21
89.947642360599914
 31
0.0
 12
580.953041213868
 22
88.131418607656457
 32
0.0
 13
580.953041213868
 23
88.131418607656457
 33
0.0
210
0.0
220
0.0
230
-1.0
  0
SOLID
  5
6FB
  8
0
  6
CONTINUOUS
 10
-582.41426267394286
 20
88.131418607656457
 30
0.0
 11
-581.68094169271194
 21
87.445735814450373
 31
0.0
 12
-580.38524380978345
 22
87.445735814450373
 32
0.0
 13
-580.38524380978345
 23
87.445735814450373
 33
0.0
210
0.0
220
0.0
230
1.0
  0
SOLID
  5
6FC
  8
0
  6
CONTINUOUS
 10
582.41426267394286
 20
88.131418607656457
 30
0.0
 11
580.953041213868
 21
88.131418607656457
 31
0.0
 12
580.38524380978345
 22
87.445735814450373
 32
0.0
 13
580.38524380978345
 23
87.445735814450373
 33
0.0
210
0.0
220
0.0
230
-1.0
  0
SOLID
  5
6FD
  8
0
  6
CONTINUOUS
 10
-464.5500000000028
 20
92.14677416751509
 30
0.0
 11
-464.5500000000028
 21
87.146774167515147
 31
0.0
 12
-463.5500000000028
 22
87.146774167515147
 32
0.0
 13
-463.5500000000028
 23
87.146774167515147
 33
0.0
210
0.0
220
0.0
230
1.0
  0
SOLID
  5
6FE
  8
0
  6
CONTINUOUS
 10
464.5500000000028
 20
92.14677416751509
 30
0.0
 11
463.50999574841319
 21
92.14677416751509
 31
0.0
 12
463.5500000000028
 22
87.146774167515147
 32
0.0
 13
463.5500000000028
 23
87.146774167515147
 33
0.0
210
0.0
220
0.0
230
-1.0
  0
SOLID
  5
6FF
  8
0
  6
CONTINUOUS
 10
-581.68094169271194
 20
87.445735814450373
 30
0.0
 11
-579.81324934043994
 21
85.190275504588087
 31
0.0
 12
-578.51755145751144
 22
85.190275504588087
 32
0.0
 13
-578.51755145751144
 23
85.190275504588087
 33
0.0
210
0.0
220
0.0
230
1.0
  0
SOLID
  5
700
  8
0
  6
CONTINUOUS
 10
581.68094169271194
 20
87.445735814450373
 30
0.0
 11
580.38524380978345
 21
87.445735814450373
 31
0.0
 12
578.51755145751144
 22
85.190275504588087
 32
0.0
 13
578.51755145751144
 23
85.190275504588087
 33
0.0
210
0.0
220
0.0
230
-1.0
  0
SOLID
  5
701
  8
0
  6
CONTINUOUS
 10
-579.81324934043994
 20
85.190275504588087
 30
0.0
 11
-579.32596399441661
 21
84.601820582557821
 31
0.0
 12
-578.14301842901546
 22
84.601820582557821
 32
0.0
 13
-578.14301842901546
 23
84.601820582557821
 33
0.0
210
0.0
220
0.0
230
1.0
  0
SOLID
  5
702
  8
0
  6
CONTINUOUS
 10
579.81324934043994
 20
85.190275504588087
 30
0.0
 11
578.51755145751144
 21
85.190275504588087
 31
0.0
 12
578.14301842901546
 22
84.601820582557821
 32
0.0
 13
578.14301842901546
 23
84.601820582557821
 33
0.0
210
0.0
220
0.0
230
-1.0
  0
SOLID
  5
703
  8
0
  6
CONTINUOUS
 10
-461.05000000000092
 20
92.14677416751509
 30
0.0
 11
-461.05000000000092
 21
83.163337687424075
 31
0.0
 12
-460.05000000000098
 22
83.163337687424075
 32
0.0
 13
-460.05000000000098
 23
83.163337687424075
 33
0.0
210
0.0
220
0.0
230
1.0
  0
SOLID
  5
704
  8
0
  6
CONTINUOUS
 10
461.05000000000092
 20
92.14677416751509
 30
0.0
 11
460.05000000000098
 21
92.14677416751509
 31
0.0
 12
460.05000000000098
 22
83.163337687424075
 32
0.0
 13
460.05000000000098
 23
83.163337687424075
 33
0.0
210
0.0
220
0.0
230
-1.0
  0
SOLID
  5
705
  8
0
  6
CONTINUOUS
 10
-579.32596399441661
 20
84.601820582557821
 30
0.0
 11
-577.65012783390057
 21
81.968797692341909
 31
0.0
 12
-576.46718226849941
 22
81.968797692341909
 32
0.0
 13
-576.46718226849941
 23
81.968797692341909
 33
0.0
210
0.0
220
0.0
230
1.0
  0
SOLID
  5
706
  8
0
  6
CONTINUOUS
 10
579.32596399441661
 20
84.601820582557821
 30
0.0
 11
578.14301842901546
 21
84.601820582557821
 31
0.0
 12
576.46718226849941
 22
81.968797692341909
 32
0.0
 13
576.46718226849941
 23
81.968797692341909
 33
0.0
210
0.0
220
0.0
230
-1.0
  0
SOLID
  5
707
  8
0
  6
CONTINUOUS
 10
-577.65012783390057
 20
81.968797692341909
 30
0.0
 11
-577.34337560504139
 21
81.486837904600719
 31
0.0
 12
-576.24059447058085
 22
81.486837904600719
 32
0.0
 13
-576.24059447058085
 23
81.486837904600719
 33
0.0
210
0.0
220
0.0
230
1.0
  0
SOLID
  5
708
  8
0
  6
CONTINUOUS
 10
577.65012783390057
 20
81.968797692341909
 30
0.0
 11
576.46718226849941
 21
81.968797692341909
 31
0.0
 12
576.24059447058085
 22
81.486837904600719
 32
0.0
 13
576.24059447058085
 23
81.486837904600719
 33
0.0
210
0.0
220
0.0
230
-1.0
  0
SOLID
  5
709
  8
0
  6
CONTINUOUS
 10
-577.34337560504139
 20
81.486837904600719
 30
0.0
 11
-576.10666276910229
 21
78.856308540788959
 31
0.0
 12
-575.00388163464174
 22
78.856308540788959
 32
0.0
 13
-575.00388163464174
 23
78.856308540788959
 33
0.0
210
0.0
220
0.0
230
1.0
  0
SOLID
  5
70A
  8
0
  6
CONTINUOUS
 10
577.34337560504139
 20
81.486837904600719
 30
0.0
 11
576.24059447058085
 21
81.486837904600719
 31
0.0
 12
575.00388163464174
 22
78.856308540788959
 32
0.0
 13
575.00388163464174
 23
78.856308540788959
 33
0.0
210
0.0
220
0.0
230
-1.0
  0
SOLID
  5
70B
  8
0
  6
CONTINUOUS
 10
-576.10666276910229
 20
78.856308540788959
 30
0.0
 11
-575.78481565653658
 21
78.1717290202578
 31
0.0
 12
-574.77321098985476
 22
78.1717290202578
 32
0.0
 13
-574.77321098985476
 23
78.1717290202578
 33
0.0
210
0.0
220
0.0
230
1.0
  0
SOLID
  5
70C
  8
0
  6
CONTINUOUS
 10
576.10666276910229
 20
78.856308540788959
 30
0.0
 11
575.00388163464174
 21
78.856308540788959
 31
0.0
 12
574.77321098985476
 22
78.1717290202578
 32
0.0
 13
574.77321098985476
 23
78.1717290202578
 33
0.0
210
0.0
220
0.0
230
-1.0
  0
SOLID
  5
70D
  8
0
  6
CONTINUOUS
 10
-575.78481565653658
 20
78.1717290202578
 30
0.0
 11
-574.71366508972505
 21
74.880482156865511
 31
0.0
 12
-573.6642177854668
 22
74.880482156865511
 32
0.0
 13
-573.6642177854668
 23
74.880482156865511
 33
0.0
210
0.0
220
0.0
230
1.0
  0
SOLID
  5
70E
  8
0
  6
CONTINUOUS
 10
575.78481565653658
 20
78.1717290202578
 30
0.0
 11
574.77321098985476
 21
78.1717290202578
 31
0.0
 12
573.6642177854668
 22
74.880482156865511
 32
0.0
 13
573.6642177854668
 23
74.880482156865511
 33
0.0
210
0.0
220
0.0
230
-1.0
  0
SOLID
  5
70F
  8
0
  6
CONTINUOUS
 10
-574.71366508972505
 20
74.880482156865511
 30
0.0
 11
-574.63307110491894
 21
74.632846849635982
 31
0.0
 12
-573.60092312139795
 22
74.632846849635982
 32
0.0
 13
-573.60092312139795
 23
74.632846849635982
 33
0.0
210
0.0
220
0.0
230
1.0
  0
SOLID
  5
710
  8
0
  6
CONTINUOUS
 10
574.71366508972505
 20
74.880482156865511
 30
0.0
 11
573.6642177854668
 21
74.880482156865511
 31
0.0
 12
573.60092312139795
 22
74.632846849635982
 32
0.0
 13
573.60092312139795
 23
74.632846849635982
 33
0.0
210
0.0
220
0.0
230
-1.0
  0
SOLID
  5
711
  8
0
  6
CONTINUOUS
 10
-574.63307110491894
 20
74.632846849635982
 30
0.0
 11
-569.34373791779706
 21
53.938754099449177
 31
0.0
 12
-568.31158993427607
 22
53.938754099449177
 32
0.0
 13
-568.31158993427607
 23
53.938754099449177
 33
0.0
210
0.0
220
0.0
230
1.0
  0
SOLID
  5
712
  8
0
  6
CONTINUOUS
 10
574.63307110491894
 20
74.632846849635982
 30
0.0
 11
573.60092312139795
 21
74.632846849635982
 31
0.0
 12
568.31158993427607
 22
53.938754099449177
 32
0.0
 13
568.31158993427607
 23
53.938754099449177
 33
0.0
210
0.0
220
0.0
230
-1.0
  0
SOLID
  5
713
  8
0
  6
CONTINUOUS
 10
-569.34373791779706
 20
53.938754099449177
 30
0.0
 11
-569.18550125762488
 21
53.319665831375069
 31
0.0
 12
-568.0883585590708
 22
53.319665831375069
 32
0.0
 13
-568.0883585590708
 23
53.319665831375069
 33
0.0
  0
SOLID
  5
714
  8
0
  6
CONTINUOUS
 10
569.34373791779706
 20
53.938754099449177
 30
0.0
 11
568.31158993427607
 21
53.938754099449177
 31
0.0
 12
568.0883585590708
 22
53.319665831375069
 32
0.0
 13
568.0883585590708
 23
53.319665831375069
 33
0.0
210
0.0
220
0.0
230
-1.0
  0
SOLID
  5
715
  8
0
  6
CONTINUOUS
 10
-569.18550125762488
 20
53.319665831375069
 30
0.0
 11
-567.18912495653512
 21
47.886544773823132
 31
0.0
 12
-566.12927913876945
 22
47.886544773823132
 32
0.0
 13
-566.12927913876945
 23
47.886544773823132
 33
0.0
210
0.0
220
0.0
230
1.0
  0
SOLID
  5
716
  8
0
  6
CONTINUOUS
 10
569.18550125762488
 20
53.319665831375069
 30
0.0
 11
568.0883585590708
 21
53.319665831375069
 31
0.0
 12
566.12927913876945
 22
47.886544773823132
 32
0.0
 13
566.12927913876945
 23
47.886544773823132
 33
0.0
210
0.0
220
0.0
230
-1.0
  0
SOLID
  5
717
  8
0
  6
CONTINUOUS
 10
-567.18912495653512
 20
47.886544773823132
 30
0.0
 11
-567.02796880109884
 21
47.447959672819451
 31
0.0
 12
-565.8567972222686
 22
47.447959672819451
 32
0.0
 13
-565.8567972222686
 23
47.447959672819451
 33
0.0
210
0.0
220
0.0
230
1.0
  0
SOLID
  5
718
  8
0
  6
CONTINUOUS
 10
567.18912495653512
 20
47.886544773823132
 30
0.0
 11
566.12927913876945
 21
47.886544773823132
 31
0.0
 12
565.8567972222686
 22
47.447959672819451
 32
0.0
 13
565.8567972222686
 23
47.447959672819451
 33
0.0
210
0.0
220
0.0
230
-1.0
  0
SOLID
  5
719
  8
0
  6
CONTINUOUS
 10
-567.02796880109884
 20
47.447959672819451
 30
0.0
 11
-564.10661818503274
 21
42.745772931517052
 31
0.0
 12
-562.93544660620273
 22
42.745772931517052
 32
0.0
 13
-562.93544660620273
 23
42.745772931517052
 33
0.0
210
0.0
220
0.0
230
1.0
  0
SOLID
  5
71A
  8
0
  6
CONTINUOUS
 10
567.02796880109884
 20
47.447959672819451
 30
0.0
 11
565.8567972222686
 21
47.447959672819451
 31
0.0
 12
562.93544660620273
 22
42.745772931517052
 32
0.0
 13
562.93544660620273
 23
42.745772931517052
 33
0.0
210
0.0
220
0.0
230
-1.0
  0
SOLID
  5
71B
  8
0
  6
CONTINUOUS
 10
-564.10661818503274
 20
42.745772931517052
 30
0.0
 11
-563.7267805531518
 21
42.134388776990512
 31
0.0
 12
-562.35470349060256
 22
42.134388776990512
 32
0.0
 13
-562.35470349060256
 23
42.134388776990512
 33
0.0
210
0.0
220
0.0
230
1.0
  0
SOLID
  5
71C
  8
0
  6
CONTINUOUS
 10
564.10661818503274
 20
42.745772931517052
 30
0.0
 11
562.93544660620273
 21
42.745772931517052
 31
0.0
 12
562.35470349060256
 22
42.134388776990512
 32
0.0
 13
562.35470349060256
 23
42.134388776990512
 33
0.0
210
0.0
220
0.0
230
-1.0
  0
SOLID
  5
71D
  8
0
  6
CONTINUOUS
 10
-563.7267805531518
 20
42.134388776990512
 30
0.0
 11
-560.13940340392128
 21
38.35773523356643
 31
0.0
 12
-558.76732634137204
 22
38.35773523356643
 32
0.0
 13
-558.76732634137204
 23
38.35773523356643
 33
0.0
210
0.0
220
0.0
230
1.0
  0
SOLID
  5
71E
  8
0
  6
CONTINUOUS
 10
563.7267805531518
 20
42.134388776990512
 30
0.0
 11
562.35470349060256
 21
42.134388776990512
 31
0.0
 12
558.76732634137204
 22
38.35773523356643
 32
0.0
 13
558.76732634137204
 23
38.35773523356643
 33
0.0
210
0.0
220
0.0
230
-1.0
  0
SOLID
  5
71F
  8
0
  6
CONTINUOUS
 10
-560.13940340392128
 20
38.35773523356643
 30
0.0
 11
-559.41855540546965
 21
37.598854013562502
 31
0.0
 12
-557.88299740425225
 22
37.598854013562502
 32
0.0
 13
-557.88299740425225
 23
37.598854013562502
 33
0.0
210
0.0
220
0.0
230
1.0
  0
SOLID
  5
720
  8
0
  6
CONTINUOUS
 10
560.13940340392128
 20
38.35773523356643
 30
0.0
 11
558.76732634137204
 21
38.35773523356643
 31
0.0
 12
557.88299740425225
 22
37.598854013562502
 32
0.0
 13
557.88299740425225
 23
37.598854013562502
 33
0.0
210
0.0
220
0.0
230
-1.0
  0
SOLID
  5
721
  8
0
  6
CONTINUOUS
 10
-559.41855540546965
 20
37.598854013562502
 30
0.0
 11
-556.40982853723324
 21
35.016934299544523
 31
0.0
 12
-554.87427053601584
 22
35.016934299544523
 32
0.0
 13
-554.87427053601584
 23
35.016934299544523
 33
0.0
210
0.0
220
0.0
230
1.0
  0
SOLID
  5
722
  8
0
  6
CONTINUOUS
 10
559.41855540546965
 20
37.598854013562502
 30
0.0
 11
557.88299740425225
 21
37.598854013562502
 31
0.0
 12
554.87427053601584
 22
35.016934299544523
 32
0.0
 13
554.87427053601584
 23
35.016934299544523
 33
0.0
210
0.0
220
0.0
230
-1.0
  0
SOLID
  5
723
  8
0
  6
CONTINUOUS
 10
-556.40982853723324
 20
35.016934299544523
 30
0.0
 11
-555.52549960011333
 21
34.258053079540453
 31
0.0
 12
-554.08631069543901
 22
34.258053079540453
 32
0.0
 13
-554.08631069543901
 23
34.258053079540453
 33
0.0
210
0.0
220
0.0
230
1.0
  0
SOLID
  5
724
  8
0
  6
CONTINUOUS
 10
556.40982853723324
 20
35.016934299544523
 30
0.0
 11
554.87427053601584
 21
35.016934299544523
 31
0.0
 12
554.08631069543901
 22
34.258053079540453
 32
0.0
 13
554.08631069543901
 23
34.258053079540453
 33
0.0
210
0.0
220
0.0
230
-1.0
  0
SOLID
  5
725
  8
0
  6
CONTINUOUS
 10
-555.52549960011333
 20
34.258053079540453
 30
0.0
 11
-554.8935630543325
 21
33.646127752762553
 31
0.0
 12
-553.45093776720887
 22
33.646127752762553
 32
0.0
 13
-553.45093776720887
 23
33.646127752762553
 33
0.0
  0
SOLID
  5
726
  8
0
  6
CONTINUOUS
 10
555.52549960011333
 20
34.258053079540453
 30
0.0
 11
554.08631069543901
 21
34.258053079540453
 31
0.0
 12
553.45093776720887
 22
33.646127752762553
 32
0.0
 13
553.45093776720887
 23
33.646127752762553
 33
0.0
210
0.0
220
0.0
230
-1.0
  0
SOLID
  5
727
  8
0
  6
CONTINUOUS
 10
-554.8935630543325
 20
33.646127752762553
 30
0.0
 11
-553.90064184144592
 21
32.684648880054439
 31
0.0
 12
-552.63399644702054
 22
32.684648880054439
 32
0.0
 13
-552.63399644702054
 23
32.684648880054439
 33
0.0
210
0.0
220
0.0
230
1.0
  0
SOLID
  5
728
  8
0
  6
CONTINUOUS
 10
554.8935630543325
 20
33.646127752762553
 30
0.0
 11
553.45093776720887
 21
33.646127752762553
 31
0.0
 12
552.63399644702054
 22
32.684648880054439
 32
0.0
 13
552.63399644702054
 23
32.684648880054439
 33
0.0
210
0.0
220
0.0
230
-1.0
  0
SOLID
  5
729
  8
0
  6
CONTINUOUS
 10
-553.90064184144592
 20
32.684648880054439
 30
0.0
 11
-553.01679938560005
 21
31.612444883402311
 31
0.0
 12
-551.72297513038041
 22
31.612444883402311
 32
0.0
 13
-551.72297513038041
 23
31.612444883402311
 33
0.0
210
0.0
220
0.0
230
1.0
  0
SOLID
  5
72A
  8
0
  6
CONTINUOUS
 10
553.90064184144592
 20
32.684648880054439
 30
0.0
 11
552.63399644702054
 21
32.684648880054439
 31
0.0
 12
551.72297513038041
 22
31.612444883402311
 32
0.0
 13
551.72297513038041
 23
31.612444883402311
 33
0.0
210
0.0
220
0.0
230
-1.0
  0
SOLID
  5
72B
  8
0
  6
CONTINUOUS
 10
-553.01679938560005
 20
31.612444883402311
 30
0.0
 11
-552.52982372068197
 21
31.021686597528959
 31
0.0
 12
-551.29043381281099
 22
31.021686597528959
 32
0.0
 13
-551.29043381281099
 23
31.021686597528959
 33
0.0
210
0.0
220
0.0
230
1.0
  0
SOLID
  5
72C
  8
0
  6
CONTINUOUS
 10
553.01679938560005
 20
31.612444883402311
 30
0.0
 11
551.72297513038041
 21
31.612444883402311
 31
0.0
 12
551.29043381281099
 22
31.021686597528959
 32
0.0
 13
551.29043381281099
 23
31.021686597528959
 33
0.0
210
0.0
220
0.0
230
-1.0
  0
SOLID
  5
72D
  8
0
  6
CONTINUOUS
 10
-552.52982372068197
 20
31.021686597528959
 30
0.0
 11
-552.25099161407979
 21
30.618155930787871
 31
0.0
 12
-550.99497678673845
 22
30.618155930787871
 32
0.0
 13
-550.99497678673845
 23
30.618155930787871
 33
0.0
210
0.0
220
0.0
230
1.0
  0
SOLID
  5
72E
  8
0
  6
CONTINUOUS
 10
552.52982372068197
 20
31.021686597528959
 30
0.0
 11
551.29043381281099
 21
31.021686597528959
 31
0.0
 12
550.99497678673845
 22
30.618155930787871
 32
0.0
 13
550.99497678673845
 23
30.618155930787871
 33
0.0
210
0.0
220
0.0
230
-1.0
  0
SOLID
  5
72F
  8
0
  6
CONTINUOUS
 10
-552.25099161407979
 20
30.618155930787871
 30
0.0
 11
-551.89517232271919
 21
30.103208073341651
 31
0.0
 12
-550.71289155138277
 22
30.103208073341651
 32
0.0
 13
-550.71289155138277
 23
30.103208073341651
 33
0.0
210
0.0
220
0.0
230
1.0
  0
SOLID
  5
730
  8
0
  6
CONTINUOUS
 10
552.25099161407979
 20
30.618155930787871
 30
0.0
 11
550.99497678673845
 21
30.618155930787871
 31
0.0
 12
550.71289155138277
 22
30.103208073341651
 32
0.0
 13
550.71289155138277
 23
30.103208073341651
 33
0.0
210
0.0
220
0.0
230
-1.0
  0
SOLID
  5
731
  8
0
  6
CONTINUOUS
 10
-551.89517232271919
 20
30.103208073341651
 30
0.0
 11
-551.64511135739804
 21
29.741315501888671
 31
0.0
 12
-550.62454257538479
 22
29.741315501888671
 32
0.0
 13
-550.62454257538479
 23
29.741315501888671
 33
0.0
210
0.0
220
0.0
230
1.0
  0
SOLID
  5
732
  8
0
  6
CONTINUOUS
 10
551.89517232271919
 20
30.103208073341651
 30
0.0
 11
550.71289155138277
 21
30.103208073341651
 31
0.0
 12
550.62454257538479
 22
29.741315501888671
 32
0.0
 13
550.62454257538479
 23
29.741315501888671
 33
0.0
210
0.0
220
0.0
230
-1.0
  0
SOLID
  5
733
  8
0
  6
CONTINUOUS
 10
-551.64511135739804
 20
29.741315501888671
 30
0.0
 11
-551.59420914381872
 21
29.532811297320421
 31
0.0
 12
-550.57364036180547
 22
29.532811297320421
 32
0.0
 13
-550.57364036180547
 23
29.532811297320421
 33
0.0
210
0.0
220
0.0
230
1.0
  0
SOLID
  5
734
  8
0
  6
CONTINUOUS
 10
551.64511135739804
 20
29.741315501888671
 30
0.0
 11
550.62454257538479
 21
29.741315501888671
 31
0.0
 12
550.57364036180547
 22
29.532811297320421
 32
0.0
 13
550.57364036180547
 23
29.532811297320421
 33
0.0
210
0.0
220
0.0
230
-1.0
  0
SOLID
  5
735
  8
0
  6
CONTINUOUS
 10
-551.59420914381872
 20
29.532811297320421
 30
0.0
 11
-551.56774958541075
 21
29.424428404099391
 31
0.0
 12
-550.57605274686557
 22
29.424428404099391
 32
0.0
 13
-550.57605274686557
 23
29.424428404099391
 33
0.0
210
0.0
220
0.0
230
1.0
  0
SOLID
  5
736
  8
0
  6
CONTINUOUS
 10
551.59420914381872
 20
29.532811297320421
 30
0.0
 11
550.57364036180547
 21
29.532811297320421
 31
0.0
 12
550.57605274686557
 22
29.424428404099391
 32
0.0
 13
550.57605274686557
 23
29.424428404099391
 33
0.0
210
0.0
220
0.0
230
-1.0
  0
SOLID
  5
737
  8
0
  6
CONTINUOUS
 10
-551.56774958541075
 20
29.424428404099391
 30
0.0
 11
-551.57500820101677
 21
29.098315557051119
 31
0.0
 12
-550.58331136247159
 22
29.098315557051119
 32
0.0
 13
-550.58331136247159
 23
29.098315557051119
 33
0.0
210
0.0
220
0.0
230
1.0
  0
SOLID
  5
738
  8
0
  6
CONTINUOUS
 10
551.56774958541075
 20
29.424428404099391
 30
0.0
 11
550.57605274686557
 21
29.424428404099391
 31
0.0
 12
550.58331136247159
 22
29.098315557051119
 32
0.0
 13
550.58331136247159
 23
29.098315557051119
 33
0.0
210
0.0
220
0.0
230
-1.0
  0
SOLID
  5
739
  8
0
  6
CONTINUOUS
 10
-551.57500820101677
 20
29.098315557051119
 30
0.0
 11
-551.5985419938346
 21
28.945808172633381
 31
0.0
 12
-550.58670586989615
 22
28.945808172633381
 32
0.0
 13
-550.58670586989615
 23
28.945808172633381
 33
0.0
210
0.0
220
0.0
230
1.0
  0
SOLID
  5
73A
  8
0
  6
CONTINUOUS
 10
551.57500820101677
 20
29.098315557051119
 30
0.0
 11
550.58331136247159
 21
29.098315557051119
 31
0.0
 12
550.58670586989615
 22
28.945808172633381
 32
0.0
 13
550.58670586989615
 23
28.945808172633381
 33
0.0
210
0.0
220
0.0
230
-1.0
  0
SOLID
  5
73B
  8
0
  6
CONTINUOUS
 10
-551.5985419938346
 20
28.945808172633381
 30
0.0
 11
-552.04990586115457
 21
26.02080907203587
 31
0.0
 12
-551.03806973721646
 22
26.02080907203587
 32
0.0
 13
-551.03806973721646
 23
26.02080907203587
 33
0.0
210
0.0
220
0.0
230
1.0
  0
SOLID
  5
73C
  8
0
  6
CONTINUOUS
 10
551.5985419938346
 20
28.945808172633381
 30
0.0
 11
550.58670586989615
 21
28.945808172633381
 31
0.0
 12
551.03806973721646
 22
26.02080907203587
 32
0.0
 13
551.03806973721646
 23
26.02080907203587
 33
0.0
210
0.0
220
0.0
230
-1.0
  0
SOLID
  5
73D
  8
0
  6
CONTINUOUS
 10
-552.04990586115457
 20
26.02080907203587
 30
0.0
 11
-552.05695908776886
 21
25.868301687618271
 31
0.0
 12
-551.06160353003418
 22
25.868301687618271
 32
0.0
 13
-551.06160353003418
 23
25.868301687618271
 33
0.0
  0
SOLID
  5
73E
  8
0
  6
CONTINUOUS
 10
552.04990586115457
 20
26.02080907203587
 30
0.0
 11
551.03806973721646
 21
26.02080907203587
 31
0.0
 12
551.06160353003418
 22
25.868301687618271
 32
0.0
 13
551.06160353003418
 23
25.868301687618271
 33
0.0
210
0.0
220
0.0
230
-1.0
  0
SOLID
  5
73F
  8
0
  6
CONTINUOUS
 10
-552.05695908776886
 20
25.868301687618271
 30
0.0
 11
-552.10378257093748
 21
24.85586761484268
 31
0.0
 12
-551.10842701320269
 22
24.85586761484268
 32
0.0
 13
-551.10842701320269
 23
24.85586761484268
 33
0.0
210
0.0
220
0.0
230
1.0
  0
SOLID
  5
740
  8
0
  6
CONTINUOUS
 10
552.05695908776886
 20
25.868301687618271
 30
0.0
 11
551.06160353003418
 21
25.868301687618271
 31
0.0
 12
551.10842701320269
 22
24.85586761484268
 32
0.0
 13
551.10842701320269
 23
24.85586761484268
 33
0.0
210
0.0
220
0.0
230
-1.0
  0
SOLID
  5
741
  8
0
  6
CONTINUOUS
 10
-552.10378257093748
 20
24.85586761484268
 30
0.0
 11
-552.10658691972696
 21
24.795230983939081
 31
0.0
 12
-551.09817037197593
 22
24.795230983939081
 32
0.0
 13
-551.09817037197593
 23
24.795230983939081
 33
0.0
210
0.0
220
0.0
230
1.0
  0
SOLID
  5
742
  8
0
  6
CONTINUOUS
 10
552.10378257093748
 20
24.85586761484268
 30
0.0
 11
551.10842701320269
 21
24.85586761484268
 31
0.0
 12
551.09817037197593
 22
24.795230983939081
 32
0.0
 13
551.09817037197593
 23
24.795230983939081
 33
0.0
210
0.0
220
0.0
230
-1.0
  0
SOLID
  5
743
  8
0
  6
CONTINUOUS
 10
-552.10658691972696
 20
24.795230983939081
 30
0.0
 11
-551.9478091455278
 21
23.856546566983418
 31
0.0
 12
-550.93939259777665
 22
23.856546566983418
 32
0.0
 13
-550.93939259777665
 23
23.856546566983418
 33
0.0
210
0.0
220
0.0
230
1.0
  0
SOLID
  5
744
  8
0
  6
CONTINUOUS
 10
552.10658691972696
 20
24.795230983939081
 30
0.0
 11
551.09817037197593
 21
24.795230983939081
 31
0.0
 12
550.93939259777665
 22
23.856546566983418
 32
0.0
 13
550.93939259777665
 23
23.856546566983418
 33
0.0
210
0.0
220
0.0
230
-1.0
  0
SOLID
  5
745
  8
0
  6
CONTINUOUS
 10
-551.9478091455278
 20
23.856546566983418
 30
0.0
 11
-551.90196631157971
 21
23.585526557583108
 31
0.0
 12
-550.83072183541049
 22
23.585526557583108
 32
0.0
 13
-550.83072183541049
 23
23.585526557583108
 33
0.0
  0
SOLID
  5
746
  8
0
  6
CONTINUOUS
 10
551.9478091455278
 20
23.856546566983418
 30
0.0
 11
550.93939259777665
 21
23.856546566983418
 31
0.0
 12
550.83072183541049
 22
23.585526557583108
 32
0.0
 13
550.83072183541049
 23
23.585526557583108
 33
0.0
210
0.0
220
0.0
230
-1.0
  0
SOLID
  5
747
  8
0
  6
CONTINUOUS
 10
-551.90196631157971
 20
23.585526557583108
 30
0.0
 11
-551.63344048155238
 21
22.915835176077682
 31
0.0
 12
-550.56219600538338
 22
22.915835176077682
 32
0.0
 13
-550.56219600538338
 23
22.915835176077682
 33
0.0
210
0.0
220
0.0
230
1.0
  0
SOLID
  5
748
  8
0
  6
CONTINUOUS
 10
551.90196631157971
 20
23.585526557583108
 30
0.0
 11
550.83072183541049
 21
23.585526557583108
 31
0.0
 12
550.56219600538338
 22
22.915835176077682
 32
0.0
 13
550.56219600538338
 23
22.915835176077682
 33
0.0
210
0.0
220
0.0
230
-1.0
  0
SOLID
  5
749
  8
0
  6
CONTINUOUS
 10
-551.63344048155238
 20
22.915835176077682
 30
0.0
 11
-551.44535991026146
 21
22.446770663328781
 31
0.0
 12
-550.31306725826732
 22
22.446770663328781
 32
0.0
 13
-550.31306725826732
 23
22.446770663328781
 33
0.0
210
0.0
220
0.0
230
1.0
  0
SOLID
  5
74A
  8
0
  6
CONTINUOUS
 10
551.63344048155238
 20
22.915835176077682
 30
0.0
 11
550.56219600538338
 21
22.915835176077682
 31
0.0
 12
550.31306725826732
 22
22.446770663328781
 32
0.0
 13
550.31306725826732
 23
22.446770663328781
 33
0.0
210
0.0
220
0.0
230
-1.0
  0
SOLID
  5
74B
  8
0
  6
CONTINUOUS
 10
-461.05000000000092
 20
82.163337687424175
 30
0.0
 11
-461.05000000000092
 21
20.646774167514831
 31
0.0
 12
-460.05000000000098
 22
20.646774167514831
 32
0.0
 13
-460.05000000000098
 23
20.646774167514831
 33
0.0
210
0.0
220
0.0
230
1.0
  0
SOLID
  5
74C
  8
0
  6
CONTINUOUS
 10
461.05000000000092
 20
82.163337687424175
 30
0.0
 11
460.05000000000098
 21
82.163337687424175
 31
0.0
 12
460.05000000000098
 22
20.646774167514831
 32
0.0
 13
460.05000000000098
 23
20.646774167514831
 33
0.0
210
0.0
220
0.0
230
-1.0
  0
SOLID
  5
74D
  8
0
  6
CONTINUOUS
 10
-461.05000000000092
 20
20.646774167514831
 30
0.0
 11
-461.10962980399501
 21
20.193840838585569
 31
0.0
 12
-460.10962980399512
 22
20.193840838585569
 32
0.0
 13
-460.10962980399512
 23
20.193840838585569
 33
0.0
210
0.0
220
0.0
230
1.0
  0
SOLID
  5
74E
  8
0
  6
CONTINUOUS
 10
461.05000000000092
 20
20.646774167514831
 30
0.0
 11
460.05000000000098
 21
20.646774167514831
 31
0.0
 12
460.10962980399512
 22
20.193840838585569
 32
0.0
 13
460.10962980399512
 23
20.193840838585569
 33
0.0
210
0.0
220
0.0
230
-1.0
  0
SOLID
  5
74F
  8
0
  6
CONTINUOUS
 10
-551.44535991026146
 20
22.446770663328781
 30
0.0
 11
-550.21395194822708
 21
20.128251494452051
 31
0.0
 12
-549.08165929623283
 22
20.128251494452051
 32
0.0
 13
-549.08165929623283
 23
20.128251494452051
 33
0.0
210
0.0
220
0.0
230
1.0
  0
SOLID
  5
750
  8
0
  6
CONTINUOUS
 10
551.44535991026146
 20
22.446770663328781
 30
0.0
 11
550.31306725826732
 21
22.446770663328781
 31
0.0
 12
549.08165929623283
 22
20.128251494452051
 32
0.0
 13
549.08165929623283
 23
20.128251494452051
 33
0.0
210
0.0
220
0.0
230
-1.0
  0
SOLID
  5
751
  8
0
  6
CONTINUOUS
 10
-461.10962980399501
 20
20.193840838585569
 30
0.0
 11
-461.21683616267688
 21
19.935021793483092
 31
0.0
 12
-460.14370397770602
 22
19.935021793483092
 32
0.0
 13
-460.14370397770602
 23
19.935021793483092
 33
0.0
210
0.0
220
0.0
230
1.0
  0
SOLID
  5
752
  8
0
  6
CONTINUOUS
 10
461.10962980399501
 20
20.193840838585569
 30
0.0
 11
460.10962980399512
 21
20.193840838585569
 31
0.0
 12
460.14370397770602
 22
19.935021793483092
 32
0.0
 13
460.14370397770602
 23
19.935021793483092
 33
0.0
210
0.0
220
0.0
230
-1.0
  0
SOLID
  5
753
  8
0
  6
CONTINUOUS
 10
-461.21683616267688
 20
19.935021793483092
 30
0.0
 11
-461.2844555433781
 21
19.77177416751503
 31
0.0
 12
-460.21132335840718
 22
19.77177416751503
 32
0.0
 13
-460.21132335840718
 23
19.77177416751503
 33
0.0
210
0.0
220
0.0
230
1.0
  0
SOLID
  5
754
  8
0
  6
CONTINUOUS
 10
461.21683616267688
 20
19.935021793483092
 30
0.0
 11
460.14370397770602
 21
19.935021793483092
 31
0.0
 12
460.21132335840718
 22
19.77177416751503
 32
0.0
 13
460.21132335840718
 23
19.77177416751503
 33
0.0
210
0.0
220
0.0
230
-1.0
  0
SOLID
  5
755
  8
0
  6
CONTINUOUS
 10
-550.21395194822708
 20
20.128251494452051
 30
0.0
 11
-549.88721029220915
 21
19.513055867897599
 31
0.0
 12
-548.70865424085434
 22
19.513055867897599
 32
0.0
 13
-548.70865424085434
 23
19.513055867897599
 33
0.0
210
0.0
220
0.0
230
1.0
  0
SOLID
  5
756
  8
0
  6
CONTINUOUS
 10
550.21395194822708
 20
20.128251494452051
 30
0.0
 11
549.08165929623283
 21
20.128251494452051
 31
0.0
 12
548.70865424085434
 22
19.513055867897599
 32
0.0
 13
548.70865424085434
 23
19.513055867897599
 33
0.0
210
0.0
220
0.0
230
-1.0
  0
SOLID
  5
757
  8
0
  6
CONTINUOUS
 10
-461.2844555433781
 20
19.77177416751503
 30
0.0
 11
-461.56256313292431
 21
19.409337300438828
 31
0.0
 12
-460.36144962425408
 22
19.409337300438828
 32
0.0
 13
-460.36144962425408
 23
19.409337300438828
 33
0.0
210
0.0
220
0.0
230
1.0
  0
SOLID
  5
758
  8
0
  6
CONTINUOUS
 10
461.2844555433781
 20
19.77177416751503
 30
0.0
 11
460.21132335840718
 21
19.77177416751503
 31
0.0
 12
460.36144962425408
 22
19.409337300438828
 32
0.0
 13
460.36144962425408
 23
19.409337300438828
 33
0.0
210
0.0
220
0.0
230
-1.0
  0
SOLID
  5
759
  8
0
  6
CONTINUOUS
 10
-549.88721029220915
 20
19.513055867897599
 30
0.0
 11
-549.80424477485496
 21
19.356846757455038
 31
0.0
 12
-548.54357446936467
 22
19.356846757455038
 32
0.0
 13
-548.54357446936467
 23
19.356846757455038
 33
0.0
210
0.0
220
0.0
230
1.0
  0
SOLID
  5
75A
  8
0
  6
CONTINUOUS
 10
549.88721029220915
 20
19.513055867897599
 30
0.0
 11
548.70865424085434
 21
19.513055867897599
 31
0.0
 12
548.54357446936467
 22
19.356846757455038
 32
0.0
 13
548.54357446936467
 23
19.356846757455038
 33
0.0
210
0.0
220
0.0
230
-1.0
  0
SOLID
  5
75B
  8
0
  6
CONTINUOUS
 10
-461.56256313292431
 20
19.409337300438828
 30
0.0
 11
-461.74183889811792
 21
19.27177416751514
 31
0.0
 12
-460.41843013959368
 22
19.27177416751514
 32
0.0
 13
-460.41843013959368
 23
19.27177416751514
 33
0.0
210
0.0
220
0.0
230
1.0
  0
SOLID
  5
75C
  8
0
  6
CONTINUOUS
 10
461.56256313292431
 20
19.409337300438828
 30
0.0
 11
460.36144962425408
 21
19.409337300438828
 31
0.0
 12
460.41843013959368
 22
19.27177416751514
 32
0.0
 13
460.41843013959368
 23
19.27177416751514
 33
0.0
210
0.0
220
0.0
230
-1.0
  0
SOLID
  5
75D
  8
0
  6
CONTINUOUS
 10
-549.80424477485496
 20
19.356846757455038
 30
0.0
 11
-549.73382826771285
 21
19.253139492683172
 31
0.0
 12
-548.43397797065938
 22
19.253139492683172
 32
0.0
 13
-548.43397797065938
 23
19.253139492683172
 33
0.0
210
0.0
220
0.0
230
1.0
  0
SOLID
  5
75E
  8
0
  6
CONTINUOUS
 10
549.80424477485496
 20
19.356846757455038
 30
0.0
 11
548.54357446936467
 21
19.356846757455038
 31
0.0
 12
548.43397797065938
 22
19.253139492683172
 32
0.0
 13
548.43397797065938
 23
19.253139492683172
 33
0.0
210
0.0
220
0.0
230
-1.0
  0
SOLID
  5
75F
  8
0
  6
CONTINUOUS
 10
-461.74183889811792
 20
19.27177416751514
 30
0.0
 11
-461.92500000000069
 21
19.131229710892459
 31
0.0
 12
-460.52627369417098
 22
19.131229710892459
 32
0.0
 13
-460.52627369417098
 23
19.131229710892459
 33
0.0
210
0.0
220
0.0
230
1.0
  0
SOLID
  5
760
  8
0
  6
CONTINUOUS
 10
461.74183889811792
 20
19.27177416751514
 30
0.0
 11
460.41843013959368
 21
19.27177416751514
 31
0.0
 12
460.52627369417098
 22
19.131229710892459
 32
0.0
 13
460.52627369417098
 23
19.131229710892459
 33
0.0
210
0.0
220
0.0
230
-1.0
  0
SOLID
  5
761
  8
0
  6
CONTINUOUS
 10
-549.73382826771285
 20
19.253139492683172
 30
0.0
 11
-549.60153290348717
 21
19.058298951414798
 31
0.0
 12
-548.10987808020752
 22
19.058298951414798
 32
0.0
 13
-548.10987808020752
 23
19.058298951414798
 33
0.0
210
0.0
220
0.0
230
1.0
  0
SOLID
  5
762
  8
0
  6
CONTINUOUS
 10
549.73382826771285
 20
19.253139492683172
 30
0.0
 11
548.43397797065938
 21
19.253139492683172
 31
0.0
 12
548.10987808020752
 22
19.058298951414798
 32
0.0
 13
548.10987808020752
 23
19.058298951414798
 33
0.0
210
0.0
220
0.0
230
-1.0
  0
SOLID
  5
763
  8
0
  6
CONTINUOUS
 10
-461.92500000000069
 20
19.131229710892459
 30
0.0
 11
-462.34706667107122
 21
18.956403971509442
 31
0.0
 12
-460.66042220219299
 22
18.956403971509442
 32
0.0
 13
-460.66042220219299
 23
18.956403971509442
 33
0.0
210
0.0
220
0.0
230
1.0
  0
SOLID
  5
764
  8
0
  6
CONTINUOUS
 10
461.92500000000069
 20
19.131229710892459
 30
0.0
 11
460.52627369417098
 21
19.131229710892459
 31
0.0
 12
460.66042220219299
 22
18.956403971509442
 32
0.0
 13
460.66042220219299
 23
18.956403971509442
 33
0.0
210
0.0
220
0.0
230
-1.0
  0
SOLID
  5
765
  8
0
  6
CONTINUOUS
 10
-462.34706667107122
 20
18.956403971509442
 30
0.0
 11
-462.48965142947623
 21
18.93763233194754
 31
0.0
 12
-460.67482618783743
 22
18.93763233194754
 32
0.0
 13
-460.67482618783743
 23
18.93763233194754
 33
0.0
210
0.0
220
0.0
230
1.0
  0
SOLID
  5
766
  8
0
  6
CONTINUOUS
 10
462.34706667107122
 20
18.956403971509442
 30
0.0
 11
460.66042220219299
 21
18.956403971509442
 31
0.0
 12
460.67482618783743
 22
18.93763233194754
 32
0.0
 13
460.67482618783743
 23
18.93763233194754
 33
0.0
210
0.0
220
0.0
230
-1.0
  0
SOLID
  5
767
  8
0
  6
CONTINUOUS
 10
-549.60153290348717
 20
19.058298951414798
 30
0.0
 11
-549.51960111317112
 21
18.93763233194754
 31
0.0
 12
-547.75148842848876
 22
18.93763233194754
 32
0.0
 13
-547.75148842848876
 23
18.93763233194754
 33
0.0
210
0.0
220
0.0
230
1.0
  0
SOLID
  5
768
  8
0
  6
CONTINUOUS
 10
549.60153290348717
 20
19.058298951414798
 30
0.0
 11
548.10987808020752
 21
19.058298951414798
 31
0.0
 12
547.75148842848876
 22
18.93763233194754
 32
0.0
 13
547.75148842848876
 23
18.93763233194754
 33
0.0
210
0.0
220
0.0
230
-1.0
  0
SOLID
  5
769
  8
0
  6
CONTINUOUS
 10
-462.48965142947623
 20
18.93763233194754
 30
0.0
 11
-462.80000000000058
 21
18.89677416751536
 31
0.0
 12
-460.7061777600855
 22
18.89677416751536
 32
0.0
 13
-460.7061777600855
 23
18.89677416751536
 33
0.0
  0
SOLID
  5
76A
  8
0
  6
CONTINUOUS
 10
462.48965142947623
 20
18.93763233194754
 30
0.0
 11
460.67482618783743
 21
18.93763233194754
 31
0.0
 12
460.7061777600855
 22
18.89677416751536
 32
0.0
 13
460.7061777600855
 23
18.89677416751536
 33
0.0
210
0.0
220
0.0
230
-1.0
  0
SOLID
  5
76B
  8
0
  6
CONTINUOUS
 10
-549.51960111317112
 20
18.93763233194754
 30
0.0
 11
-549.49185870540555
 21
18.89677416751536
 31
0.0
 12
-462.80000000000058
 22
18.89677416751536
 32
0.0
 13
-462.80000000000058
 23
18.89677416751536
 33
0.0
210
0.0
220
0.0
230
1.0
  0
SOLID
  5
76C
  8
0
  6
CONTINUOUS
 10
549.51960111317112
 20
18.93763233194754
 30
0.0
 11
547.75148842848876
 21
18.93763233194754
 31
0.0
 12
462.80000000000058
 22
18.89677416751536
 32
0.0
 13
462.80000000000058
 23
18.89677416751536
 33
0.0
210
0.0
220
0.0
230
-1.0
  0
SOLID
  5
76D
  8
0
  6
CONTINUOUS
 10
-549.49185870540555
 20
18.89677416751536
 30
0.0
 11
-549.47043150051945
 21
18.86521683954469
 31
0.0
 12
-460.73039254950589
 22
18.86521683954469
 32
0.0
 13
-460.73039254950589
 23
18.86521683954469
 33
0.0
210
0.0
220
0.0
230
1.0
  0
SOLID
  5
76E
  8
0
  6
CONTINUOUS
 10
549.49185870540555
 20
18.89677416751536
 30
0.0
 11
460.7061777600855
 21
18.89677416751536
 31
0.0
 12
460.73039254950589
 22
18.86521683954469
 32
0.0
 13
460.73039254950589
 23
18.86521683954469
 33
0.0
210
0.0
220
0.0
230
-1.0
  0
SOLID
  5
76F
  8
0
  6
CONTINUOUS
 10
-549.47043150051945
 20
18.86521683954469
 30
0.0
 11
-549.29818966114385
 21
18.702230519252101
 31
0.0
 12
-460.85545635173781
 22
18.702230519252101
 32
0.0
 13
-460.85545635173781
 23
18.702230519252101
 33
0.0
210
0.0
220
0.0
230
1.0
  0
SOLID
  5
770
  8
0
  6
CONTINUOUS
 10
549.47043150051945
 20
18.86521683954469
 30
0.0
 11
460.73039254950589
 21
18.86521683954469
 31
0.0
 12
460.85545635173781
 22
18.702230519252101
 32
0.0
 13
460.85545635173781
 23
18.702230519252101
 33
0.0
210
0.0
220
0.0
230
-1.0
  0
SOLID
  5
771
  8
0
  6
CONTINUOUS
 10
-549.29818966114385
 20
18.702230519252101
 30
0.0
 11
-549.03879736164174
 21
18.456776821350559
 31
0.0
 12
-461.1753378387009
 22
18.456776821350559
 32
0.0
 13
-461.1753378387009
 23
18.456776821350559
 33
0.0
210
0.0
220
0.0
230
1.0
  0
SOLID
  5
772
  8
0
  6
CONTINUOUS
 10
549.29818966114385
 20
18.702230519252101
 30
0.0
 11
460.85545635173781
 21
18.702230519252101
 31
0.0
 12
461.1753378387009
 22
18.456776821350559
 32
0.0
 13
461.1753378387009
 23
18.456776821350559
 33
0.0
210
0.0
220
0.0
230
-1.0
  0
SOLID
  5
773
  8
0
  6
CONTINUOUS
 10
-549.03879736164174
 20
18.456776821350559
 30
0.0
 11
-548.72013354313958
 21
18.265204307108121
 31
0.0
 12
-461.42500000000069
 22
18.265204307108121
 32
0.0
 13
-461.42500000000069
 23
18.265204307108121
 33
0.0
210
0.0
220
0.0
230
1.0
  0
SOLID
  5
774
  8
0
  6
CONTINUOUS
 10
549.03879736164174
 20
18.456776821350559
 30
0.0
 11
461.1753378387009
 21
18.456776821350559
 31
0.0
 12
461.42500000000069
 22
18.265204307108121
 32
0.0
 13
461.42500000000069
 23
18.265204307108121
 33
0.0
210
0.0
220
0.0
230
-1.0
  0
SOLID
  5
775
  8
0
  6
CONTINUOUS
 10
-548.72013354313958
 20
18.265204307108121
 30
0.0
 11
-548.52949753378834
 21
18.15059882792881
 31
0.0
 12
-461.70168210215758
 22
18.15059882792881
 32
0.0
 13
-461.70168210215758
 23
18.15059882792881
 33
0.0
210
0.0
220
0.0
230
1.0
  0
SOLID
  5
776
  8
0
  6
CONTINUOUS
 10
548.72013354313958
 20
18.265204307108121
 30
0.0
 11
461.42500000000069
 21
18.265204307108121
 31
0.0
 12
461.70168210215758
 22
18.15059882792881
 32
0.0
 13
461.70168210215758
 23
18.15059882792881
 33
0.0
210
0.0
220
0.0
230
-1.0
  0
SOLID
  5
777
  8
0
  6
CONTINUOUS
 10
-548.52949753378834
 20
18.15059882792881
 30
0.0
 11
-548.0539261126097
 21
17.990478145220361
 31
0.0
 12
-462.08824762596868
 22
17.990478145220361
 32
0.0
 13
-462.08824762596868
 23
17.990478145220361
 33
0.0
210
0.0
220
0.0
230
1.0
  0
SOLID
  5
778
  8
0
  6
CONTINUOUS
 10
548.52949753378834
 20
18.15059882792881
 30
0.0
 11
461.70168210215758
 21
18.15059882792881
 31
0.0
 12
462.08824762596868
 22
17.990478145220361
 32
0.0
 13
462.08824762596868
 23
17.990478145220361
 33
0.0
210
0.0
220
0.0
230
-1.0
  0
SOLID
  5
779
  8
0
  6
CONTINUOUS
 10
-548.0539261126097
 20
17.990478145220361
 30
0.0
 11
-547.96631379537314
 21
17.9609798544803
 31
0.0
 12
-462.31230938917582
 22
17.9609798544803
 32
0.0
 13
-462.31230938917582
 23
17.9609798544803
 33
0.0
210
0.0
220
0.0
230
1.0
  0
SOLID
  5
77A
  8
0
  6
CONTINUOUS
 10
548.0539261126097
 20
17.990478145220361
 30
0.0
 11
462.08824762596868
 21
17.990478145220361
 31
0.0
 12
462.31230938917582
 22
17.9609798544803
 32
0.0
 13
462.31230938917582
 23
17.9609798544803
 33
0.0
210
0.0
220
0.0
230
-1.0
  0
SOLID
  5
77B
  8
0
  6
CONTINUOUS
 10
-547.96631379537314
 20
17.9609798544803
 30
0.0
 11
-547.37554403644117
 21
17.896774167515321
 31
0.0
 12
-462.80000000000052
 22
17.896774167515321
 32
0.0
 13
-462.80000000000052
 23
17.896774167515321
 33
0.0
210
0.0
220
0.0
230
1.0
  0
SOLID
  5
77C
  8
0
  6
CONTINUOUS
 10
547.96631379537314
 20
17.9609798544803
 30
0.0
 11
462.31230938917582
 21
17.9609798544803
 31
0.0
 12
462.80000000000052
 22
17.896774167515321
 32
0.0
 13
462.80000000000052
 23
17.896774167515321
 33
0.0
210
0.0
220
0.0
230
-1.0
  0
LINE
  5
77D
  8
0
  6
CONTINUOUS
 10
-577.46130677724057
 20
110.8114641914289
 30
0.0
 11
-590.69149628925175
 21
110.7648641205929
 31
0.0
  0
LINE
  5
77E
  8
0
  6
CONTINUOUS
 10
-577.10734409753411
 20
110.7648641205929
 30
0.0
 11
-577.46130677724057
 21
110.8114641914289
 31
0.0
  0
LINE
  5
77F
  8
0
  6
CONTINUOUS
 10
-590.69149628925175
 20
110.7648641205929
 30
0.0
 11
-590.72753385466149
 21
110.7518343874348
 31
0.0
  0
LINE
  5
780
  8
0
  6
CONTINUOUS
 10
-577.10734409753411
 20
110.7648641205929
 30
0.0
 11
-577.00837344831132
 21
110.7518343874348
 31
0.0
  0
LINE
  5
781
  8
0
  6
CONTINUOUS
 10
-590.72753385466149
 20
110.7518343874348
 30
0.0
 11
-591.07129083749078
 21
110.6275456984918
 31
0.0
  0
LINE
  5
782
  8
0
  6
CONTINUOUS
 10
-577.00837344831132
 20
110.7518343874348
 30
0.0
 11
-576.70831400981524
 21
110.6275456984918
 31
0.0
  0
LINE
  5
783
  8
0
  6
CONTINUOUS
 10
-591.07129083749078
 20
110.6275456984918
 30
0.0
 11
-591.14872610085331
 21
110.5770086480518
 31
0.0
  0
LINE
  5
784
  8
0
  6
CONTINUOUS
 10
-576.70831400981524
 20
110.6275456984918
 30
0.0
 11
-576.58630677724057
 21
110.5770086480518
 31
0.0
  0
LINE
  5
785
  8
0
  6
CONTINUOUS
 10
-591.14872610085331
 20
110.5770086480518
 30
0.0
 11
-591.40949395866255
 21
110.40682212306309
 31
0.0
  0
LINE
  5
786
  8
0
  6
CONTINUOUS
 10
-576.58630677724057
 20
110.5770086480518
 30
0.0
 11
-576.36451537975984
 21
110.40682212306309
 31
0.0
  0
LINE
  5
787
  8
0
  6
CONTINUOUS
 10
-591.40949395866255
 20
110.40682212306309
 30
0.0
 11
-591.51233088082995
 21
110.29890105850539
 31
0.0
  0
LINE
  5
788
  8
0
  6
CONTINUOUS
 10
-576.36451537975984
 20
110.40682212306309
 30
0.0
 11
-576.22386991016424
 21
110.29890105850539
 31
0.0
  0
LINE
  5
789
  8
0
  6
CONTINUOUS
 10
-591.51233088082995
 20
110.29890105850539
 30
0.0
 11
-591.68809389344983
 21
110.114448519164
 31
0.0
  0
LINE
  5
78A
  8
0
  6
CONTINUOUS
 10
-576.22386991016424
 20
110.29890105850539
 30
0.0
 11
-576.08233449872625
 21
110.114448519164
 31
0.0
  0
LINE
  5
78B
  8
0
  6
CONTINUOUS
 10
-591.68809389344983
 20
110.114448519164
 30
0.0
 11
-591.79237536863116
 21
109.936464191429
 31
0.0
  0
LINE
  5
78C
  8
0
  6
CONTINUOUS
 10
-576.08233449872625
 20
110.114448519164
 30
0.0
 11
-575.94576232061797
 21
109.936464191429
 31
0.0
  0
LINE
  5
78D
  8
0
  6
CONTINUOUS
 10
-591.79237536863116
 20
109.936464191429
 30
0.0
 11
-591.86561318998065
 21
109.8114641914289
 31
0.0
  0
LINE
  5
78E
  8
0
  6
CONTINUOUS
 10
-575.94576232061797
 20
109.936464191429
 30
0.0
 11
-575.89398562532131
 21
109.8114641914289
 31
0.0
  0
LINE
  5
78F
  8
0
  6
CONTINUOUS
 10
-575.89398562532131
 20
109.8114641914289
 30
0.0
 11
-575.88571317617175
 21
109.7914927324981
 31
0.0
  0
LINE
  5
790
  8
0
  6
CONTINUOUS
 10
-591.86561318998065
 20
109.8114641914289
 30
0.0
 11
-591.87731451911066
 21
109.7914927324981
 31
0.0
  0
LINE
  5
791
  8
0
  6
CONTINUOUS
 10
-580.11288521626875
 20
109.7914927324981
 30
0.0
 11
-577.26719249341375
 21
109.7859085611458
 31
0.0
  0
LINE
  5
792
  8
0
  6
CONTINUOUS
 10
-575.88571317617175
 20
109.7914927324981
 30
0.0
 11
-575.88340013666289
 21
109.7859085611458
 31
0.0
  0
LINE
  5
793
  8
0
  6
CONTINUOUS
 10
-591.87731451911066
 20
109.7914927324981
 30
0.0
 11
-591.89225318277136
 21
109.7659958932532
 31
0.0
  0
LINE
  5
794
  8
0
  6
CONTINUOUS
 10
-590.46226247665288
 20
109.7914927324981
 30
0.0
 11
-590.51339243146685
 21
109.7659958932532
 31
0.0
  0
LINE
  5
795
  8
0
  6
CONTINUOUS
 10
-591.89225318277136
 20
109.7659958932532
 30
0.0
 11
-591.92621246009219
 21
109.63804616212821
 31
0.0
  0
LINE
  5
796
  8
0
  6
CONTINUOUS
 10
-590.51339243146685
 20
109.7659958932532
 30
0.0
 11
-590.76997576354358
 21
109.63804616212821
 31
0.0
  0
LINE
  5
797
  8
0
  6
CONTINUOUS
 10
-577.26719249341375
 20
109.7859085611458
 30
0.0
 11
-576.93097669135068
 21
109.5917942773189
 31
0.0
  0
LINE
  5
798
  8
0
  6
CONTINUOUS
 10
-575.88340013666289
 20
109.7859085611458
 30
0.0
 11
-575.80299536765153
 21
109.5917942773189
 31
0.0
  0
LINE
  5
799
  8
0
  6
CONTINUOUS
 10
-576.93097669135068
 20
109.5917942773189
 30
0.0
 11
-576.88629165288523
 21
109.5143975203584
 31
0.0
  0
LINE
  5
79A
  8
0
  6
CONTINUOUS
 10
-575.80299536765153
 20
109.5917942773189
 30
0.0
 11
-575.77093658123465
 21
109.5143975203584
 31
0.0
  0
LINE
  5
79B
  8
0
  6
CONTINUOUS
 10
-591.92621246009219
 20
109.63804616212821
 30
0.0
 11
-591.99910491155219
 21
109.3634063493521
 31
0.0
  0
LINE
  5
79C
  8
0
  6
CONTINUOUS
 10
-590.76997576354358
 20
109.63804616212821
 30
0.0
 11
-590.97687257387611
 21
109.3634063493521
 31
0.0
  0
LINE
  5
79D
  8
0
  6
CONTINUOUS
 10
-576.88629165288523
 20
109.5143975203584
 30
0.0
 11
-576.73686240752374
 21
109.2555784752559
 31
0.0
  0
LINE
  5
79E
  8
0
  6
CONTINUOUS
 10
-575.77093658123465
 20
109.5143975203584
 30
0.0
 11
-575.73686240752386
 21
109.2555784752559
 31
0.0
  0
LINE
  5
79F
  8
0
  6
CONTINUOUS
 10
-576.73686240752374
 20
109.2555784752559
 30
0.0
 11
-576.72636488287299
 21
109.17584185921621
 31
0.0
  0
LINE
  5
7A0
  8
0
  6
CONTINUOUS
 10
-575.73686240752386
 20
109.2555784752559
 30
0.0
 11
-575.7263648828731
 21
109.17584185921621
 31
0.0
  0
LINE
  5
7A1
  8
0
  6
CONTINUOUS
 10
-591.99910491155219
 20
109.3634063493521
 30
0.0
 11
-592.04892390537816
 21
109.17570132828379
 31
0.0
  0
LINE
  5
7A2
  8
0
  6
CONTINUOUS
 10
-590.97687257387611
 20
109.3634063493521
 30
0.0
 11
-591.01197580698624
 21
109.17570132828379
 31
0.0
  0
LINE
  5
7A3
  8
0
  6
CONTINUOUS
 10
-576.72636488287299
 20
109.17584185921621
 30
0.0
 11
-576.71130677724057
 21
109.061464191429
 31
0.0
  0
LINE
  5
7A4
  8
0
  6
CONTINUOUS
 10
-575.7263648828731
 20
109.17584185921621
 30
0.0
 11
-575.72574425301991
 21
109.061464191429
 31
0.0
  0
LINE
  5
7A5
  8
0
  6
CONTINUOUS
 10
-576.71130677724057
 20
109.061464191429
 30
0.0
 11
-576.71130677724057
 21
106.40074009030479
 31
0.0
  0
LINE
  5
7A6
  8
0
  6
CONTINUOUS
 10
-575.72574425301991
 20
109.061464191429
 30
0.0
 11
-575.71130677724057
 21
106.40074009030479
 31
0.0
  0
LINE
  5
7A7
  8
0
  6
CONTINUOUS
 10
-592.04892390537816
 20
109.17570132828379
 30
0.0
 11
-594.00700361319207
 21
98.598688275643852
 31
0.0
  0
LINE
  5
7A8
  8
0
  6
CONTINUOUS
 10
-591.01197580698624
 20
109.17570132828379
 30
0.0
 11
-592.99001215722808
 21
98.598688275643852
 31
0.0
  0
LINE
  5
7A9
  8
0
  6
CONTINUOUS
 10
-594.00700361319207
 20
98.598688275643852
 30
0.0
 11
-594.04612532181716
 21
98.387363465362824
 31
0.0
  0
LINE
  5
7AA
  8
0
  6
CONTINUOUS
 10
-592.99001215722808
 20
98.598688275643852
 30
0.0
 11
-593.01599294923449
 21
98.387363465362824
 31
0.0
  0
LINE
  5
7AB
  8
0
  6
CONTINUOUS
 10
-594.04612532181716
 20
98.387363465362824
 30
0.0
 11
-594.08435155780194
 21
97.790229448232623
 31
0.0
  0
LINE
  5
7AC
  8
0
  6
CONTINUOUS
 10
-593.01599294923449
 20
98.387363465362824
 30
0.0
 11
-593.08940607416935
 21
97.790229448232623
 31
0.0
  0
LINE
  5
7AD
  8
0
  6
CONTINUOUS
 10
-594.08435155780194
 20
97.790229448232623
 30
0.0
 11
-594.08788317976189
 21
97.735061798223512
 31
0.0
  0
LINE
  5
7AE
  8
0
  6
CONTINUOUS
 10
-593.08940607416935
 20
97.790229448232623
 30
0.0
 11
-593.07969062408529
 21
97.735061798223512
 31
0.0
  0
LINE
  5
7AF
  8
0
  6
CONTINUOUS
 10
-594.08788317976189
 20
97.735061798223512
 30
0.0
 11
-594.025456645791
 21
97.380582577230641
 31
0.0
  0
LINE
  5
7B0
  8
0
  6
CONTINUOUS
 10
-593.07969062408529
 20
97.735061798223512
 30
0.0
 11
-593.0172640901144
 21
97.380582577230641
 31
0.0
  0
LINE
  5
7B1
  8
0
  6
CONTINUOUS
 10
-594.025456645791
 20
97.380582577230641
 30
0.0
 11
-593.97451720481831
 21
97.091331000934815
 31
0.0
  0
LINE
  5
7B2
  8
0
  6
CONTINUOUS
 10
-593.0172640901144
 20
97.380582577230641
 30
0.0
 11
-592.89066170266369
 21
97.091331000934815
 31
0.0
  0
LINE
  5
7B3
  8
0
  6
CONTINUOUS
 10
-593.97451720481831
 20
97.091331000934815
 30
0.0
 11
-593.93433808171903
 21
96.999532774024047
 31
0.0
  0
LINE
  5
7B4
  8
0
  6
CONTINUOUS
 10
-592.89066170266369
 20
97.091331000934815
 30
0.0
 11
-592.85048257956441
 21
96.999532774024047
 31
0.0
  0
LINE
  5
7B5
  8
0
  6
CONTINUOUS
 10
-593.93433808171903
 20
96.999532774024047
 30
0.0
 11
-593.78949548016044
 21
96.668607333680825
 31
0.0
  0
LINE
  5
7B6
  8
0
  6
CONTINUOUS
 10
-592.85048257956441
 20
96.999532774024047
 30
0.0
 11
-592.59848381425218
 21
96.668607333680825
 31
0.0
  0
LINE
  5
7B7
  8
0
  6
CONTINUOUS
 10
-593.78949548016044
 20
96.668607333680825
 30
0.0
 11
-593.71243197395415
 21
96.492538453038875
 31
0.0
  0
LINE
  5
7B8
  8
0
  6
CONTINUOUS
 10
-592.59848381425218
 20
96.668607333680825
 30
0.0
 11
-592.3236878588483
 21
96.492538453038875
 31
0.0
  0
LINE
  5
7B9
  8
0
  6
CONTINUOUS
 10
-593.71243197395415
 20
96.492538453038875
 30
0.0
 11
-593.31643391417788
 21
95.972512761071215
 31
0.0
  0
LINE
  5
7BA
  8
0
  6
CONTINUOUS
 10
-592.3236878588483
 20
96.492538453038875
 30
0.0
 11
-591.51206824533244
 21
95.972512761071215
 31
0.0
  0
LINE
  5
7BB
  8
0
  6
CONTINUOUS
 10
-593.31643391417788
 20
95.972512761071215
 30
0.0
 11
-592.80889481785789
 21
95.560632621516618
 31
0.0
  0
LINE
  5
7BC
  8
0
  6
CONTINUOUS
 10
-591.51206824533244
 20
95.972512761071215
 30
0.0
 11
-590.86923462221796
 21
95.560632621516618
 31
0.0
  0
LINE
  5
7BD
  8
0
  6
CONTINUOUS
 10
-462.30000000000177
 20
94.396774167516071
 30
0.0
 11
-462.8823428514828
 21
94.320107276666434
 31
0.0
  0
LINE
  5
7BE
  8
0
  6
CONTINUOUS
 10
-461.71765714852091
 20
94.320107276666434
 30
0.0
 11
-462.30000000000177
 21
94.396774167516071
 31
0.0
  0
LINE
  5
7BF
  8
0
  6
CONTINUOUS
 10
-462.8823428514828
 20
94.320107276666434
 30
0.0
 11
-463.42500000000229
 21
94.095331326030902
 31
0.0
  0
LINE
  5
7C0
  8
0
  6
CONTINUOUS
 10
-461.71765714852091
 20
94.320107276666434
 30
0.0
 11
-461.17500000000138
 21
94.095331326030902
 31
0.0
  0
LINE
  5
7C1
  8
0
  6
CONTINUOUS
 10
-463.42500000000229
 20
94.095331326030902
 30
0.0
 11
-463.89099025767217
 21
93.737764425185446
 31
0.0
  0
LINE
  5
7C2
  8
0
  6
CONTINUOUS
 10
-461.17500000000138
 20
94.095331326030902
 30
0.0
 11
-460.70900974233149
 21
93.737764425185446
 31
0.0
  0
LINE
  5
7C3
  8
0
  6
CONTINUOUS
 10
-463.89099025767217
 20
93.737764425185446
 30
0.0
 11
-464.15264128501991
 21
93.396774167516014
 31
0.0
  0
LINE
  5
7C4
  8
0
  6
CONTINUOUS
 10
-460.70900974233149
 20
93.737764425185446
 30
0.0
 11
-460.44735871498381
 21
93.396774167516014
 31
0.0
  0
LINE
  5
7C5
  8
0
  6
CONTINUOUS
 10
-462.30000000000177
 20
93.396774167516014
 30
0.0
 11
-461.97647619362237
 21
93.354181450377354
 31
0.0
  0
LINE
  5
7C6
  8
0
  6
CONTINUOUS
 10
-460.44735871498381
 20
93.396774167516014
 30
0.0
 11
-460.4146761736319
 21
93.354181450377354
 31
0.0
  0
LINE
  5
7C7
  8
0
  6
CONTINUOUS
 10
-464.15264128501991
 20
93.396774167516014
 30
0.0
 11
-464.1853238263717
 21
93.354181450377354
 31
0.0
  0
LINE
  5
7C8
  8
0
  6
CONTINUOUS
 10
-462.30000000000177
 20
93.396774167516014
 30
0.0
 11
-462.62352380638021
 21
93.354181450377354
 31
0.0
  0
LINE
  5
7C9
  8
0
  6
CONTINUOUS
 10
-461.97647619362311
 20
93.354181450377354
 30
0.0
 11
-461.77752741370011
 21
93.271774167515645
 31
0.0
  0
LINE
  5
7CA
  8
0
  6
CONTINUOUS
 10
-460.4146761736319
 20
93.354181450377354
 30
0.0
 11
-460.35144284148612
 21
93.271774167515645
 31
0.0
  0
LINE
  5
7CB
  8
0
  6
CONTINUOUS
 10
-464.1853238263717
 20
93.354181450377354
 30
0.0
 11
-464.2485571585176
 21
93.271774167515645
 31
0.0
  0
LINE
  5
7CC
  8
0
  6
CONTINUOUS
 10
-462.62352380638021
 20
93.354181450377354
 30
0.0
 11
-462.82247258630338
 21
93.271774167515645
 31
0.0
  0
LINE
  5
7CD
  8
0
  6
CONTINUOUS
 10
-461.77752741370011
 20
93.271774167515645
 30
0.0
 11
-461.67500000000138
 21
93.229305922246553
 31
0.0
  0
LINE
  5
7CE
  8
0
  6
CONTINUOUS
 10
-460.35144284148612
 20
93.271774167515645
 30
0.0
 11
-460.33385191832542
 21
93.229305922246553
 31
0.0
  0
LINE
  5
7CF
  8
0
  6
CONTINUOUS
 10
-464.2485571585176
 20
93.271774167515645
 30
0.0
 11
-464.26614808167818
 21
93.229305922246553
 31
0.0
  0
LINE
  5
7D0
  8
0
  6
CONTINUOUS
 10
-462.82247258630338
 20
93.271774167515645
 30
0.0
 11
-462.92500000000229
 21
93.229305922246553
 31
0.0
  0
LINE
  5
7D1
  8
0
  6
CONTINUOUS
 10
-461.67500000000138
 20
93.229305922246553
 30
0.0
 11
-461.41611652351781
 21
93.030657643998865
 31
0.0
  0
LINE
  5
7D2
  8
0
  6
CONTINUOUS
 10
-460.33385191832542
 20
93.229305922246553
 30
0.0
 11
-460.25156910733318
 21
93.030657643998865
 31
0.0
  0
LINE
  5
7D3
  8
0
  6
CONTINUOUS
 10
-464.26614808167818
 20
93.229305922246553
 30
0.0
 11
-464.34843089267048
 21
93.030657643998865
 31
0.0
  0
LINE
  5
7D4
  8
0
  6
CONTINUOUS
 10
-462.92500000000229
 20
93.229305922246553
 30
0.0
 11
-463.18388347648568
 21
93.030657643998865
 31
0.0
  0
LINE
  5
7D5
  8
0
  6
CONTINUOUS
 10
-592.80889481785789
 20
95.560632621516618
 30
0.0
 11
-588.71176953181873
 21
92.977056469710377
 31
0.0
  0
LINE
  5
7D6
  8
0
  6
CONTINUOUS
 10
-590.86923462221796
 20
95.560632621516618
 30
0.0
 11
-586.83697023565696
 21
92.977056469710377
 31
0.0
  0
LINE
  5
7D7
  8
0
  6
CONTINUOUS
 10
-461.41611652351781
 20
93.030657643998865
 30
0.0
 11
-461.2174682452706
 21
92.771774167515616
 31
0.0
  0
LINE
  5
7D8
  8
0
  6
CONTINUOUS
 10
-460.25156910733318
 20
93.030657643998865
 30
0.0
 11
-460.14433606029962
 21
92.771774167515616
 31
0.0
  0
LINE
  5
7D9
  8
0
  6
CONTINUOUS
 10
-464.34843089267048
 20
93.030657643998865
 30
0.0
 11
-464.45566393970421
 21
92.771774167515616
 31
0.0
  0
LINE
  5
7DA
  8
0
  6
CONTINUOUS
 10
-463.18388347648568
 20
93.030657643998865
 30
0.0
 11
-463.38253175473329
 21
92.771774167515616
 31
0.0
  0
LINE
  5
7DB
  8
0
  6
CONTINUOUS
 10
-461.2174682452706
 20
92.771774167515616
 30
0.0
 11
-461.1997990758216
 21
92.729117018996064
 31
0.0
  0
LINE
  5
7DC
  8
0
  6
CONTINUOUS
 10
-460.14433606029962
 20
92.771774167515616
 30
0.0
 11
-460.12666689085057
 21
92.729117018996064
 31
0.0
  0
LINE
  5
7DD
  8
0
  6
CONTINUOUS
 10
-464.45566393970421
 20
92.771774167515616
 30
0.0
 11
-464.4733331091532
 21
92.729117018996064
 31
0.0
  0
LINE
  5
7DE
  8
0
  6
CONTINUOUS
 10
-463.38253175473329
 20
92.771774167515616
 30
0.0
 11
-463.40020092418217
 21
92.729117018996064
 31
0.0
  0
LINE
  5
7DF
  8
0
  6
CONTINUOUS
 10
-461.1997990758216
 20
92.729117018996064
 30
0.0
 11
-461.09259271713961
 21
92.470297973893423
 31
0.0
  0
LINE
  5
7E0
  8
0
  6
CONTINUOUS
 10
-460.12666689085057
 20
92.729117018996064
 30
0.0
 11
-460.09259271713972
 21
92.470297973893423
 31
0.0
  0
LINE
  5
7E1
  8
0
  6
CONTINUOUS
 10
-464.4733331091532
 20
92.729117018996064
 30
0.0
 11
-464.50740728286411
 21
92.470297973893423
 31
0.0
  0
LINE
  5
7E2
  8
0
  6
CONTINUOUS
 10
-463.40020092418217
 20
92.729117018996064
 30
0.0
 11
-463.50740728286399
 21
92.470297973893423
 31
0.0
  0
LINE
  5
7E3
  8
0
  6
CONTINUOUS
 10
-461.09259271713961
 20
92.470297973893423
 30
0.0
 11
-461.05000000000092
 21
92.14677416751509
 31
0.0
  0
LINE
  5
7E4
  8
0
  6
CONTINUOUS
 10
-460.09259271713972
 20
92.470297973893423
 30
0.0
 11
-460.05000000000098
 21
92.14677416751509
 31
0.0
  0
LINE
  5
7E5
  8
0
  6
CONTINUOUS
 10
-464.50740728286411
 20
92.470297973893423
 30
0.0
 11
-464.5500000000028
 21
92.14677416751509
 31
0.0
  0
LINE
  5
7E6
  8
0
  6
CONTINUOUS
 10
-463.50740728286399
 20
92.470297973893423
 30
0.0
 11
-463.50999574841319
 21
92.14677416751509
 31
0.0
  0
LINE
  5
7E7
  8
0
  6
CONTINUOUS
 10
-588.71176953181873
 20
92.977056469710377
 30
0.0
 11
-587.37036066419375
 21
92.131187300899114
 31
0.0
  0
LINE
  5
7E8
  8
0
  6
CONTINUOUS
 10
-586.83697023565696
 20
92.977056469710377
 30
0.0
 11
-585.6695161862516
 21
92.131187300899114
 31
0.0
  0
LINE
  5
7E9
  8
0
  6
CONTINUOUS
 10
-587.37036066419375
 20
92.131187300899114
 30
0.0
 11
-585.42109144315191
 21
90.718860420340903
 31
0.0
  0
LINE
  5
7EA
  8
0
  6
CONTINUOUS
 10
-585.6695161862516
 20
92.131187300899114
 30
0.0
 11
-583.72024696520987
 21
90.718860420340903
 31
0.0
  0
LINE
  5
7EB
  8
0
  6
CONTINUOUS
 10
-585.42109144315191
 20
90.718860420340903
 30
0.0
 11
-584.3566695679765
 21
89.947642360599914
 31
0.0
  0
LINE
  5
7EC
  8
0
  6
CONTINUOUS
 10
-583.72024696520987
 20
90.718860420340903
 30
0.0
 11
-582.89544810790164
 21
89.947642360599914
 31
0.0
  0
LINE
  5
7ED
  8
0
  6
CONTINUOUS
 10
-584.3566695679765
 20
89.947642360599914
 30
0.0
 11
-582.41426267394286
 21
88.131418607656457
 31
0.0
  0
LINE
  5
7EE
  8
0
  6
CONTINUOUS
 10
-582.89544810790164
 20
89.947642360599914
 30
0.0
 11
-580.953041213868
 21
88.131418607656457
 31
0.0
  0
LINE
  5
7EF
  8
0
  6
CONTINUOUS
 10
-582.41426267394286
 20
88.131418607656457
 30
0.0
 11
-581.68094169271194
 21
87.445735814450373
 31
0.0
  0
LINE
  5
7F0
  8
0
  6
CONTINUOUS
 10
-580.953041213868
 20
88.131418607656457
 30
0.0
 11
-580.38524380978345
 21
87.445735814450373
 31
0.0
  0
LINE
  5
7F1
  8
0
  6
CONTINUOUS
 10
-464.5500000000028
 20
92.14677416751509
 30
0.0
 11
-464.5500000000028
 21
87.146774167515147
 31
0.0
  0
LINE
  5
7F2
  8
0
  6
CONTINUOUS
 10
-463.50999574841319
 20
92.14677416751509
 30
0.0
 11
-463.5500000000028
 21
87.146774167515147
 31
0.0
  0
LINE
  5
7F3
  8
0
  6
CONTINUOUS
 10
-581.68094169271194
 20
87.445735814450373
 30
0.0
 11
-579.81324934043994
 21
85.190275504588087
 31
0.0
  0
LINE
  5
7F4
  8
0
  6
CONTINUOUS
 10
-580.38524380978345
 20
87.445735814450373
 30
0.0
 11
-578.51755145751144
 21
85.190275504588087
 31
0.0
  0
LINE
  5
7F5
  8
0
  6
CONTINUOUS
 10
-579.81324934043994
 20
85.190275504588087
 30
0.0
 11
-579.32596399441661
 21
84.601820582557821
 31
0.0
  0
LINE
  5
7F6
  8
0
  6
CONTINUOUS
 10
-578.51755145751144
 20
85.190275504588087
 30
0.0
 11
-578.14301842901546
 21
84.601820582557821
 31
0.0
  0
LINE
  5
7F7
  8
0
  6
CONTINUOUS
 10
-461.05000000000092
 20
92.14677416751509
 30
0.0
 11
-461.05000000000092
 21
83.163337687424075
 31
0.0
  0
LINE
  5
7F8
  8
0
  6
CONTINUOUS
 10
-460.05000000000098
 20
92.14677416751509
 30
0.0
 11
-460.05000000000098
 21
83.163337687424075
 31
0.0
  0
LINE
  5
7F9
  8
0
  6
CONTINUOUS
 10
-579.32596399441661
 20
84.601820582557821
 30
0.0
 11
-577.65012783390057
 21
81.968797692341909
 31
0.0
  0
LINE
  5
7FA
  8
0
  6
CONTINUOUS
 10
-578.14301842901546
 20
84.601820582557821
 30
0.0
 11
-576.46718226849941
 21
81.968797692341909
 31
0.0
  0
LINE
  5
7FB
  8
0
  6
CONTINUOUS
 10
-577.65012783390057
 20
81.968797692341909
 30
0.0
 11
-577.34337560504139
 21
81.486837904600719
 31
0.0
  0
LINE
  5
7FC
  8
0
  6
CONTINUOUS
 10
-576.46718226849941
 20
81.968797692341909
 30
0.0
 11
-576.24059447058085
 21
81.486837904600719
 31
0.0
  0
LINE
  5
7FD
  8
0
  6
CONTINUOUS
 10
-577.34337560504139
 20
81.486837904600719
 30
0.0
 11
-576.10666276910229
 21
78.856308540788959
 31
0.0
  0
LINE
  5
7FE
  8
0
  6
CONTINUOUS
 10
-576.24059447058085
 20
81.486837904600719
 30
0.0
 11
-575.00388163464174
 21
78.856308540788959
 31
0.0
  0
LINE
  5
7FF
  8
0
  6
CONTINUOUS
 10
-576.10666276910229
 20
78.856308540788959
 30
0.0
 11
-575.78481565653658
 21
78.1717290202578
 31
0.0
  0
LINE
  5
800
  8
0
  6
CONTINUOUS
 10
-575.00388163464174
 20
78.856308540788959
 30
0.0
 11
-574.77321098985476
 21
78.1717290202578
 31
0.0
  0
LINE
  5
801
  8
0
  6
CONTINUOUS
 10
-575.78481565653658
 20
78.1717290202578
 30
0.0
 11
-574.71366508972505
 21
74.880482156865511
 31
0.0
  0
LINE
  5
802
  8
0
  6
CONTINUOUS
 10
-574.77321098985476
 20
78.1717290202578
 30
0.0
 11
-573.6642177854668
 21
74.880482156865511
 31
0.0
  0
LINE
  5
803
  8
0
  6
CONTINUOUS
 10
-574.71366508972505
 20
74.880482156865511
 30
0.0
 11
-574.63307110491894
 21
74.632846849635982
 31
0.0
  0
LINE
  5
804
  8
0
  6
CONTINUOUS
 10
-573.6642177854668
 20
74.880482156865511
 30
0.0
 11
-573.60092312139795
 21
74.632846849635982
 31
0.0
  0
LINE
  5
805
  8
0
  6
CONTINUOUS
 10
-574.63307110491894
 20
74.632846849635982
 30
0.0
 11
-569.34373791779706
 21
53.938754099449177
 31
0.0
  0
LINE
  5
806
  8
0
  6
CONTINUOUS
 10
-573.60092312139795
 20
74.632846849635982
 30
0.0
 11
-568.31158993427607
 21
53.938754099449177
 31
0.0
  0
LINE
  5
807
  8
0
  6
CONTINUOUS
 10
-569.34373791779706
 20
53.938754099449177
 30
0.0
 11
-569.18550125762488
 21
53.319665831375069
 31
0.0
  0
LINE
  5
808
  8
0
  6
CONTINUOUS
 10
-568.31158993427607
 20
53.938754099449177
 30
0.0
 11
-568.0883585590708
 21
53.319665831375069
 31
0.0
  0
LINE
  5
809
  8
0
  6
CONTINUOUS
 10
-569.18550125762488
 20
53.319665831375069
 30
0.0
 11
-567.18912495653512
 21
47.886544773823132
 31
0.0
  0
LINE
  5
80A
  8
0
  6
CONTINUOUS
 10
-568.0883585590708
 20
53.319665831375069
 30
0.0
 11
-566.12927913876945
 21
47.886544773823132
 31
0.0
  0
LINE
  5
80B
  8
0
  6
CONTINUOUS
 10
-567.18912495653512
 20
47.886544773823132
 30
0.0
 11
-567.02796880109884
 21
47.447959672819451
 31
0.0
  0
LINE
  5
80C
  8
0
  6
CONTINUOUS
 10
-566.12927913876945
 20
47.886544773823132
 30
0.0
 11
-565.8567972222686
 21
47.447959672819451
 31
0.0
  0
LINE
  5
80D
  8
0
  6
CONTINUOUS
 10
-567.02796880109884
 20
47.447959672819451
 30
0.0
 11
-564.10661818503274
 21
42.745772931517052
 31
0.0
  0
LINE
  5
80E
  8
0
  6
CONTINUOUS
 10
-565.8567972222686
 20
47.447959672819451
 30
0.0
 11
-562.93544660620273
 21
42.745772931517052
 31
0.0
  0
LINE
  5
80F
  8
0
  6
CONTINUOUS
 10
-564.10661818503274
 20
42.745772931517052
 30
0.0
 11
-563.7267805531518
 21
42.134388776990512
 31
0.0
  0
LINE
  5
810
  8
0
  6
CONTINUOUS
 10
-562.93544660620273
 20
42.745772931517052
 30
0.0
 11
-562.35470349060256
 21
42.134388776990512
 31
0.0
  0
LINE
  5
811
  8
0
  6
CONTINUOUS
 10
-563.7267805531518
 20
42.134388776990512
 30
0.0
 11
-560.13940340392128
 21
38.35773523356643
 31
0.0
  0
LINE
  5
812
  8
0
  6
CONTINUOUS
 10
-562.35470349060256
 20
42.134388776990512
 30
0.0
 11
-558.76732634137204
 21
38.35773523356643
 31
0.0
  0
LINE
  5
813
  8
0
  6
CONTINUOUS
 10
-560.13940340392128
 20
38.35773523356643
 30
0.0
 11
-559.41855540546965
 21
37.598854013562502
 31
0.0
  0
LINE
  5
814
  8
0
  6
CONTINUOUS
 10
-558.76732634137204
 20
38.35773523356643
 30
0.0
 11
-557.88299740425225
 21
37.598854013562502
 31
0.0
  0
LINE
  5
815
  8
0
  6
CONTINUOUS
 10
-559.41855540546965
 20
37.598854013562502
 30
0.0
 11
-556.40982853723324
 21
35.016934299544523
 31
0.0
  0
LINE
  5
816
  8
0
  6
CONTINUOUS
 10
-557.88299740425225
 20
37.598854013562502
 30
0.0
 11
-554.87427053601584
 21
35.016934299544523
 31
0.0
  0
LINE
  5
817
  8
0
  6
CONTINUOUS
 10
-556.40982853723324
 20
35.016934299544523
 30
0.0
 11
-555.52549960011333
 21
34.258053079540453
 31
0.0
  0
LINE
  5
818
  8
0
  6
CONTINUOUS
 10
-554.87427053601584
 20
35.016934299544523
 30
0.0
 11
-554.08631069543901
 21
34.258053079540453
 31
0.0
  0
LINE
  5
819
  8
0
  6
CONTINUOUS
 10
-555.52549960011333
 20
34.258053079540453
 30
0.0
 11
-554.8935630543325
 21
33.646127752762553
 31
0.0
  0
LINE
  5
81A
  8
0
  6
CONTINUOUS
 10
-554.08631069543901
 20
34.258053079540453
 30
0.0
 11
-553.45093776720887
 21
33.646127752762553
 31
0.0
  0
LINE
  5
81B
  8
0
  6
CONTINUOUS
 10
-554.8935630543325
 20
33.646127752762553
 30
0.0
 11
-553.90064184144592
 21
32.684648880054439
 31
0.0
  0
LINE
  5
81C
  8
0
  6
CONTINUOUS
 10
-553.45093776720887
 20
33.646127752762553
 30
0.0
 11
-552.63399644702054
 21
32.684648880054439
 31
0.0
  0
LINE
  5
81D
  8
0
  6
CONTINUOUS
 10
-553.90064184144592
 20
32.684648880054439
 30
0.0
 11
-553.01679938560005
 21
31.612444883402311
 31
0.0
  0
LINE
  5
81E
  8
0
  6
CONTINUOUS
 10
-552.63399644702054
 20
32.684648880054439
 30
0.0
 11
-551.72297513038041
 21
31.612444883402311
 31
0.0
  0
LINE
  5
81F
  8
0
  6
CONTINUOUS
 10
-553.01679938560005
 20
31.612444883402311
 30
0.0
 11
-552.52982372068197
 21
31.021686597528959
 31
0.0
  0
LINE
  5
820
  8
0
  6
CONTINUOUS
 10
-551.72297513038041
 20
31.612444883402311
 30
0.0
 11
-551.29043381281099
 21
31.021686597528959
 31
0.0
  0
LINE
  5
821
  8
0
  6
CONTINUOUS
 10
-552.52982372068197
 20
31.021686597528959
 30
0.0
 11
-552.25099161407979
 21
30.618155930787871
 31
0.0
  0
LINE
  5
822
  8
0
  6
CONTINUOUS
 10
-551.29043381281099
 20
31.021686597528959
 30
0.0
 11
-550.99497678673845
 21
30.618155930787871
 31
0.0
  0
LINE
  5
823
  8
0
  6
CONTINUOUS
 10
-552.25099161407979
 20
30.618155930787871
 30
0.0
 11
-551.89517232271919
 21
30.103208073341651
 31
0.0
  0
LINE
  5
824
  8
0
  6
CONTINUOUS
 10
-550.99497678673845
 20
30.618155930787871
 30
0.0
 11
-550.71289155138277
 21
30.103208073341651
 31
0.0
  0
LINE
  5
825
  8
0
  6
CONTINUOUS
 10
-551.89517232271919
 20
30.103208073341651
 30
0.0
 11
-551.64511135739804
 21
29.741315501888671
 31
0.0
  0
LINE
  5
826
  8
0
  6
CONTINUOUS
 10
-550.71289155138277
 20
30.103208073341651
 30
0.0
 11
-550.62454257538479
 21
29.741315501888671
 31
0.0
  0
LINE
  5
827
  8
0
  6
CONTINUOUS
 10
-551.64511135739804
 20
29.741315501888671
 30
0.0
 11
-551.59420914381872
 21
29.532811297320421
 31
0.0
  0
LINE
  5
828
  8
0
  6
CONTINUOUS
 10
-550.62454257538479
 20
29.741315501888671
 30
0.0
 11
-550.57364036180547
 21
29.532811297320421
 31
0.0
  0
LINE
  5
829
  8
0
  6
CONTINUOUS
 10
-551.59420914381872
 20
29.532811297320421
 30
0.0
 11
-551.56774958541075
 21
29.424428404099391
 31
0.0
  0
LINE
  5
82A
  8
0
  6
CONTINUOUS
 10
-550.57364036180547
 20
29.532811297320421
 30
0.0
 11
-550.57605274686557
 21
29.424428404099391
 31
0.0
  0
LINE
  5
82B
  8
0
  6
CONTINUOUS
 10
-551.56774958541075
 20
29.424428404099391
 30
0.0
 11
-551.57500820101677
 21
29.098315557051119
 31
0.0
  0
LINE
  5
82C
  8
0
  6
CONTINUOUS
 10
-550.57605274686557
 20
29.424428404099391
 30
0.0
 11
-550.58331136247159
 21
29.098315557051119
 31
0.0
  0
LINE
  5
82D
  8
0
  6
CONTINUOUS
 10
-551.57500820101677
 20
29.098315557051119
 30
0.0
 11
-551.5985419938346
 21
28.945808172633381
 31
0.0
  0
LINE
  5
82E
  8
0
  6
CONTINUOUS
 10
-550.58331136247159
 20
29.098315557051119
 30
0.0
 11
-550.58670586989615
 21
28.945808172633381
 31
0.0
  0
LINE
  5
82F
  8
0
  6
CONTINUOUS
 10
-551.5985419938346
 20
28.945808172633381
 30
0.0
 11
-552.04990586115457
 21
26.02080907203587
 31
0.0
  0
LINE
  5
830
  8
0
  6
CONTINUOUS
 10
-550.58670586989615
 20
28.945808172633381
 30
0.0
 11
-551.03806973721646
 21
26.02080907203587
 31
0.0
  0
LINE
  5
831
  8
0
  6
CONTINUOUS
 10
-552.04990586115457
 20
26.02080907203587
 30
0.0
 11
-552.05695908776886
 21
25.868301687618271
 31
0.0
  0
LINE
  5
832
  8
0
  6
CONTINUOUS
 10
-551.03806973721646
 20
26.02080907203587
 30
0.0
 11
-551.06160353003418
 21
25.868301687618271
 31
0.0
  0
LINE
  5
833
  8
0
  6
CONTINUOUS
 10
-552.05695908776886
 20
25.868301687618271
 30
0.0
 11
-552.10378257093748
 21
24.85586761484268
 31
0.0
  0
LINE
  5
834
  8
0
  6
CONTINUOUS
 10
-551.06160353003418
 20
25.868301687618271
 30
0.0
 11
-551.10842701320269
 21
24.85586761484268
 31
0.0
  0
LINE
  5
835
  8
0
  6
CONTINUOUS
 10
-552.10378257093748
 20
24.85586761484268
 30
0.0
 11
-552.10658691972696
 21
24.795230983939081
 31
0.0
  0
LINE
  5
836
  8
0
  6
CONTINUOUS
 10
-551.10842701320269
 20
24.85586761484268
 30
0.0
 11
-551.09817037197593
 21
24.795230983939081
 31
0.0
  0
LINE
  5
837
  8
0
  6
CONTINUOUS
 10
-552.10658691972696
 20
24.795230983939081
 30
0.0
 11
-551.9478091455278
 21
23.856546566983418
 31
0.0
  0
LINE
  5
838
  8
0
  6
CONTINUOUS
 10
-551.09817037197593
 20
24.795230983939081
 30
0.0
 11
-550.93939259777665
 21
23.856546566983418
 31
0.0
  0
LINE
  5
839
  8
0
  6
CONTINUOUS
 10
-551.9478091455278
 20
23.856546566983418
 30
0.0
 11
-551.90196631157971
 21
23.585526557583108
 31
0.0
  0
LINE
  5
83A
  8
0
  6
CONTINUOUS
 10
-550.93939259777665
 20
23.856546566983418
 30
0.0
 11
-550.83072183541049
 21
23.585526557583108
 31
0.0
  0
LINE
  5
83B
  8
0
  6
CONTINUOUS
 10
-551.90196631157971
 20
23.585526557583108
 30
0.0
 11
-551.63344048155238
 21
22.915835176077682
 31
0.0
  0
LINE
  5
83C
  8
0
  6
CONTINUOUS
 10
-550.83072183541049
 20
23.585526557583108
 30
0.0
 11
-550.56219600538338
 21
22.915835176077682
 31
0.0
  0
LINE
  5
83D
  8
0
  6
CONTINUOUS
 10
-551.63344048155238
 20
22.915835176077682
 30
0.0
 11
-551.44535991026146
 21
22.446770663328781
 31
0.0
  0
LINE
  5
83E
  8
0
  6
CONTINUOUS
 10
-550.56219600538338
 20
22.915835176077682
 30
0.0
 11
-550.31306725826732
 21
22.446770663328781
 31
0.0
  0
LINE
  5
83F
  8
0
  6
CONTINUOUS
 10
-461.05000000000092
 20
82.163337687424175
 30
0.0
 11
-461.05000000000092
 21
20.646774167514831
 31
0.0
  0
LINE
  5
840
  8
0
  6
CONTINUOUS
 10
-460.05000000000098
 20
82.163337687424175
 30
0.0
 11
-460.05000000000098
 21
20.646774167514831
 31
0.0
  0
LINE
  5
841
  8
0
  6
CONTINUOUS
 10
-461.05000000000092
 20
20.646774167514831
 30
0.0
 11
-461.10962980399501
 21
20.193840838585569
 31
0.0
  0
LINE
  5
842
  8
0
  6
CONTINUOUS
 10
-460.05000000000098
 20
20.646774167514831
 30
0.0
 11
-460.10962980399512
 21
20.193840838585569
 31
0.0
  0
LINE
  5
843
  8
0
  6
CONTINUOUS
 10
-551.44535991026146
 20
22.446770663328781
 30
0.0
 11
-550.21395194822708
 21
20.128251494452051
 31
0.0
  0
LINE
  5
844
  8
0
  6
CONTINUOUS
 10
-550.31306725826732
 20
22.446770663328781
 30
0.0
 11
-549.08165929623283
 21
20.128251494452051
 31
0.0
  0
LINE
  5
845
  8
0
  6
CONTINUOUS
 10
-461.10962980399501
 20
20.193840838585569
 30
0.0
 11
-461.21683616267688
 21
19.935021793483092
 31
0.0
  0
LINE
  5
846
  8
0
  6
CONTINUOUS
 10
-460.10962980399512
 20
20.193840838585569
 30
0.0
 11
-460.14370397770602
 21
19.935021793483092
 31
0.0
  0
LINE
  5
847
  8
0
  6
CONTINUOUS
 10
-461.21683616267688
 20
19.935021793483092
 30
0.0
 11
-461.2844555433781
 21
19.77177416751503
 31
0.0
  0
LINE
  5
848
  8
0
  6
CONTINUOUS
 10
-460.14370397770602
 20
19.935021793483092
 30
0.0
 11
-460.21132335840718
 21
19.77177416751503
 31
0.0
  0
LINE
  5
849
  8
0
  6
CONTINUOUS
 10
-550.21395194822708
 20
20.128251494452051
 30
0.0
 11
-549.88721029220915
 21
19.513055867897599
 31
0.0
  0
LINE
  5
84A
  8
0
  6
CONTINUOUS
 10
-549.08165929623283
 20
20.128251494452051
 30
0.0
 11
-548.70865424085434
 21
19.513055867897599
 31
0.0
  0
LINE
  5
84B
  8
0
  6
CONTINUOUS
 10
-461.2844555433781
 20
19.77177416751503
 30
0.0
 11
-461.56256313292431
 21
19.409337300438828
 31
0.0
  0
LINE
  5
84C
  8
0
  6
CONTINUOUS
 10
-460.21132335840718
 20
19.77177416751503
 30
0.0
 11
-460.36144962425408
 21
19.409337300438828
 31
0.0
  0
LINE
  5
84D
  8
0
  6
CONTINUOUS
 10
-549.88721029220915
 20
19.513055867897599
 30
0.0
 11
-549.80424477485496
 21
19.356846757455038
 31
0.0
  0
LINE
  5
84E
  8
0
  6
CONTINUOUS
 10
-548.70865424085434
 20
19.513055867897599
 30
0.0
 11
-548.54357446936467
 21
19.356846757455038
 31
0.0
  0
LINE
  5
84F
  8
0
  6
CONTINUOUS
 10
-461.56256313292431
 20
19.409337300438828
 30
0.0
 11
-461.74183889811792
 21
19.27177416751514
 31
0.0
  0
LINE
  5
850
  8
0
  6
CONTINUOUS
 10
-460.36144962425408
 20
19.409337300438828
 30
0.0
 11
-460.41843013959368
 21
19.27177416751514
 31
0.0
  0
LINE
  5
851
  8
0
  6
CONTINUOUS
 10
-549.80424477485496
 20
19.356846757455038
 30
0.0
 11
-549.73382826771285
 21
19.253139492683172
 31
0.0
  0
LINE
  5
852
  8
0
  6
CONTINUOUS
 10
-548.54357446936467
 20
19.356846757455038
 30
0.0
 11
-548.43397797065938
 21
19.253139492683172
 31
0.0
  0
LINE
  5
853
  8
0
  6
CONTINUOUS
 10
-461.74183889811792
 20
19.27177416751514
 30
0.0
 11
-461.92500000000069
 21
19.131229710892459
 31
0.0
  0
LINE
  5
854
  8
0
  6
CONTINUOUS
 10
-460.41843013959368
 20
19.27177416751514
 30
0.0
 11
-460.52627369417098
 21
19.131229710892459
 31
0.0
  0
LINE
  5
855
  8
0
  6
CONTINUOUS
 10
-549.73382826771285
 20
19.253139492683172
 30
0.0
 11
-549.60153290348717
 21
19.058298951414798
 31
0.0
  0
LINE
  5
856
  8
0
  6
CONTINUOUS
 10
-548.43397797065938
 20
19.253139492683172
 30
0.0
 11
-548.10987808020752
 21
19.058298951414798
 31
0.0
  0
LINE
  5
857
  8
0
  6
CONTINUOUS
 10
-461.92500000000069
 20
19.131229710892459
 30
0.0
 11
-462.34706667107122
 21
18.956403971509442
 31
0.0
  0
LINE
  5
858
  8
0
  6
CONTINUOUS
 10
-460.52627369417098
 20
19.131229710892459
 30
0.0
 11
-460.66042220219299
 21
18.956403971509442
 31
0.0
  0
LINE
  5
859
  8
0
  6
CONTINUOUS
 10
-462.34706667107122
 20
18.956403971509442
 30
0.0
 11
-462.48965142947623
 21
18.93763233194754
 31
0.0
  0
LINE
  5
85A
  8
0
  6
CONTINUOUS
 10
-460.66042220219299
 20
18.956403971509442
 30
0.0
 11
-460.67482618783743
 21
18.93763233194754
 31
0.0
  0
LINE
  5
85B
  8
0
  6
CONTINUOUS
 10
-549.60153290348717
 20
19.058298951414798
 30
0.0
 11
-549.51960111317112
 21
18.93763233194754
 31
0.0
  0
LINE
  5
85C
  8
0
  6
CONTINUOUS
 10
-548.10987808020752
 20
19.058298951414798
 30
0.0
 11
-547.75148842848876
 21
18.93763233194754
 31
0.0
  0
LINE
  5
85D
  8
0
  6
CONTINUOUS
 10
-460.67482618783743
 20
18.93763233194754
 30
0.0
 11
-460.7061777600855
 21
18.89677416751536
 31
0.0
  0
LINE
  5
85E
  8
0
  6
CONTINUOUS
 10
-549.51960111317112
 20
18.93763233194754
 30
0.0
 11
-549.49185870540555
 21
18.89677416751536
 31
0.0
  0
LINE
  5
85F
  8
0
  6
CONTINUOUS
 10
-549.49185870540555
 20
18.89677416751536
 30
0.0
 11
-549.47043150051945
 21
18.86521683954469
 31
0.0
  0
LINE
  5
860
  8
0
  6
CONTINUOUS
 10
-460.7061777600855
 20
18.89677416751536
 30
0.0
 11
-460.73039254950589
 21
18.86521683954469
 31
0.0
  0
LINE
  5
861
  8
0
  6
CONTINUOUS
 10
-549.47043150051945
 20
18.86521683954469
 30
0.0
 11
-549.29818966114385
 21
18.702230519252101
 31
0.0
  0
LINE
  5
862
  8
0
  6
CONTINUOUS
 10
-460.73039254950589
 20
18.86521683954469
 30
0.0
 11
-460.85545635173781
 21
18.702230519252101
 31
0.0
  0
LINE
  5
863
  8
0
  6
CONTINUOUS
 10
-549.29818966114385
 20
18.702230519252101
 30
0.0
 11
-549.03879736164174
 21
18.456776821350559
 31
0.0
  0
LINE
  5
864
  8
0
  6
CONTINUOUS
 10
-460.85545635173781
 20
18.702230519252101
 30
0.0
 11
-461.1753378387009
 21
18.456776821350559
 31
0.0
  0
LINE
  5
865
  8
0
  6
CONTINUOUS
 10
-549.03879736164174
 20
18.456776821350559
 30
0.0
 11
-548.72013354313958
 21
18.265204307108121
 31
0.0
  0
LINE
  5
866
  8
0
  6
CONTINUOUS
 10
-461.1753378387009
 20
18.456776821350559
 30
0.0
 11
-461.42500000000069
 21
18.265204307108121
 31
0.0
  0
LINE
  5
867
  8
0
  6
CONTINUOUS
 10
-548.72013354313958
 20
18.265204307108121
 30
0.0
 11
-548.52949753378834
 21
18.15059882792881
 31
0.0
  0
LINE
  5
868
  8
0
  6
CONTINUOUS
 10
-461.42500000000069
 20
18.265204307108121
 30
0.0
 11
-461.70168210215758
 21
18.15059882792881
 31
0.0
  0
LINE
  5
869
  8
0
  6
CONTINUOUS
 10
-548.52949753378834
 20
18.15059882792881
 30
0.0
 11
-548.0539261126097
 21
17.990478145220361
 31
0.0
  0
LINE
  5
86A
  8
0
  6
CONTINUOUS
 10
-461.70168210215758
 20
18.15059882792881
 30
0.0
 11
-462.08824762596868
 21
17.990478145220361
 31
0.0
  0
LINE
  5
86B
  8
0
  6
CONTINUOUS
 10
-548.0539261126097
 20
17.990478145220361
 30
0.0
 11
-547.96631379537314
 21
17.9609798544803
 31
0.0
  0
LINE
  5
86C
  8
0
  6
CONTINUOUS
 10
-462.08824762596868
 20
17.990478145220361
 30
0.0
 11
-462.31230938917582
 21
17.9609798544803
 31
0.0
  0
LINE
  5
86D
  8
0
  6
CONTINUOUS
 10
-547.96631379537314
 20
17.9609798544803
 30
0.0
 11
-547.37554403644117
 21
17.896774167515321
 31
0.0
  0
LINE
  5
86E
  8
0
  6
CONTINUOUS
 10
-462.31230938917582
 20
17.9609798544803
 30
0.0
 11
-462.80000000000052
 21
17.896774167515321
 31
0.0
  0
ENDBLK
  5
870
  8
0
  0
BLOCK
  8
0
  2
*X45
 70
     1
 10
0.0
 20
0.0
 30
0.0
  3
*X45
  1

  0
LINE
  5
872
  8
0
 62
     0
 10
-65.000000000000341
 20
-224.99954087428651
 30
0.0
 11
-25.000000000000501
 21
-224.99954087428651
 31
0.0
  0
LINE
  5
873
  8
0
 62
     0
 10
-65.000000000000384
 20
-209.99954087428651
 30
0.0
 11
-25.000000000000529
 21
-209.99954087428651
 31
0.0
  0
LINE
  5
874
  8
0
 62
     0
 10
-65.000000000000455
 20
-194.99954087428651
 30
0.0
 11
-25.000000000000568
 21
-194.99954087428651
 31
0.0
  0
LINE
  5
875
  8
0
 62
     0
 10
-65.000000000000512
 20
-179.99954087428651
 30
0.0
 11
-25.000000000000611
 21
-179.99954087428651
 31
0.0
  0
LINE
  5
876
  8
0
 62
     0
 10
-65.000000000000554
 20
-164.99954087428651
 30
0.0
 11
-25.000000000000639
 21
-164.99954087428651
 31
0.0
  0
LINE
  5
877
  8
0
 62
     0
 10
-65.000000000000611
 20
-149.99954087428651
 30
0.0
 11
-25.000000000000679
 21
-149.99954087428651
 31
0.0
  0
LINE
  5
878
  8
0
 62
     0
 10
-65.000000000000668
 20
-134.99954087428651
 30
0.0
 11
-25.000000000000721
 21
-134.99954087428651
 31
0.0
  0
LINE
  5
879
  8
0
 62
     0
 10
-65.000000000000725
 20
-119.9995408742865
 30
0.0
 11
-25.00000000000075
 21
-119.9995408742865
 31
0.0
  0
LINE
  5
87A
  8
0
 62
     0
 10
-65.000000000000782
 20
-104.9995408742865
 30
0.0
 11
-25.000000000000789
 21
-104.9995408742865
 31
0.0
  0
LINE
  5
87B
  8
0
 62
     0
 10
-65.000000000000838
 20
-89.99954087428651
 30
0.0
 11
-25.000000000000831
 21
-89.99954087428651
 31
0.0
  0
LINE
  5
87C
  8
0
 62
     0
 10
-65.000000000000895
 20
-74.99954087428651
 30
0.0
 11
-25.00000000000087
 21
-74.99954087428651
 31
0.0
  0
LINE
  5
87D
  8
0
 62
     0
 10
-65.000000000000952
 20
-59.99954087428651
 30
0.0
 11
-25.000000000000909
 21
-59.99954087428651
 31
0.0
  0
LINE
  5
87E
  8
0
 62
     0
 10
-65.000000000001009
 20
-44.999540874286502
 30
0.0
 11
-25.000000000000941
 21
-44.999540874286502
 31
0.0
  0
LINE
  5
87F
  8
0
 62
     0
 10
-65.000000000001066
 20
-29.99954087428651
 30
0.0
 11
-25.000000000000981
 21
-29.99954087428651
 31
0.0
  0
LINE
  5
880
  8
0
 62
     0
 10
-65.000000000001108
 20
-14.99954087428651
 30
0.0
 11
-25.000000000001009
 21
-14.99954087428651
 31
0.0
  0
ENDBLK
  5
882
  8
0
  0
BLOCK
  8
0
  2
*U46
 70
     1
 10
0.0
 20
0.0
 30
0.0
  3
*U46
  1

  0
SOLID
  5
884
  8
0
  6
CONTINUOUS
 10
179.95942074712599
 20
359.82630762534978
 30
0.0
 11
175.80858857707449
 21
358.85272939919469
 31
0.0
 12
180.18777364688481
 22
358.85272939919469
 32
0.0
 13
180.18777364688481
 23
358.85272939919469
 33
0.0
210
0.0
220
0.0
230
1.0
  0
SOLID
  5
885
  8
0
  6
CONTINUOUS
 10
175.80858857707449
 20
358.85272939919469
 30
0.0
 11
-141.32159275473441
 21
284.4698040598077
 31
0.0
 12
-136.94240768492381
 22
284.4698040598077
 32
0.0
 13
-136.94240768492381
 23
284.4698040598077
 33
0.0
210
0.0
220
0.0
230
1.0
  0
SOLID
  5
886
  8
0
  6
CONTINUOUS
 10
-175.80858857707449
 20
358.85272939919469
 30
0.0
 11
-180.18777364688481
 21
358.85272939919469
 31
0.0
 12
136.94240768492381
 22
284.4698040598077
 32
0.0
 13
136.94240768492381
 23
284.4698040598077
 33
0.0
210
0.0
220
0.0
230
-1.0
  0
SOLID
  5
887
  8
0
  6
CONTINUOUS
 10
-141.32159275473441
 20
284.4698040598077
 30
0.0
 11
-142.13409987595239
 21
284.16994649999111
 31
0.0
 12
-138.22084466336261
 22
284.16994649999111
 32
0.0
 13
-138.22084466336261
 23
284.16994649999111
 33
0.0
210
0.0
220
0.0
230
1.0
  0
SOLID
  5
888
  8
0
  6
CONTINUOUS
 10
141.32159275473441
 20
284.4698040598077
 30
0.0
 11
136.94240768492381
 21
284.4698040598077
 31
0.0
 12
138.22084466336261
 22
284.16994649999111
 32
0.0
 13
138.22084466336261
 23
284.16994649999111
 33
0.0
210
0.0
220
0.0
230
-1.0
  0
SOLID
  5
889
  8
0
  6
CONTINUOUS
 10
-142.13409987595239
 20
284.16994649999111
 30
0.0
 11
-142.8490550115437
 21
283.68033582735433
 31
0.0
 12
-140.30829041367241
 22
283.68033582735433
 32
0.0
 13
-140.30829041367241
 23
283.68033582735433
 33
0.0
210
0.0
220
0.0
230
1.0
  0
SOLID
  5
88A
  8
0
  6
CONTINUOUS
 10
142.13409987595239
 20
284.16994649999111
 30
0.0
 11
138.22084466336261
 21
284.16994649999111
 31
0.0
 12
140.30829041367241
 22
283.68033582735433
 32
0.0
 13
140.30829041367241
 23
283.68033582735433
 33
0.0
210
0.0
220
0.0
230
-1.0
  0
SOLID
  5
88B
  8
0
  6
CONTINUOUS
 10
-142.8490550115437
 20
283.68033582735433
 30
0.0
 11
-143.01139183079439
 21
283.49625776236769
 31
0.0
 12
-141.09310372750821
 22
283.49625776236769
 32
0.0
 13
-141.09310372750821
 23
283.49625776236769
 33
0.0
210
0.0
220
0.0
230
1.0
  0
SOLID
  5
88C
  8
0
  6
CONTINUOUS
 10
142.8490550115437
 20
283.68033582735433
 30
0.0
 11
140.30829041367241
 21
283.68033582735433
 31
0.0
 12
141.09310372750821
 22
283.49625776236769
 32
0.0
 13
141.09310372750821
 23
283.49625776236769
 33
0.0
210
0.0
220
0.0
230
-1.0
  0
SOLID
  5
88D
  8
0
  6
CONTINUOUS
 10
-143.01139183079439
 20
283.49625776236769
 30
0.0
 11
-143.2005916411517
 21
283.28171903266281
 31
0.0
 12
-141.6748274185166
 22
283.28171903266281
 32
0.0
 13
-141.6748274185166
 23
283.28171903266281
 33
0.0
210
0.0
220
0.0
230
1.0
  0
SOLID
  5
88E
  8
0
  6
CONTINUOUS
 10
143.01139183079439
 20
283.49625776236769
 30
0.0
 11
141.09310372750809
 21
283.49625776236769
 31
0.0
 12
141.6748274185166
 22
283.28171903266281
 32
0.0
 13
141.6748274185166
 23
283.28171903266281
 33
0.0
210
0.0
220
0.0
230
-1.0
  0
SOLID
  5
88F
  8
0
  6
CONTINUOUS
 10
-143.2005916411517
 20
283.28171903266281
 30
0.0
 11
-143.42297959105591
 21
283.02954738310331
 31
0.0
 12
-142.0433388726332
 22
283.02954738310331
 32
0.0
 13
-142.0433388726332
 23
283.02954738310331
 33
0.0
210
0.0
220
0.0
230
1.0
  0
SOLID
  5
890
  8
0
  6
CONTINUOUS
 10
143.2005916411517
 20
283.28171903266281
 30
0.0
 11
141.6748274185166
 21
283.28171903266281
 31
0.0
 12
142.0433388726332
 22
283.02954738310331
 32
0.0
 13
142.0433388726332
 23
283.02954738310331
 33
0.0
210
0.0
220
0.0
230
-1.0
  0
SOLID
  5
891
  8
0
  6
CONTINUOUS
 10
-143.42297959105591
 20
283.02954738310331
 30
0.0
 11
-143.47325064178469
 21
282.93147517841669
 31
0.0
 12
-142.18665684997359
 22
282.93147517841669
 32
0.0
 13
-142.18665684997359
 23
282.93147517841669
 33
0.0
210
0.0
220
0.0
230
1.0
  0
SOLID
  5
892
  8
0
  6
CONTINUOUS
 10
143.42297959105591
 20
283.02954738310331
 30
0.0
 11
142.0433388726332
 21
283.02954738310331
 31
0.0
 12
142.18665684997359
 22
282.93147517841669
 32
0.0
 13
142.18665684997359
 23
282.93147517841669
 33
0.0
210
0.0
220
0.0
230
-1.0
  0
SOLID
  5
893
  8
0
  6
CONTINUOUS
 10
-143.47325064178469
 20
282.93147517841669
 30
0.0
 11
-143.7116343724218
 21
282.46641988941758
 31
0.0
 12
-142.59660962614981
 22
282.46641988941758
 32
0.0
 13
-142.59660962614981
 23
282.46641988941758
 33
0.0
210
0.0
220
0.0
230
1.0
  0
SOLID
  5
894
  8
0
  6
CONTINUOUS
 10
143.47325064178469
 20
282.93147517841669
 30
0.0
 11
142.18665684997359
 21
282.93147517841669
 31
0.0
 12
142.59660962614981
 22
282.46641988941758
 32
0.0
 13
142.59660962614981
 23
282.46641988941758
 33
0.0
210
0.0
220
0.0
230
-1.0
  0
SOLID
  5
895
  8
0
  6
CONTINUOUS
 10
-143.7116343724218
 20
282.46641988941758
 30
0.0
 11
-143.81855823625219
 21
282.25782550144629
 31
0.0
 12
-142.70363754841031
 22
282.25782550144629
 32
0.0
 13
-142.70363754841031
 23
282.25782550144629
 33
0.0
210
0.0
220
0.0
230
1.0
  0
SOLID
  5
896
  8
0
  6
CONTINUOUS
 10
143.7116343724218
 20
282.46641988941758
 30
0.0
 11
142.59660962614981
 21
282.46641988941758
 31
0.0
 12
142.70363754841031
 22
282.25782550144629
 32
0.0
 13
142.70363754841031
 23
282.25782550144629
 33
0.0
210
0.0
220
0.0
230
-1.0
  0
SOLID
  5
897
  8
0
  6
CONTINUOUS
 10
-143.81855823625219
 20
282.25782550144629
 30
0.0
 11
-143.89732876299789
 21
281.91588029920752
 31
0.0
 12
-142.87908658555131
 22
281.91588029920752
 32
0.0
 13
-142.87908658555131
 23
281.91588029920752
 33
0.0
210
0.0
220
0.0
230
1.0
  0
SOLID
  5
898
  8
0
  6
CONTINUOUS
 10
143.81855823625219
 20
282.25782550144629
 30
0.0
 11
142.70363754841031
 21
282.25782550144629
 31
0.0
 12
142.87908658555131
 22
281.91588029920752
 32
0.0
 13
142.87908658555131
 23
281.91588029920752
 33
0.0
210
0.0
220
0.0
230
-1.0
  0
SOLID
  5
899
  8
0
  6
CONTINUOUS
 10
-143.89732876299789
 20
281.91588029920752
 30
0.0
 11
-144.01278599464769
 21
281.4146770185198
 31
0.0
 12
-142.99441918753919
 22
281.4146770185198
 32
0.0
 13
-142.99441918753919
 23
281.4146770185198
 33
0.0
210
0.0
220
0.0
230
1.0
  0
SOLID
  5
89A
  8
0
  6
CONTINUOUS
 10
143.89732876299789
 20
281.91588029920752
 30
0.0
 11
142.87908658555131
 21
281.91588029920752
 31
0.0
 12
142.99441918753919
 22
281.4146770185198
 32
0.0
 13
142.99441918753919
 23
281.4146770185198
 33
0.0
210
0.0
220
0.0
230
-1.0
  0
SOLID
  5
89B
  8
0
  6
CONTINUOUS
 10
-144.01278599464769
 20
281.4146770185198
 30
0.0
 11
-144.01069600179949
 21
281.3116625038499
 31
0.0
 12
-143.01812400448111
 22
281.3116625038499
 32
0.0
 13
-143.01812400448111
 23
281.3116625038499
 33
0.0
  0
SOLID
  5
89C
  8
0
  6
CONTINUOUS
 10
144.01278599464769
 20
281.4146770185198
 30
0.0
 11
142.99441918753919
 21
281.4146770185198
 31
0.0
 12
143.01812400448111
 22
281.3116625038499
 32
0.0
 13
143.01812400448111
 23
281.3116625038499
 33
0.0
210
0.0
220
0.0
230
-1.0
  0
SOLID
  5
89D
  8
0
  6
CONTINUOUS
 10
-144.01069600179949
 20
281.3116625038499
 30
0.0
 11
-143.9981310134709
 21
280.69234164079921
 31
0.0
 12
-143.00546134025009
 22
280.69234164079921
 32
0.0
 13
-143.00546134025009
 23
280.69234164079921
 33
0.0
210
0.0
220
0.0
230
1.0
  0
SOLID
  5
89E
  8
0
  6
CONTINUOUS
 10
144.01069600179949
 20
281.3116625038499
 30
0.0
 11
143.01812400448111
 21
281.3116625038499
 31
0.0
 12
143.00546134025009
 22
280.69234164079921
 32
0.0
 13
143.00546134025009
 23
280.69234164079921
 33
0.0
210
0.0
220
0.0
230
-1.0
  0
SOLID
  5
89F
  8
0
  6
CONTINUOUS
 10
-143.9981310134709
 20
280.69234164079921
 30
0.0
 11
-143.9952372672887
 21
280.54971059840329
 31
0.0
 12
-142.9849075828686
 22
280.54971059840329
 32
0.0
 13
-142.9849075828686
 23
280.54971059840329
 33
0.0
210
0.0
220
0.0
230
1.0
  0
SOLID
  5
8A0
  8
0
  6
CONTINUOUS
 10
143.9981310134709
 20
280.69234164079921
 30
0.0
 11
143.00546134025009
 21
280.69234164079921
 31
0.0
 12
142.9849075828686
 22
280.54971059840329
 32
0.0
 13
142.9849075828686
 23
280.54971059840329
 33
0.0
210
0.0
220
0.0
230
-1.0
  0
SOLID
  5
8A1
  8
0
  6
CONTINUOUS
 10
-143.9952372672887
 20
280.54971059840329
 30
0.0
 11
-142.44029700644069
 21
269.7593355758865
 31
0.0
 12
-141.42996732202059
 22
269.7593355758865
 32
0.0
 13
-141.42996732202059
 23
269.7593355758865
 33
0.0
210
0.0
220
0.0
230
1.0
  0
SOLID
  5
8A2
  8
0
  6
CONTINUOUS
 10
143.9952372672887
 20
280.54971059840329
 30
0.0
 11
142.9849075828686
 21
280.54971059840329
 31
0.0
 12
141.42996732202059
 22
269.7593355758865
 32
0.0
 13
141.42996732202059
 23
269.7593355758865
 33
0.0
210
0.0
220
0.0
230
-1.0
  0
SOLID
  5
8A3
  8
0
  6
CONTINUOUS
 10
-142.44029700644069
 20
269.7593355758865
 30
0.0
 11
-141.84754798812139
 21
269.62571138128402
 31
0.0
 12
-141.41071149082131
 22
269.62571138128402
 32
0.0
 13
-141.41071149082131
 23
269.62571138128402
 33
0.0
210
0.0
220
0.0
230
1.0
  0
SOLID
  5
8A4
  8
0
  6
CONTINUOUS
 10
142.44029700644069
 20
269.7593355758865
 30
0.0
 11
141.42996732202059
 21
269.7593355758865
 31
0.0
 12
141.41071149082131
 22
269.62571138128402
 32
0.0
 13
141.41071149082131
 23
269.62571138128402
 33
0.0
210
0.0
220
0.0
230
-1.0
  0
SOLID
  5
8A5
  8
0
  6
CONTINUOUS
 10
141.66813430699079
 20
268.50640650371253
 30
0.0
 11
141.2494147597375
 21
268.50640650371253
 31
0.0
 12
141.65764564287829
 22
268.44097106519791
 32
0.0
 13
141.65764564287829
 23
268.44097106519791
 33
0.0
210
0.0
220
0.0
230
-1.0
  0
SOLID
  5
8A6
  8
0
  6
CONTINUOUS
 10
-141.84754798812139
 20
269.62571138128402
 30
0.0
 11
-141.66813430699079
 21
268.50640650371253
 31
0.0
 12
-141.2494147597375
 22
268.50640650371253
 32
0.0
 13
-141.2494147597375
 23
268.50640650371253
 33
0.0
  0
SOLID
  5
8A7
  8
0
  6
CONTINUOUS
 10
141.84754798812139
 20
269.62571138128402
 30
0.0
 11
141.41071149082131
 21
269.62571138128402
 31
0.0
 12
141.2494147597375
 22
268.50640650371253
 32
0.0
 13
141.2494147597375
 23
268.50640650371253
 33
0.0
210
0.0
220
0.0
230
-1.0
  0
SOLID
  5
8A8
  8
0
  6
CONTINUOUS
 10
-141.10676586902511
 20
267.5165067203634
 30
0.0
 11
-141.49937569072429
 21
267.45357518600599
 31
0.0
 12
-141.09769715952751
 22
267.45357518600599
 32
0.0
 13
-141.09769715952751
 23
267.45357518600599
 33
0.0
210
0.0
220
0.0
230
1.0
  0
SOLID
  5
8A9
  8
0
  6
CONTINUOUS
 10
-141.49937569072429
 20
267.45357518600599
 30
0.0
 11
-141.30947334548139
 21
266.2688348699204
 31
0.0
 12
-140.92697089539979
 22
266.2688348699204
 32
0.0
 13
-140.92697089539979
 23
266.2688348699204
 33
0.0
210
0.0
220
0.0
230
1.0
  0
SOLID
  5
8AA
  8
0
  6
CONTINUOUS
 10
141.49937569072429
 20
267.45357518600599
 30
0.0
 11
141.09769715952751
 21
267.45357518600599
 31
0.0
 12
140.92697089539979
 22
266.2688348699204
 32
0.0
 13
140.92697089539979
 23
266.2688348699204
 33
0.0
210
0.0
220
0.0
230
-1.0
  0
SOLID
  5
8AB
  8
0
  6
CONTINUOUS
 10
-141.30947334548139
 20
266.2688348699204
 30
0.0
 11
-141.8874222118443
 21
265.92270819899989
 31
0.0
 12
-140.8770925274242
 22
265.92270819899989
 32
0.0
 13
-140.8770925274242
 23
265.92270819899989
 33
0.0
210
0.0
220
0.0
230
1.0
  0
SOLID
  5
8AC
  8
0
  6
CONTINUOUS
 10
141.30947334548139
 20
266.2688348699204
 30
0.0
 11
140.92697089539979
 21
266.2688348699204
 31
0.0
 12
140.8770925274242
 22
265.92270819899989
 32
0.0
 13
140.8770925274242
 23
265.92270819899989
 33
0.0
210
0.0
220
0.0
230
-1.0
  0
SOLID
  5
8AD
  8
0
  6
CONTINUOUS
 10
-141.8874222118443
 20
265.92270819899989
 30
0.0
 11
-140.9149113086248
 21
259.17405191718092
 31
0.0
 12
-139.9045816242047
 22
259.17405191718092
 32
0.0
 13
-139.9045816242047
 23
259.17405191718092
 33
0.0
210
0.0
220
0.0
230
1.0
  0
SOLID
  5
8AE
  8
0
  6
CONTINUOUS
 10
141.8874222118443
 20
265.92270819899989
 30
0.0
 11
140.8770925274242
 21
265.92270819899989
 31
0.0
 12
139.9045816242047
 22
259.17405191718092
 32
0.0
 13
139.9045816242047
 23
259.17405191718092
 33
0.0
210
0.0
220
0.0
230
-1.0
  0
SOLID
  5
8AF
  8
0
  6
CONTINUOUS
 10
-140.9149113086248
 20
259.17405191718092
 30
0.0
 11
-140.9237906623612
 21
259.13451337757772
 31
0.0
 12
-139.89888394762201
 22
259.13451337757772
 32
0.0
 13
-139.89888394762201
 23
259.13451337757772
 33
0.0
210
0.0
220
0.0
230
1.0
  0
SOLID
  5
8B0
  8
0
  6
CONTINUOUS
 10
140.9149113086248
 20
259.17405191718092
 30
0.0
 11
139.9045816242047
 21
259.17405191718092
 31
0.0
 12
139.89888394762201
 22
259.13451337757772
 32
0.0
 13
139.89888394762201
 23
259.13451337757772
 33
0.0
210
0.0
220
0.0
230
-1.0
  0
SOLID
  5
8B1
  8
0
  6
CONTINUOUS
 10
141.63942232887891
 20
255.94790410085599
 30
0.0
 11
140.61451561413969
 21
255.94790410085599
 31
0.0
 12
140.75378161063469
 22
255.3277717937959
 32
0.0
 13
140.75378161063469
 23
255.3277717937959
 33
0.0
210
0.0
220
0.0
230
-1.0
  0
SOLID
  5
8B2
  8
0
  6
CONTINUOUS
 10
-140.9237906623612
 20
259.13451337757772
 30
0.0
 11
-141.63942232887891
 21
255.94790410085599
 31
0.0
 12
-140.61451561413969
 22
255.94790410085599
 32
0.0
 13
-140.61451561413969
 23
255.94790410085599
 33
0.0
210
0.0
220
0.0
230
1.0
  0
SOLID
  5
8B3
  8
0
  6
CONTINUOUS
 10
140.9237906623612
 20
259.13451337757772
 30
0.0
 11
139.89888394762201
 21
259.13451337757772
 31
0.0
 12
140.61451561413969
 22
255.94790410085599
 32
0.0
 13
140.61451561413969
 23
255.94790410085599
 33
0.0
210
0.0
220
0.0
230
-1.0
  0
LINE
  5
8B4
  8
0
  6
CONTINUOUS
 10
179.95942074712599
 20
359.82630762534978
 30
0.0
 11
175.80858857707449
 21
358.85272939919469
 31
0.0
  0
LINE
  5
8B5
  8
0
  6
CONTINUOUS
 10
180.18777364688481
 20
358.85272939919469
 30
0.0
 11
179.95942074712599
 21
359.82630762534978
 31
0.0
  0
LINE
  5
8B6
  8
0
  6
CONTINUOUS
 10
175.80858857707449
 20
358.85272939919469
 30
0.0
 11
-141.32159275473441
 21
284.4698040598077
 31
0.0
  0
LINE
  5
8B7
  8
0
  6
CONTINUOUS
 10
180.18777364688481
 20
358.85272939919469
 30
0.0
 11
-136.94240768492381
 21
284.4698040598077
 31
0.0
  0
LINE
  5
8B8
  8
0
  6
CONTINUOUS
 10
-141.32159275473441
 20
284.4698040598077
 30
0.0
 11
-142.13409987595239
 21
284.16994649999111
 31
0.0
  0
LINE
  5
8B9
  8
0
  6
CONTINUOUS
 10
-136.94240768492381
 20
284.4698040598077
 30
0.0
 11
-138.22084466336261
 21
284.16994649999111
 31
0.0
  0
LINE
  5
8BA
  8
0
  6
CONTINUOUS
 10
-142.13409987595239
 20
284.16994649999111
 30
0.0
 11
-142.8490550115437
 21
283.68033582735433
 31
0.0
  0
LINE
  5
8BB
  8
0
  6
CONTINUOUS
 10
-138.22084466336261
 20
284.16994649999111
 30
0.0
 11
-140.30829041367241
 21
283.68033582735433
 31
0.0
  0
LINE
  5
8BC
  8
0
  6
CONTINUOUS
 10
-142.8490550115437
 20
283.68033582735433
 30
0.0
 11
-143.01139183079439
 21
283.49625776236769
 31
0.0
  0
LINE
  5
8BD
  8
0
  6
CONTINUOUS
 10
-140.30829041367241
 20
283.68033582735433
 30
0.0
 11
-141.09310372750821
 21
283.49625776236769
 31
0.0
  0
LINE
  5
8BE
  8
0
  6
CONTINUOUS
 10
-143.01139183079439
 20
283.49625776236769
 30
0.0
 11
-143.2005916411517
 21
283.28171903266281
 31
0.0
  0
LINE
  5
8BF
  8
0
  6
CONTINUOUS
 10
-141.09310372750809
 20
283.49625776236769
 30
0.0
 11
-141.6748274185166
 21
283.28171903266281
 31
0.0
  0
LINE
  5
8C0
  8
0
  6
CONTINUOUS
 10
-143.2005916411517
 20
283.28171903266281
 30
0.0
 11
-143.42297959105591
 21
283.02954738310331
 31
0.0
  0
LINE
  5
8C1
  8
0
  6
CONTINUOUS
 10
-141.6748274185166
 20
283.28171903266281
 30
0.0
 11
-142.0433388726332
 21
283.02954738310331
 31
0.0
  0
LINE
  5
8C2
  8
0
  6
CONTINUOUS
 10
-143.42297959105591
 20
283.02954738310331
 30
0.0
 11
-143.47325064178469
 21
282.93147517841669
 31
0.0
  0
LINE
  5
8C3
  8
0
  6
CONTINUOUS
 10
-142.0433388726332
 20
283.02954738310331
 30
0.0
 11
-142.18665684997359
 21
282.93147517841669
 31
0.0
  0
LINE
  5
8C4
  8
0
  6
CONTINUOUS
 10
-143.47325064178469
 20
282.93147517841669
 30
0.0
 11
-143.7116343724218
 21
282.46641988941758
 31
0.0
  0
LINE
  5
8C5
  8
0
  6
CONTINUOUS
 10
-142.18665684997359
 20
282.93147517841669
 30
0.0
 11
-142.59660962614981
 21
282.46641988941758
 31
0.0
  0
LINE
  5
8C6
  8
0
  6
CONTINUOUS
 10
-143.7116343724218
 20
282.46641988941758
 30
0.0
 11
-143.81855823625219
 21
282.25782550144629
 31
0.0
  0
LINE
  5
8C7
  8
0
  6
CONTINUOUS
 10
-142.59660962614981
 20
282.46641988941758
 30
0.0
 11
-142.70363754841031
 21
282.25782550144629
 31
0.0
  0
LINE
  5
8C8
  8
0
  6
CONTINUOUS
 10
-143.81855823625219
 20
282.25782550144629
 30
0.0
 11
-143.89732876299789
 21
281.91588029920752
 31
0.0
  0
LINE
  5
8C9
  8
0
  6
CONTINUOUS
 10
-142.70363754841031
 20
282.25782550144629
 30
0.0
 11
-142.87908658555131
 21
281.91588029920752
 31
0.0
  0
LINE
  5
8CA
  8
0
  6
CONTINUOUS
 10
-143.89732876299789
 20
281.91588029920752
 30
0.0
 11
-144.01278599464769
 21
281.4146770185198
 31
0.0
  0
LINE
  5
8CB
  8
0
  6
CONTINUOUS
 10
-142.87908658555131
 20
281.91588029920752
 30
0.0
 11
-142.99441918753919
 21
281.4146770185198
 31
0.0
  0
LINE
  5
8CC
  8
0
  6
CONTINUOUS
 10
-144.01278599464769
 20
281.4146770185198
 30
0.0
 11
-144.01069600179949
 21
281.3116625038499
 31
0.0
  0
LINE
  5
8CD
  8
0
  6
CONTINUOUS
 10
-142.99441918753919
 20
281.4146770185198
 30
0.0
 11
-143.01812400448111
 21
281.3116625038499
 31
0.0
  0
LINE
  5
8CE
  8
0
  6
CONTINUOUS
 10
-144.01069600179949
 20
281.3116625038499
 30
0.0
 11
-143.9981310134709
 21
280.69234164079921
 31
0.0
  0
LINE
  5
8CF
  8
0
  6
CONTINUOUS
 10
-143.01812400448111
 20
281.3116625038499
 30
0.0
 11
-143.00546134025009
 21
280.69234164079921
 31
0.0
  0
LINE
  5
8D0
  8
0
  6
CONTINUOUS
 10
-143.9981310134709
 20
280.69234164079921
 30
0.0
 11
-143.9952372672887
 21
280.54971059840329
 31
0.0
  0
LINE
  5
8D1
  8
0
  6
CONTINUOUS
 10
-143.00546134025009
 20
280.69234164079921
 30
0.0
 11
-142.9849075828686
 21
280.54971059840329
 31
0.0
  0
LINE
  5
8D2
  8
0
  6
CONTINUOUS
 10
-143.9952372672887
 20
280.54971059840329
 30
0.0
 11
-142.44029700644069
 21
269.7593355758865
 31
0.0
  0
LINE
  5
8D3
  8
0
  6
CONTINUOUS
 10
-142.9849075828686
 20
280.54971059840329
 30
0.0
 11
-141.42996732202059
 21
269.7593355758865
 31
0.0
  0
LINE
  5
8D4
  8
0
  6
CONTINUOUS
 10
-142.44029700644069
 20
269.7593355758865
 30
0.0
 11
-141.84754798812139
 21
269.62571138128402
 31
0.0
  0
LINE
  5
8D5
  8
0
  6
CONTINUOUS
 10
-141.42996732202059
 20
269.7593355758865
 30
0.0
 11
-141.41071149082131
 21
269.62571138128402
 31
0.0
  0
LINE
  5
8D6
  8
0
  6
CONTINUOUS
 10
-141.2494147597375
 20
268.50640650371253
 30
0.0
 11
-141.65764564287829
 21
268.44097106519791
 31
0.0
  0
LINE
  5
8D7
  8
0
  6
CONTINUOUS
 10
-141.65764564287829
 20
268.44097106519791
 30
0.0
 11
-141.66813430699079
 21
268.50640650371253
 31
0.0
  0
LINE
  5
8D8
  8
0
  6
CONTINUOUS
 10
-141.84754798812139
 20
269.62571138128402
 30
0.0
 11
-141.66813430699079
 21
268.50640650371253
 31
0.0
  0
LINE
  5
8D9
  8
0
  6
CONTINUOUS
 10
-141.41071149082131
 20
269.62571138128402
 30
0.0
 11
-141.2494147597375
 21
268.50640650371253
 31
0.0
  0
LINE
  5
8DA
  8
0
  6
CONTINUOUS
 10
-141.10676586902511
 20
267.5165067203634
 30
0.0
 11
-141.49937569072429
 21
267.45357518600599
 31
0.0
  0
LINE
  5
8DB
  8
0
  6
CONTINUOUS
 10
-141.09769715952751
 20
267.45357518600599
 30
0.0
 11
-141.10676586902511
 21
267.5165067203634
 31
0.0
  0
LINE
  5
8DC
  8
0
  6
CONTINUOUS
 10
-141.49937569072429
 20
267.45357518600599
 30
0.0
 11
-141.30947334548139
 21
266.2688348699204
 31
0.0
  0
LINE
  5
8DD
  8
0
  6
CONTINUOUS
 10
-141.09769715952751
 20
267.45357518600599
 30
0.0
 11
-140.92697089539979
 21
266.2688348699204
 31
0.0
  0
LINE
  5
8DE
  8
0
  6
CONTINUOUS
 10
-141.30947334548139
 20
266.2688348699204
 30
0.0
 11
-141.8874222118443
 21
265.92270819899989
 31
0.0
  0
LINE
  5
8DF
  8
0
  6
CONTINUOUS
 10
-140.92697089539979
 20
266.2688348699204
 30
0.0
 11
-140.8770925274242
 21
265.92270819899989
 31
0.0
  0
LINE
  5
8E0
  8
0
  6
CONTINUOUS
 10
-141.8874222118443
 20
265.92270819899989
 30
0.0
 11
-140.9149113086248
 21
259.17405191718092
 31
0.0
  0
LINE
  5
8E1
  8
0
  6
CONTINUOUS
 10
-140.8770925274242
 20
265.92270819899989
 30
0.0
 11
-139.9045816242047
 21
259.17405191718092
 31
0.0
  0
LINE
  5
8E2
  8
0
  6
CONTINUOUS
 10
-140.9149113086248
 20
259.17405191718092
 30
0.0
 11
-140.9237906623612
 21
259.13451337757772
 31
0.0
  0
LINE
  5
8E3
  8
0
  6
CONTINUOUS
 10
-139.9045816242047
 20
259.17405191718092
 30
0.0
 11
-139.89888394762201
 21
259.13451337757772
 31
0.0
  0
LINE
  5
8E4
  8
0
  6
CONTINUOUS
 10
-140.61451561413969
 20
255.94790410085599
 30
0.0
 11
-140.75378161063469
 21
255.3277717937959
 31
0.0
  0
LINE
  5
8E5
  8
0
  6
CONTINUOUS
 10
-140.75378161063469
 20
255.3277717937959
 30
0.0
 11
-141.63942232887891
 21
255.94790410085599
 31
0.0
  0
LINE
  5
8E6
  8
0
  6
CONTINUOUS
 10
-140.9237906623612
 20
259.13451337757772
 30
0.0
 11
-141.63942232887891
 21
255.94790410085599
 31
0.0
  0
LINE
  5
8E7
  8
0
  6
CONTINUOUS
 10
-139.89888394762201
 20
259.13451337757772
 30
0.0
 11
-140.61451561413969
 21
255.94790410085599
 31
0.0
  0
ENDBLK
  5
8E9
  8
0
  0
BLOCK
  8
0
  2
*U47
 70
     1
 10
0.0
 20
0.0
 30
0.0
  3
*U47
  1

  0
SOLID
  5
8EB
  8
0
  6
CONTINUOUS
 10
-106.48946325852
 20
287.52672072489008
 30
0.0
 11
-110.6402962395222
 21
286.5531423085327
 31
0.0
 12
-106.26111031414879
 22
286.5531423085327
 32
0.0
 13
-106.26111031414879
 23
286.5531423085327
 33
0.0
210
0.0
220
0.0
230
1.0
  0
SOLID
  5
8EC
  8
0
  6
CONTINUOUS
 10
-110.6402962395222
 20
286.5531423085327
 30
0.0
 11
-136.00236652047391
 21
280.60446542061987
 31
0.0
 12
-131.6231805948814
 22
280.60446542061987
 32
0.0
 13
-131.6231805948814
 23
280.60446542061987
 33
0.0
210
0.0
220
0.0
230
1.0
  0
SOLID
  5
8ED
  8
0
  6
CONTINUOUS
 10
110.6402962395222
 20
286.5531423085327
 30
0.0
 11
106.26111031414879
 21
286.5531423085327
 31
0.0
 12
131.6231805948814
 22
280.60446542061987
 32
0.0
 13
131.6231805948814
 23
280.60446542061987
 33
0.0
210
0.0
220
0.0
230
-1.0
  0
SOLID
  5
8EE
  8
0
  6
CONTINUOUS
 10
-136.00236652047391
 20
280.60446542061987
 30
0.0
 11
-136.6926147118885
 21
280.34885109357822
 31
0.0
 12
-132.71298739551099
 22
280.34885109357822
 32
0.0
 13
-132.71298739551099
 23
280.34885109357822
 33
0.0
210
0.0
220
0.0
230
1.0
  0
SOLID
  5
8EF
  8
0
  6
CONTINUOUS
 10
136.00236652047391
 20
280.60446542061987
 30
0.0
 11
131.6231805948814
 21
280.60446542061987
 31
0.0
 12
132.71298739551099
 22
280.34885109357822
 32
0.0
 13
132.71298739551099
 23
280.34885109357822
 33
0.0
210
0.0
220
0.0
230
-1.0
  0
SOLID
  5
8F0
  8
0
  6
CONTINUOUS
 10
-136.6926147118885
 20
280.34885109357822
 30
0.0
 11
-137.2998653897985
 21
279.93128411865882
 31
0.0
 12
-134.4932762167673
 22
279.93128411865882
 32
0.0
 13
-134.4932762167673
 23
279.93128411865882
 33
0.0
210
0.0
220
0.0
230
1.0
  0
SOLID
  5
8F1
  8
0
  6
CONTINUOUS
 10
136.6926147118885
 20
280.34885109357822
 30
0.0
 11
132.71298739551099
 21
280.34885109357822
 31
0.0
 12
134.4932762167673
 22
279.93128411865882
 32
0.0
 13
134.4932762167673
 23
279.93128411865882
 33
0.0
210
0.0
220
0.0
230
-1.0
  0
SOLID
  5
8F2
  8
0
  6
CONTINUOUS
 10
-137.2998653897985
 20
279.93128411865882
 30
0.0
 11
-137.56435682860791
 21
279.63088700424089
 31
0.0
 12
-135.7740135759397
 22
279.63088700424089
 32
0.0
 13
-135.7740135759397
 23
279.63088700424089
 33
0.0
210
0.0
220
0.0
230
1.0
  0
SOLID
  5
8F3
  8
0
  6
CONTINUOUS
 10
137.2998653897985
 20
279.93128411865882
 30
0.0
 11
134.4932762167673
 21
279.93128411865882
 31
0.0
 12
135.7740135759397
 22
279.63088700424089
 32
0.0
 13
135.7740135759397
 23
279.63088700424089
 33
0.0
210
0.0
220
0.0
230
-1.0
  0
SOLID
  5
8F4
  8
0
  6
CONTINUOUS
 10
-137.56435682860791
 20
279.63088700424089
 30
0.0
 11
-137.71388082597119
 21
279.46106457994512
 31
0.0
 12
-136.2323304283791
 22
279.46106457994512
 32
0.0
 13
-136.2323304283791
 23
279.46106457994512
 33
0.0
210
0.0
220
0.0
230
1.0
  0
SOLID
  5
8F5
  8
0
  6
CONTINUOUS
 10
137.56435682860791
 20
279.63088700424089
 30
0.0
 11
135.7740135759397
 21
279.63088700424089
 31
0.0
 12
136.2323304283791
 22
279.46106457994512
 32
0.0
 13
136.2323304283791
 23
279.46106457994512
 33
0.0
210
0.0
220
0.0
230
-1.0
  0
SOLID
  5
8F6
  8
0
  6
CONTINUOUS
 10
-137.71388082597119
 20
279.46106457994512
 30
0.0
 11
-137.7861261746873
 21
279.3790116621563
 31
0.0
 12
-136.35159741177199
 22
279.3790116621563
 32
0.0
 13
-136.35159741177199
 23
279.3790116621563
 33
0.0
  0
SOLID
  5
8F7
  8
0
  6
CONTINUOUS
 10
137.71388082597119
 20
279.46106457994512
 30
0.0
 11
136.2323304283791
 21
279.46106457994512
 31
0.0
 12
136.35159741177199
 22
279.3790116621563
 32
0.0
 13
136.35159741177199
 23
279.3790116621563
 33
0.0
210
0.0
220
0.0
230
-1.0
  0
SOLID
  5
8F8
  8
0
  6
CONTINUOUS
 10
-137.7861261746873
 20
279.3790116621563
 30
0.0
 11
-137.88682452192569
 21
279.18361976023499
 31
0.0
 12
-136.63560684555699
 22
279.18361976023499
 32
0.0
 13
-136.63560684555699
 23
279.18361976023499
 33
0.0
210
0.0
220
0.0
230
1.0
  0
SOLID
  5
8F9
  8
0
  6
CONTINUOUS
 10
137.7861261746873
 20
279.3790116621563
 30
0.0
 11
136.35159741177199
 21
279.3790116621563
 31
0.0
 12
136.63560684555699
 22
279.18361976023499
 32
0.0
 13
136.63560684555699
 23
279.18361976023499
 33
0.0
210
0.0
220
0.0
230
-1.0
  0
SOLID
  5
8FA
  8
0
  6
CONTINUOUS
 10
-137.88682452192569
 20
279.18361976023499
 30
0.0
 11
-138.07669692751119
 21
278.81519732364899
 31
0.0
 12
-136.96022461173121
 22
278.81519732364899
 32
0.0
 13
-136.96022461173121
 23
278.81519732364899
 33
0.0
210
0.0
220
0.0
230
1.0
  0
SOLID
  5
8FB
  8
0
  6
CONTINUOUS
 10
137.88682452192569
 20
279.18361976023499
 30
0.0
 11
136.63560684555699
 21
279.18361976023499
 31
0.0
 12
136.96022461173121
 22
278.81519732364899
 32
0.0
 13
136.96022461173121
 23
278.81519732364899
 33
0.0
210
0.0
220
0.0
230
-1.0
  0
SOLID
  5
8FC
  8
0
  6
CONTINUOUS
 10
-138.07669692751119
 20
278.81519732364899
 30
0.0
 11
-138.12378096559831
 21
278.72383693885331
 31
0.0
 12
-137.00728822788551
 22
278.72383693885331
 32
0.0
 13
-137.00728822788551
 23
278.72383693885331
 33
0.0
210
0.0
220
0.0
230
1.0
  0
SOLID
  5
8FD
  8
0
  6
CONTINUOUS
 10
138.07669692751119
 20
278.81519732364899
 30
0.0
 11
136.96022461173121
 21
278.81519732364899
 31
0.0
 12
137.00728822788551
 22
278.72383693885331
 32
0.0
 13
137.00728822788551
 23
278.72383693885331
 33
0.0
210
0.0
220
0.0
230
-1.0
  0
SOLID
  5
8FE
  8
0
  6
CONTINUOUS
 10
-138.12378096559831
 20
278.72383693885331
 30
0.0
 11
-138.20433149808261
 21
278.3784695068602
 31
0.0
 12
-137.1852016669306
 22
278.3784695068602
 32
0.0
 13
-137.1852016669306
 23
278.3784695068602
 33
0.0
210
0.0
220
0.0
230
1.0
  0
SOLID
  5
8FF
  8
0
  6
CONTINUOUS
 10
138.12378096559831
 20
278.72383693885331
 30
0.0
 11
137.00728822788551
 21
278.72383693885331
 31
0.0
 12
137.1852016669306
 22
278.3784695068602
 32
0.0
 13
137.1852016669306
 23
278.3784695068602
 33
0.0
210
0.0
220
0.0
230
-1.0
  0
SOLID
  5
900
  8
0
  6
CONTINUOUS
 10
-138.20433149808261
 20
278.3784695068602
 30
0.0
 11
-138.2912243871983
 21
278.00590866775917
 31
0.0
 12
-137.27221511334619
 22
278.00590866775917
 32
0.0
 13
-137.27221511334619
 23
278.00590866775917
 33
0.0
210
0.0
220
0.0
230
1.0
  0
SOLID
  5
901
  8
0
  6
CONTINUOUS
 10
138.20433149808261
 20
278.3784695068602
 30
0.0
 11
137.1852016669306
 21
278.3784695068602
 31
0.0
 12
137.27221511334619
 22
278.00590866775917
 32
0.0
 13
137.27221511334619
 23
278.00590866775917
 33
0.0
210
0.0
220
0.0
230
-1.0
  0
SOLID
  5
902
  8
0
  6
CONTINUOUS
 10
-138.2912243871983
 20
278.00590866775917
 30
0.0
 11
-138.28926182652239
 21
277.90112172254982
 31
0.0
 12
-137.29668862823311
 22
277.90112172254982
 32
0.0
 13
-137.29668862823311
 23
277.90112172254982
 33
0.0
  0
SOLID
  5
903
  8
0
  6
CONTINUOUS
 10
138.2912243871983
 20
278.00590866775917
 30
0.0
 11
137.27221511334619
 21
278.00590866775917
 31
0.0
 12
137.29668862823311
 22
277.90112172254982
 32
0.0
 13
137.29668862823311
 23
277.90112172254982
 33
0.0
210
0.0
220
0.0
230
-1.0
  0
SOLID
  5
904
  8
0
  6
CONTINUOUS
 10
-138.28926182652239
 20
277.90112172254982
 30
0.0
 11
-138.28009914165969
 21
277.41189875559331
 31
0.0
 12
-137.2876518697054
 22
277.41189875559331
 32
0.0
 13
-137.2876518697054
 23
277.41189875559331
 33
0.0
  0
SOLID
  5
905
  8
0
  6
CONTINUOUS
 10
138.28926182652239
 20
277.90112172254982
 30
0.0
 11
137.29668862823311
 21
277.90112172254982
 31
0.0
 12
137.2876518697054
 22
277.41189875559331
 32
0.0
 13
137.2876518697054
 23
277.41189875559331
 33
0.0
210
0.0
220
0.0
230
-1.0
  0
SOLID
  5
906
  8
0
  6
CONTINUOUS
 10
-138.28009914165969
 20
277.41189875559331
 30
0.0
 11
-138.2774277967261
 21
277.26926771308291
 31
0.0
 12
-137.26709811230739
 22
277.26926771308291
 32
0.0
 13
-137.26709811230739
 23
277.26926771308291
 33
0.0
210
0.0
220
0.0
230
1.0
  0
SOLID
  5
907
  8
0
  6
CONTINUOUS
 10
138.28009914165969
 20
277.41189875559331
 30
0.0
 11
137.2876518697054
 21
277.41189875559331
 31
0.0
 12
137.26709811230739
 22
277.26926771308291
 32
0.0
 13
137.26709811230739
 23
277.26926771308291
 33
0.0
210
0.0
220
0.0
230
-1.0
  0
SOLID
  5
908
  8
0
  6
CONTINUOUS
 10
-138.2774277967261
 20
277.26926771308291
 30
0.0
 11
-137.46978389328669
 21
271.66469188327028
 31
0.0
 12
-136.45945420886719
 22
271.66469188327028
 32
0.0
 13
-136.45945420886719
 23
271.66469188327028
 33
0.0
210
0.0
220
0.0
230
1.0
  0
SOLID
  5
909
  8
0
  6
CONTINUOUS
 10
138.2774277967261
 20
277.26926771308291
 30
0.0
 11
137.26709811230739
 21
277.26926771308291
 31
0.0
 12
136.45945420886719
 22
271.66469188327028
 32
0.0
 13
136.45945420886719
 23
271.66469188327028
 33
0.0
210
0.0
220
0.0
230
-1.0
  0
SOLID
  5
90A
  8
0
  6
CONTINUOUS
 10
137.13307956822689
 20
269.32816100129799
 30
0.0
 11
136.1227498838073
 21
269.32816100129799
 31
0.0
 12
137.11026932149181
 22
269.16987124391972
 32
0.0
 13
137.11026932149181
 23
269.16987124391972
 33
0.0
210
0.0
220
0.0
230
-1.0
  0
SOLID
  5
90B
  8
0
  6
CONTINUOUS
 10
-137.46978389328669
 20
271.66469188327028
 30
0.0
 11
-137.13307956822689
 21
269.32816100129799
 31
0.0
 12
-136.1227498838073
 22
269.32816100129799
 32
0.0
 13
-136.1227498838073
 23
269.32816100129799
 33
0.0
  0
SOLID
  5
90C
  8
0
  6
CONTINUOUS
 10
137.46978389328669
 20
271.66469188327028
 30
0.0
 11
136.45945420886719
 21
271.66469188327028
 31
0.0
 12
136.1227498838073
 22
269.32816100129799
 32
0.0
 13
136.1227498838073
 23
269.32816100129799
 33
0.0
210
0.0
220
0.0
230
-1.0
  0
SOLID
  5
90D
  8
0
  6
CONTINUOUS
 10
-135.9801009930944
 20
268.33826121794868
 30
0.0
 11
-136.96762043077911
 21
268.17997146057053
 31
0.0
 12
-135.95729074635929
 22
268.17997146057053
 32
0.0
 13
-135.95729074635929
 23
268.17997146057053
 33
0.0
210
0.0
220
0.0
230
1.0
  0
SOLID
  5
90E
  8
0
  6
CONTINUOUS
 10
-136.96762043077911
 20
268.17997146057053
 30
0.0
 11
-134.86471631573559
 21
253.5870481123055
 31
0.0
 12
-133.85438663131421
 22
253.5870481123055
 32
0.0
 13
-133.85438663131421
 23
253.5870481123055
 33
0.0
210
0.0
220
0.0
230
1.0
  0
SOLID
  5
90F
  8
0
  6
CONTINUOUS
 10
136.96762043077911
 20
268.17997146057053
 30
0.0
 11
135.95729074635929
 21
268.17997146057053
 31
0.0
 12
133.85438663131421
 22
253.5870481123055
 32
0.0
 13
133.85438663131421
 23
253.5870481123055
 33
0.0
210
0.0
220
0.0
230
-1.0
  0
SOLID
  5
910
  8
0
  6
CONTINUOUS
 10
-134.86471631573559
 20
253.5870481123055
 30
0.0
 11
-134.84416255835521
 21
253.44441706991699
 31
0.0
 12
-133.85149551104689
 22
253.44441706991699
 32
0.0
 13
-133.85149551104689
 23
253.44441706991699
 33
0.0
210
0.0
220
0.0
230
1.0
  0
SOLID
  5
911
  8
0
  6
CONTINUOUS
 10
134.86471631573559
 20
253.5870481123055
 30
0.0
 11
133.85438663131421
 21
253.5870481123055
 31
0.0
 12
133.85149551104689
 22
253.44441706991699
 32
0.0
 13
133.85149551104689
 23
253.44441706991699
 33
0.0
210
0.0
220
0.0
230
-1.0
  0
SOLID
  5
912
  8
0
  6
CONTINUOUS
 10
-134.84416255835521
 20
253.44441706991699
 30
0.0
 11
-134.83150980686699
 21
252.82503914347481
 31
0.0
 12
-133.83894076808059
 22
252.82503914347481
 32
0.0
 13
-133.83894076808059
 23
252.82503914347481
 33
0.0
  0
SOLID
  5
913
  8
0
  6
CONTINUOUS
 10
134.84416255835521
 20
253.44441706991699
 30
0.0
 11
133.85149551104689
 21
253.44441706991699
 31
0.0
 12
133.83894076808059
 22
252.82503914347481
 32
0.0
 13
133.83894076808059
 23
252.82503914347481
 33
0.0
210
0.0
220
0.0
230
-1.0
  0
SOLID
  5
914
  8
0
  6
CONTINUOUS
 10
-134.83150980686699
 20
252.82503914347481
 30
0.0
 11
-134.8552295285962
 21
252.72198667320899
 31
0.0
 12
-133.83685190242841
 22
252.72198667320899
 32
0.0
 13
-133.83685190242841
 23
252.72198667320899
 33
0.0
  0
SOLID
  5
915
  8
0
  6
CONTINUOUS
 10
134.83150980686699
 20
252.82503914347481
 30
0.0
 11
133.83894076808059
 21
252.82503914347481
 31
0.0
 12
133.83685190242841
 22
252.72198667320899
 32
0.0
 13
133.83685190242841
 23
252.72198667320899
 33
0.0
210
0.0
220
0.0
230
-1.0
  0
SOLID
  5
916
  8
0
  6
CONTINUOUS
 10
-134.8552295285962
 20
252.72198667320899
 30
0.0
 11
-134.97059447702469
 21
252.22077325032799
 31
0.0
 12
-133.95234163321919
 22
252.22077325032799
 32
0.0
 13
-133.95234163321919
 23
252.22077325032799
 33
0.0
  0
SOLID
  5
917
  8
0
  6
CONTINUOUS
 10
134.8552295285962
 20
252.72198667320899
 30
0.0
 11
133.83685190242841
 21
252.72198667320899
 31
0.0
 12
133.95234163321919
 22
252.22077325032799
 32
0.0
 13
133.95234163321919
 23
252.22077325032799
 33
0.0
210
0.0
220
0.0
230
-1.0
  0
SOLID
  5
918
  8
0
  6
CONTINUOUS
 10
-134.97059447702469
 20
252.22077325032799
 30
0.0
 11
-135.1461201052611
 21
251.8787569128898
 31
0.0
 12
-134.03114912905539
 22
251.8787569128898
 32
0.0
 13
-134.03114912905539
 23
251.8787569128898
 33
0.0
210
0.0
220
0.0
230
1.0
  0
SOLID
  5
919
  8
0
  6
CONTINUOUS
 10
134.97059447702469
 20
252.22077325032799
 30
0.0
 11
133.95234163321919
 21
252.22077325032799
 31
0.0
 12
134.03114912905539
 22
251.8787569128898
 32
0.0
 13
134.03114912905539
 23
251.8787569128898
 33
0.0
210
0.0
220
0.0
230
-1.0
  0
SOLID
  5
91A
  8
0
  6
CONTINUOUS
 10
-135.1461201052611
 20
251.8787569128898
 30
0.0
 11
-135.2531488140923
 21
251.6702086378431
 31
0.0
 12
-134.13807356910451
 22
251.6702086378431
 32
0.0
 13
-134.13807356910451
 23
251.6702086378431
 33
0.0
  0
SOLID
  5
91B
  8
0
  6
CONTINUOUS
 10
135.1461201052611
 20
251.8787569128898
 30
0.0
 11
134.03114912905539
 21
251.8787569128898
 31
0.0
 12
134.13807356910451
 22
251.6702086378431
 32
0.0
 13
134.13807356910451
 23
251.6702086378431
 33
0.0
210
0.0
220
0.0
230
-1.0
  0
SOLID
  5
91C
  8
0
  6
CONTINUOUS
 10
-135.2531488140923
 20
251.6702086378431
 30
0.0
 11
-135.66319457150269
 21
251.20515688
 31
0.0
 12
-134.3765094841946
 22
251.20515688
 32
0.0
 13
-134.3765094841946
 23
251.20515688
 33
0.0
210
0.0
220
0.0
230
1.0
  0
SOLID
  5
91D
  8
0
  6
CONTINUOUS
 10
135.2531488140923
 20
251.6702086378431
 30
0.0
 11
134.13807356910451
 21
251.6702086378431
 31
0.0
 12
134.3765094841946
 22
251.20515688
 32
0.0
 13
134.3765094841946
 23
251.20515688
 33
0.0
210
0.0
220
0.0
230
-1.0
  0
SOLID
  5
91E
  8
0
  6
CONTINUOUS
 10
-135.66319457150269
 20
251.20515688
 30
0.0
 11
-135.80668625862299
 21
251.10699260162801
 31
0.0
 12
-134.4268391284719
 22
251.10699260162801
 32
0.0
 13
-134.4268391284719
 23
251.10699260162801
 33
0.0
210
0.0
220
0.0
230
1.0
  0
SOLID
  5
91F
  8
0
  6
CONTINUOUS
 10
135.66319457150269
 20
251.20515688
 30
0.0
 11
134.3765094841946
 21
251.20515688
 31
0.0
 12
134.4268391284719
 22
251.10699260162801
 32
0.0
 13
134.4268391284719
 23
251.10699260162801
 33
0.0
210
0.0
220
0.0
230
-1.0
  0
SOLID
  5
920
  8
0
  6
CONTINUOUS
 10
-135.80668625862299
 20
251.10699260162801
 30
0.0
 11
-136.17511813351331
 21
250.8549442087652
 31
0.0
 12
-134.6491703007278
 22
250.8549442087652
 32
0.0
 13
-134.6491703007278
 23
250.8549442087652
 33
0.0
210
0.0
220
0.0
230
1.0
  0
SOLID
  5
921
  8
0
  6
CONTINUOUS
 10
135.80668625862299
 20
251.10699260162801
 30
0.0
 11
134.4268391284719
 21
251.10699260162801
 31
0.0
 12
134.6491703007278
 22
250.8549442087652
 32
0.0
 13
134.6491703007278
 23
250.8549442087652
 33
0.0
210
0.0
220
0.0
230
-1.0
  0
SOLID
  5
922
  8
0
  6
CONTINUOUS
 10
-136.17511813351331
 20
250.8549442087652
 30
0.0
 11
-136.75692760902041
 21
250.64046277205611
 31
0.0
 12
-134.83836376754181
 22
250.64046277205611
 32
0.0
 13
-134.83836376754181
 23
250.64046277205611
 33
0.0
210
0.0
220
0.0
230
1.0
  0
SOLID
  5
923
  8
0
  6
CONTINUOUS
 10
136.17511813351331
 20
250.8549442087652
 30
0.0
 11
134.6491703007278
 21
250.8549442087652
 31
0.0
 12
134.83836376754181
 22
250.64046277205611
 32
0.0
 13
134.83836376754181
 23
250.64046277205611
 33
0.0
210
0.0
220
0.0
230
-1.0
  0
SOLID
  5
924
  8
0
  6
CONTINUOUS
 10
-136.75692760902041
 20
250.64046277205611
 30
0.0
 11
-137.5424694869948
 21
250.4562138222559
 31
0.0
 12
-135.0008892434264
 22
250.4562138222559
 32
0.0
 13
-135.0008892434264
 23
250.4562138222559
 33
0.0
210
0.0
220
0.0
230
1.0
  0
SOLID
  5
925
  8
0
  6
CONTINUOUS
 10
136.75692760902041
 20
250.64046277205611
 30
0.0
 11
134.83836376754181
 21
250.64046277205611
 31
0.0
 12
135.0008892434264
 22
250.4562138222559
 32
0.0
 13
135.0008892434264
 23
250.4562138222559
 33
0.0
210
0.0
220
0.0
230
-1.0
  0
SOLID
  5
926
  8
0
  6
CONTINUOUS
 10
-137.5424694869948
 20
250.4562138222559
 30
0.0
 11
-139.6296900392226
 21
249.96665596985849
 31
0.0
 12
-135.71596227474021
 22
249.96665596985849
 32
0.0
 13
-135.71596227474021
 23
249.96665596985849
 33
0.0
210
0.0
220
0.0
230
1.0
  0
SOLID
  5
927
  8
0
  6
CONTINUOUS
 10
137.5424694869948
 20
250.4562138222559
 30
0.0
 11
135.0008892434264
 21
250.4562138222559
 31
0.0
 12
135.71596227474021
 22
249.96665596985849
 32
0.0
 13
135.71596227474021
 23
249.96665596985849
 33
0.0
210
0.0
220
0.0
230
-1.0
  0
SOLID
  5
928
  8
0
  6
CONTINUOUS
 10
-139.6296900392226
 20
249.96665596985849
 30
0.0
 11
-140.9077605899204
 21
249.66688435571641
 31
0.0
 12
-136.52857466463749
 22
249.66688435571641
 32
0.0
 13
-136.52857466463749
 23
249.66688435571641
 33
0.0
  0
SOLID
  5
929
  8
0
  6
CONTINUOUS
 10
139.6296900392226
 20
249.96665596985849
 30
0.0
 11
135.71596227474021
 21
249.96665596985849
 31
0.0
 12
136.52857466463749
 22
249.66688435571641
 32
0.0
 13
136.52857466463749
 23
249.66688435571641
 33
0.0
210
0.0
220
0.0
230
-1.0
  0
SOLID
  5
92A
  8
0
  6
CONTINUOUS
 10
-140.9077605899204
 20
249.66688435571641
 30
0.0
 11
-490.44937789141431
 21
167.6818524878644
 31
0.0
 12
-486.07019196600572
 22
167.6818524878644
 32
0.0
 13
-486.07019196600572
 23
167.6818524878644
 33
0.0
  0
SOLID
  5
92B
  8
0
  6
CONTINUOUS
 10
140.9077605899204
 20
249.66688435571641
 30
0.0
 11
136.52857466463749
 21
249.66688435571641
 31
0.0
 12
486.07019196600572
 22
167.6818524878644
 32
0.0
 13
486.07019196600572
 23
167.6818524878644
 33
0.0
210
0.0
220
0.0
230
-1.0
  0
SOLID
  5
92C
  8
0
  6
CONTINUOUS
 10
-490.44937789141431
 20
167.6818524878644
 30
0.0
 11
-491.13962615632221
 21
167.42623814368031
 31
0.0
 12
-487.15999883972307
 22
167.42623814368031
 32
0.0
 13
-487.15999883972307
 23
167.42623814368031
 33
0.0
  0
SOLID
  5
92D
  8
0
  6
CONTINUOUS
 10
490.44937789141431
 20
167.6818524878644
 30
0.0
 11
486.07019196600572
 21
167.6818524878644
 31
0.0
 12
487.15999883972307
 22
167.42623814368031
 32
0.0
 13
487.15999883972307
 23
167.42623814368031
 33
0.0
210
0.0
220
0.0
230
-1.0
  0
SOLID
  5
92E
  8
0
  6
CONTINUOUS
 10
-491.13962615632221
 20
167.42623814368031
 30
0.0
 11
-491.74687683827233
 21
167.00867116788871
 31
0.0
 12
-488.94028766470171
 22
167.00867116788871
 32
0.0
 13
-488.94028766470171
 23
167.00867116788871
 33
0.0
210
0.0
220
0.0
230
1.0
  0
SOLID
  5
92F
  8
0
  6
CONTINUOUS
 10
491.13962615632221
 20
167.42623814368031
 30
0.0
 11
487.15999883972307
 21
167.42623814368031
 31
0.0
 12
488.94028766470171
 22
167.00867116788871
 32
0.0
 13
488.94028766470171
 23
167.00867116788871
 33
0.0
210
0.0
220
0.0
230
-1.0
  0
SOLID
  5
930
  8
0
  6
CONTINUOUS
 10
-491.74687683827233
 20
167.00867116788871
 30
0.0
 11
-492.01136826127038
 21
166.70827407148909
 31
0.0
 12
-490.22102494705581
 22
166.70827407148909
 32
0.0
 13
-490.22102494705581
 23
166.70827407148909
 33
0.0
210
0.0
220
0.0
230
1.0
  0
SOLID
  5
931
  8
0
  6
CONTINUOUS
 10
491.74687683827233
 20
167.00867116788871
 30
0.0
 11
488.94028766470171
 21
167.00867116788871
 31
0.0
 12
490.22102494705581
 22
166.70827407148909
 32
0.0
 13
490.22102494705581
 23
166.70827407148909
 33
0.0
210
0.0
220
0.0
230
-1.0
  0
SOLID
  5
932
  8
0
  6
CONTINUOUS
 10
-492.01136826127038
 20
166.70827407148909
 30
0.0
 11
-492.16089227559178
 21
166.53845162796711
 31
0.0
 12
-490.67934188115521
 22
166.53845162796711
 32
0.0
 13
-490.67934188115521
 23
166.53845162796711
 33
0.0
  0
SOLID
  5
933
  8
0
  6
CONTINUOUS
 10
492.01136826127038
 20
166.70827407148909
 30
0.0
 11
490.22102494705581
 21
166.70827407148909
 31
0.0
 12
490.67934188115521
 22
166.53845162796711
 32
0.0
 13
490.67934188115521
 23
166.53845162796711
 33
0.0
210
0.0
220
0.0
230
-1.0
  0
SOLID
  5
934
  8
0
  6
CONTINUOUS
 10
-492.16089227559178
 20
166.53845162796711
 30
0.0
 11
-492.23313762329178
 21
166.45639871134901
 31
0.0
 12
-490.79860886154751
 22
166.45639871134901
 32
0.0
 13
-490.79860886154751
 23
166.45639871134901
 33
0.0
210
0.0
220
0.0
230
1.0
  0
SOLID
  5
935
  8
0
  6
CONTINUOUS
 10
492.16089227559178
 20
166.53845162796711
 30
0.0
 11
490.67934188115521
 21
166.53845162796711
 31
0.0
 12
490.79860886154751
 22
166.45639871134901
 32
0.0
 13
490.79860886154751
 23
166.45639871134901
 33
0.0
210
0.0
220
0.0
230
-1.0
  0
SOLID
  5
936
  8
0
  6
CONTINUOUS
 10
-492.23313762329178
 20
166.45639871134901
 30
0.0
 11
-492.33383597031298
 21
166.2610068098607
 31
0.0
 12
-491.08261829160932
 22
166.2610068098607
 32
0.0
 13
-491.08261829160932
 23
166.2610068098607
 33
0.0
  0
SOLID
  5
937
  8
0
  6
CONTINUOUS
 10
492.23313762329178
 20
166.45639871134901
 30
0.0
 11
490.79860886154751
 21
166.45639871134901
 31
0.0
 12
491.08261829160932
 22
166.2610068098607
 32
0.0
 13
491.08261829160932
 23
166.2610068098607
 33
0.0
210
0.0
220
0.0
230
-1.0
  0
SOLID
  5
938
  8
0
  6
CONTINUOUS
 10
-492.33383597031298
 20
166.2610068098607
 30
0.0
 11
-492.52370837618901
 21
165.89258437273301
 31
0.0
 12
-491.40723606040967
 22
165.89258437273301
 32
0.0
 13
-491.40723606040967
 23
165.89258437273301
 33
0.0
210
0.0
220
0.0
230
1.0
  0
SOLID
  5
939
  8
0
  6
CONTINUOUS
 10
492.33383597031298
 20
166.2610068098607
 30
0.0
 11
491.08261829160932
 21
166.2610068098607
 31
0.0
 12
491.40723606040967
 22
165.89258437273301
 32
0.0
 13
491.40723606040967
 23
165.89258437273301
 33
0.0
210
0.0
220
0.0
230
-1.0
  0
SOLID
  5
93A
  8
0
  6
CONTINUOUS
 10
-492.52370837618901
 20
165.89258437273301
 30
0.0
 11
-492.57079241428551
 21
165.80122398792469
 31
0.0
 12
-491.45429967665649
 22
165.80122398792469
 32
0.0
 13
-491.45429967665649
 23
165.80122398792469
 33
0.0
  0
SOLID
  5
93B
  8
0
  6
CONTINUOUS
 10
492.52370837618901
 20
165.89258437273301
 30
0.0
 11
491.40723606040967
 21
165.89258437273301
 31
0.0
 12
491.45429967665649
 22
165.80122398792469
 32
0.0
 13
491.45429967665649
 23
165.80122398792469
 33
0.0
210
0.0
220
0.0
230
-1.0
  0
SOLID
  5
93C
  8
0
  6
CONTINUOUS
 10
-492.57079241428551
 20
165.80122398792469
 30
0.0
 11
-492.65134294680053
 21
165.45585655582121
 31
0.0
 12
-491.6322131160839
 22
165.45585655582121
 32
0.0
 13
-491.6322131160839
 23
165.45585655582121
 33
0.0
  0
SOLID
  5
93D
  8
0
  6
CONTINUOUS
 10
492.57079241428551
 20
165.80122398792469
 30
0.0
 11
491.45429967665649
 21
165.80122398792469
 31
0.0
 12
491.6322131160839
 22
165.45585655582121
 32
0.0
 13
491.6322131160839
 23
165.45585655582121
 33
0.0
210
0.0
220
0.0
230
-1.0
  0
SOLID
  5
93E
  8
0
  6
CONTINUOUS
 10
-492.65134294680053
 20
165.45585655582121
 30
0.0
 11
-492.73823583588188
 21
165.0832957168908
 31
0.0
 12
-491.71922656199928
 22
165.0832957168908
 32
0.0
 13
-491.71922656199928
 23
165.0832957168908
 33
0.0
210
0.0
220
0.0
230
1.0
  0
SOLID
  5
93F
  8
0
  6
CONTINUOUS
 10
492.65134294680053
 20
165.45585655582121
 30
0.0
 11
491.6322131160839
 21
165.45585655582121
 31
0.0
 12
491.71922656199928
 22
165.0832957168908
 32
0.0
 13
491.71922656199928
 23
165.0832957168908
 33
0.0
210
0.0
220
0.0
230
-1.0
  0
SOLID
  5
940
  8
0
  6
CONTINUOUS
 10
-492.73823583588188
 20
165.0832957168908
 30
0.0
 11
-492.73627327520393
 21
164.9785087716256
 31
0.0
 12
-491.74370007676981
 22
164.9785087716256
 32
0.0
 13
-491.74370007676981
 23
164.9785087716256
 33
0.0
210
0.0
220
0.0
230
1.0
  0
SOLID
  5
941
  8
0
  6
CONTINUOUS
 10
492.73823583588188
 20
165.0832957168908
 30
0.0
 11
491.71922656199928
 21
165.0832957168908
 31
0.0
 12
491.74370007676981
 22
164.9785087716256
 32
0.0
 13
491.74370007676981
 23
164.9785087716256
 33
0.0
210
0.0
220
0.0
230
-1.0
  0
SOLID
  5
942
  8
0
  6
CONTINUOUS
 10
-492.73627327520393
 20
164.9785087716256
 30
0.0
 11
-492.72711059033531
 21
164.48928580463721
 31
0.0
 12
-491.73466331840427
 22
164.48928580463721
 32
0.0
 13
-491.73466331840427
 23
164.48928580463721
 33
0.0
210
0.0
220
0.0
230
1.0
  0
SOLID
  5
943
  8
0
  6
CONTINUOUS
 10
492.73627327520393
 20
164.9785087716256
 30
0.0
 11
491.74370007676981
 21
164.9785087716256
 31
0.0
 12
491.73466331840427
 22
164.48928580463721
 32
0.0
 13
491.73466331840427
 23
164.48928580463721
 33
0.0
210
0.0
220
0.0
230
-1.0
  0
SOLID
  5
944
  8
0
  6
CONTINUOUS
 10
-492.72711059033531
 20
164.48928580463721
 30
0.0
 11
-492.72443924540067
 21
164.34665476215309
 31
0.0
 12
-491.7141095610101
 22
164.34665476215309
 32
0.0
 13
-491.7141095610101
 23
164.34665476215309
 33
0.0
210
0.0
220
0.0
230
1.0
  0
SOLID
  5
945
  8
0
  6
CONTINUOUS
 10
492.72711059033531
 20
164.48928580463721
 30
0.0
 11
491.73466331840427
 21
164.48928580463721
 31
0.0
 12
491.7141095610101
 22
164.34665476215309
 32
0.0
 13
491.7141095610101
 23
164.34665476215309
 33
0.0
210
0.0
220
0.0
230
-1.0
  0
SOLID
  5
946
  8
0
  6
CONTINUOUS
 10
-492.72443924540067
 20
164.34665476215309
 30
0.0
 11
-489.61791718206831
 21
142.7892104517035
 31
0.0
 12
-488.60758749764841
 22
142.7892104517035
 32
0.0
 13
-488.60758749764841
 23
142.7892104517035
 33
0.0
210
0.0
220
0.0
230
1.0
  0
SOLID
  5
947
  8
0
  6
CONTINUOUS
 10
492.72443924540067
 20
164.34665476215309
 30
0.0
 11
491.7141095610101
 21
164.34665476215309
 31
0.0
 12
488.60758749764841
 22
142.7892104517035
 32
0.0
 13
488.60758749764841
 23
142.7892104517035
 33
0.0
210
0.0
220
0.0
230
-1.0
  0
SOLID
  5
948
  8
0
  6
CONTINUOUS
 10
-489.61791718206831
 20
142.7892104517035
 30
0.0
 11
-489.6266402423816
 21
142.7501848803191
 31
0.0
 12
-488.60196374203082
 22
142.7501848803191
 32
0.0
 13
-488.60196374203082
 23
142.7501848803191
 33
0.0
210
0.0
220
0.0
230
1.0
  0
SOLID
  5
949
  8
0
  6
CONTINUOUS
 10
489.61791718206831
 20
142.7892104517035
 30
0.0
 11
488.60758749764841
 21
142.7892104517035
 31
0.0
 12
488.60196374203082
 22
142.7501848803191
 32
0.0
 13
488.60196374203082
 23
142.7501848803191
 33
0.0
210
0.0
220
0.0
230
-1.0
  0
SOLID
  5
94A
  8
0
  6
CONTINUOUS
 10
490.39565538947772
 20
139.30973457498621
 30
0.0
 11
489.37097888912677
 21
139.30973457498621
 31
0.0
 12
489.50191071728091
 22
138.72396659648561
 32
0.0
 13
489.50191071728091
 23
138.72396659648561
 33
0.0
210
0.0
220
0.0
230
-1.0
  0
SOLID
  5
94B
  8
0
  6
CONTINUOUS
 10
-489.6266402423816
 20
142.7501848803191
 30
0.0
 11
-490.39565538947772
 21
139.30973457498621
 31
0.0
 12
-489.37097888912677
 22
139.30973457498621
 32
0.0
 13
-489.37097888912677
 23
139.30973457498621
 33
0.0
210
0.0
220
0.0
230
1.0
  0
SOLID
  5
94C
  8
0
  6
CONTINUOUS
 10
489.6266402423816
 20
142.7501848803191
 30
0.0
 11
488.60196374203082
 21
142.7501848803191
 31
0.0
 12
489.37097888912677
 22
139.30973457498621
 32
0.0
 13
489.37097888912677
 23
139.30973457498621
 33
0.0
210
0.0
220
0.0
230
-1.0
  0
LINE
  5
94D
  8
0
  6
CONTINUOUS
 10
-106.48946325852
 20
287.52672072489008
 30
0.0
 11
-110.6402962395222
 21
286.5531423085327
 31
0.0
  0
LINE
  5
94E
  8
0
  6
CONTINUOUS
 10
-106.26111031414879
 20
286.5531423085327
 30
0.0
 11
-106.48946325852
 21
287.52672072489008
 31
0.0
  0
LINE
  5
94F
  8
0
  6
CONTINUOUS
 10
-110.6402962395222
 20
286.5531423085327
 30
0.0
 11
-136.00236652047391
 21
280.60446542061987
 31
0.0
  0
LINE
  5
950
  8
0
  6
CONTINUOUS
 10
-106.26111031414879
 20
286.5531423085327
 30
0.0
 11
-131.6231805948814
 21
280.60446542061987
 31
0.0
  0
LINE
  5
951
  8
0
  6
CONTINUOUS
 10
-136.00236652047391
 20
280.60446542061987
 30
0.0
 11
-136.6926147118885
 21
280.34885109357822
 31
0.0
  0
LINE
  5
952
  8
0
  6
CONTINUOUS
 10
-131.6231805948814
 20
280.60446542061987
 30
0.0
 11
-132.71298739551099
 21
280.34885109357822
 31
0.0
  0
LINE
  5
953
  8
0
  6
CONTINUOUS
 10
-136.6926147118885
 20
280.34885109357822
 30
0.0
 11
-137.2998653897985
 21
279.93128411865882
 31
0.0
  0
LINE
  5
954
  8
0
  6
CONTINUOUS
 10
-132.71298739551099
 20
280.34885109357822
 30
0.0
 11
-134.4932762167673
 21
279.93128411865882
 31
0.0
  0
LINE
  5
955
  8
0
  6
CONTINUOUS
 10
-137.2998653897985
 20
279.93128411865882
 30
0.0
 11
-137.56435682860791
 21
279.63088700424089
 31
0.0
  0
LINE
  5
956
  8
0
  6
CONTINUOUS
 10
-134.4932762167673
 20
279.93128411865882
 30
0.0
 11
-135.7740135759397
 21
279.63088700424089
 31
0.0
  0
LINE
  5
957
  8
0
  6
CONTINUOUS
 10
-137.56435682860791
 20
279.63088700424089
 30
0.0
 11
-137.71388082597119
 21
279.46106457994512
 31
0.0
  0
LINE
  5
958
  8
0
  6
CONTINUOUS
 10
-135.7740135759397
 20
279.63088700424089
 30
0.0
 11
-136.2323304283791
 21
279.46106457994512
 31
0.0
  0
LINE
  5
959
  8
0
  6
CONTINUOUS
 10
-137.71388082597119
 20
279.46106457994512
 30
0.0
 11
-137.7861261746873
 21
279.3790116621563
 31
0.0
  0
LINE
  5
95A
  8
0
  6
CONTINUOUS
 10
-136.2323304283791
 20
279.46106457994512
 30
0.0
 11
-136.35159741177199
 21
279.3790116621563
 31
0.0
  0
LINE
  5
95B
  8
0
  6
CONTINUOUS
 10
-137.7861261746873
 20
279.3790116621563
 30
0.0
 11
-137.88682452192569
 21
279.18361976023499
 31
0.0
  0
LINE
  5
95C
  8
0
  6
CONTINUOUS
 10
-136.35159741177199
 20
279.3790116621563
 30
0.0
 11
-136.63560684555699
 21
279.18361976023499
 31
0.0
  0
LINE
  5
95D
  8
0
  6
CONTINUOUS
 10
-137.88682452192569
 20
279.18361976023499
 30
0.0
 11
-138.07669692751119
 21
278.81519732364899
 31
0.0
  0
LINE
  5
95E
  8
0
  6
CONTINUOUS
 10
-136.63560684555699
 20
279.18361976023499
 30
0.0
 11
-136.96022461173121
 21
278.81519732364899
 31
0.0
  0
LINE
  5
95F
  8
0
  6
CONTINUOUS
 10
-138.07669692751119
 20
278.81519732364899
 30
0.0
 11
-138.12378096559831
 21
278.72383693885331
 31
0.0
  0
LINE
  5
960
  8
0
  6
CONTINUOUS
 10
-136.96022461173121
 20
278.81519732364899
 30
0.0
 11
-137.00728822788551
 21
278.72383693885331
 31
0.0
  0
LINE
  5
961
  8
0
  6
CONTINUOUS
 10
-138.12378096559831
 20
278.72383693885331
 30
0.0
 11
-138.20433149808261
 21
278.3784695068602
 31
0.0
  0
LINE
  5
962
  8
0
  6
CONTINUOUS
 10
-137.00728822788551
 20
278.72383693885331
 30
0.0
 11
-137.1852016669306
 21
278.3784695068602
 31
0.0
  0
LINE
  5
963
  8
0
  6
CONTINUOUS
 10
-138.20433149808261
 20
278.3784695068602
 30
0.0
 11
-138.2912243871983
 21
278.00590866775917
 31
0.0
  0
LINE
  5
964
  8
0
  6
CONTINUOUS
 10
-137.1852016669306
 20
278.3784695068602
 30
0.0
 11
-137.27221511334619
 21
278.00590866775917
 31
0.0
  0
LINE
  5
965
  8
0
  6
CONTINUOUS
 10
-138.2912243871983
 20
278.00590866775917
 30
0.0
 11
-138.28926182652239
 21
277.90112172254982
 31
0.0
  0
LINE
  5
966
  8
0
  6
CONTINUOUS
 10
-137.27221511334619
 20
278.00590866775917
 30
0.0
 11
-137.29668862823311
 21
277.90112172254982
 31
0.0
  0
LINE
  5
967
  8
0
  6
CONTINUOUS
 10
-138.28926182652239
 20
277.90112172254982
 30
0.0
 11
-138.28009914165969
 21
277.41189875559331
 31
0.0
  0
LINE
  5
968
  8
0
  6
CONTINUOUS
 10
-137.29668862823311
 20
277.90112172254982
 30
0.0
 11
-137.2876518697054
 21
277.41189875559331
 31
0.0
  0
LINE
  5
969
  8
0
  6
CONTINUOUS
 10
-138.28009914165969
 20
277.41189875559331
 30
0.0
 11
-138.2774277967261
 21
277.26926771308291
 31
0.0
  0
LINE
  5
96A
  8
0
  6
CONTINUOUS
 10
-137.2876518697054
 20
277.41189875559331
 30
0.0
 11
-137.26709811230739
 21
277.26926771308291
 31
0.0
  0
LINE
  5
96B
  8
0
  6
CONTINUOUS
 10
-138.2774277967261
 20
277.26926771308291
 30
0.0
 11
-137.46978389328669
 21
271.66469188327028
 31
0.0
  0
LINE
  5
96C
  8
0
  6
CONTINUOUS
 10
-137.26709811230739
 20
277.26926771308291
 30
0.0
 11
-136.45945420886719
 21
271.66469188327028
 31
0.0
  0
LINE
  5
96D
  8
0
  6
CONTINUOUS
 10
-136.1227498838073
 20
269.32816100129799
 30
0.0
 11
-137.11026932149181
 21
269.16987124391972
 31
0.0
  0
LINE
  5
96E
  8
0
  6
CONTINUOUS
 10
-137.11026932149181
 20
269.16987124391972
 30
0.0
 11
-137.13307956822689
 21
269.32816100129799
 31
0.0
  0
LINE
  5
96F
  8
0
  6
CONTINUOUS
 10
-137.46978389328669
 20
271.66469188327028
 30
0.0
 11
-137.13307956822689
 21
269.32816100129799
 31
0.0
  0
LINE
  5
970
  8
0
  6
CONTINUOUS
 10
-136.45945420886719
 20
271.66469188327028
 30
0.0
 11
-136.1227498838073
 21
269.32816100129799
 31
0.0
  0
LINE
  5
971
  8
0
  6
CONTINUOUS
 10
-135.9801009930944
 20
268.33826121794868
 30
0.0
 11
-136.96762043077911
 21
268.17997146057053
 31
0.0
  0
LINE
  5
972
  8
0
  6
CONTINUOUS
 10
-135.95729074635929
 20
268.17997146057053
 30
0.0
 11
-135.9801009930944
 21
268.33826121794868
 31
0.0
  0
LINE
  5
973
  8
0
  6
CONTINUOUS
 10
-136.96762043077911
 20
268.17997146057053
 30
0.0
 11
-134.86471631573559
 21
253.5870481123055
 31
0.0
  0
LINE
  5
974
  8
0
  6
CONTINUOUS
 10
-135.95729074635929
 20
268.17997146057053
 30
0.0
 11
-133.85438663131421
 21
253.5870481123055
 31
0.0
  0
LINE
  5
975
  8
0
  6
CONTINUOUS
 10
-134.86471631573559
 20
253.5870481123055
 30
0.0
 11
-134.84416255835521
 21
253.44441706991699
 31
0.0
  0
LINE
  5
976
  8
0
  6
CONTINUOUS
 10
-133.85438663131421
 20
253.5870481123055
 30
0.0
 11
-133.85149551104689
 21
253.44441706991699
 31
0.0
  0
LINE
  5
977
  8
0
  6
CONTINUOUS
 10
-134.84416255835521
 20
253.44441706991699
 30
0.0
 11
-134.83150980686699
 21
252.82503914347481
 31
0.0
  0
LINE
  5
978
  8
0
  6
CONTINUOUS
 10
-133.85149551104689
 20
253.44441706991699
 30
0.0
 11
-133.83894076808059
 21
252.82503914347481
 31
0.0
  0
LINE
  5
979
  8
0
  6
CONTINUOUS
 10
-134.83150980686699
 20
252.82503914347481
 30
0.0
 11
-134.8552295285962
 21
252.72198667320899
 31
0.0
  0
LINE
  5
97A
  8
0
  6
CONTINUOUS
 10
-133.83894076808059
 20
252.82503914347481
 30
0.0
 11
-133.83685190242841
 21
252.72198667320899
 31
0.0
  0
LINE
  5
97B
  8
0
  6
CONTINUOUS
 10
-134.8552295285962
 20
252.72198667320899
 30
0.0
 11
-134.97059447702469
 21
252.22077325032799
 31
0.0
  0
LINE
  5
97C
  8
0
  6
CONTINUOUS
 10
-133.83685190242841
 20
252.72198667320899
 30
0.0
 11
-133.95234163321919
 21
252.22077325032799
 31
0.0
  0
LINE
  5
97D
  8
0
  6
CONTINUOUS
 10
-134.97059447702469
 20
252.22077325032799
 30
0.0
 11
-135.1461201052611
 21
251.8787569128898
 31
0.0
  0
LINE
  5
97E
  8
0
  6
CONTINUOUS
 10
-133.95234163321919
 20
252.22077325032799
 30
0.0
 11
-134.03114912905539
 21
251.8787569128898
 31
0.0
  0
LINE
  5
97F
  8
0
  6
CONTINUOUS
 10
-135.1461201052611
 20
251.8787569128898
 30
0.0
 11
-135.2531488140923
 21
251.6702086378431
 31
0.0
  0
LINE
  5
980
  8
0
  6
CONTINUOUS
 10
-134.03114912905539
 20
251.8787569128898
 30
0.0
 11
-134.13807356910451
 21
251.6702086378431
 31
0.0
  0
LINE
  5
981
  8
0
  6
CONTINUOUS
 10
-135.2531488140923
 20
251.6702086378431
 30
0.0
 11
-135.66319457150269
 21
251.20515688
 31
0.0
  0
LINE
  5
982
  8
0
  6
CONTINUOUS
 10
-134.13807356910451
 20
251.6702086378431
 30
0.0
 11
-134.3765094841946
 21
251.20515688
 31
0.0
  0
LINE
  5
983
  8
0
  6
CONTINUOUS
 10
-135.66319457150269
 20
251.20515688
 30
0.0
 11
-135.80668625862299
 21
251.10699260162801
 31
0.0
  0
LINE
  5
984
  8
0
  6
CONTINUOUS
 10
-134.3765094841946
 20
251.20515688
 30
0.0
 11
-134.4268391284719
 21
251.10699260162801
 31
0.0
  0
LINE
  5
985
  8
0
  6
CONTINUOUS
 10
-135.80668625862299
 20
251.10699260162801
 30
0.0
 11
-136.17511813351331
 21
250.8549442087652
 31
0.0
  0
LINE
  5
986
  8
0
  6
CONTINUOUS
 10
-134.4268391284719
 20
251.10699260162801
 30
0.0
 11
-134.6491703007278
 21
250.8549442087652
 31
0.0
  0
LINE
  5
987
  8
0
  6
CONTINUOUS
 10
-136.17511813351331
 20
250.8549442087652
 30
0.0
 11
-136.75692760902041
 21
250.64046277205611
 31
0.0
  0
LINE
  5
988
  8
0
  6
CONTINUOUS
 10
-134.6491703007278
 20
250.8549442087652
 30
0.0
 11
-134.83836376754181
 21
250.64046277205611
 31
0.0
  0
LINE
  5
989
  8
0
  6
CONTINUOUS
 10
-136.75692760902041
 20
250.64046277205611
 30
0.0
 11
-137.5424694869948
 21
250.4562138222559
 31
0.0
  0
LINE
  5
98A
  8
0
  6
CONTINUOUS
 10
-134.83836376754181
 20
250.64046277205611
 30
0.0
 11
-135.0008892434264
 21
250.4562138222559
 31
0.0
  0
LINE
  5
98B
  8
0
  6
CONTINUOUS
 10
-137.5424694869948
 20
250.4562138222559
 30
0.0
 11
-139.6296900392226
 21
249.96665596985849
 31
0.0
  0
LINE
  5
98C
  8
0
  6
CONTINUOUS
 10
-135.0008892434264
 20
250.4562138222559
 30
0.0
 11
-135.71596227474021
 21
249.96665596985849
 31
0.0
  0
LINE
  5
98D
  8
0
  6
CONTINUOUS
 10
-139.6296900392226
 20
249.96665596985849
 30
0.0
 11
-140.9077605899204
 21
249.66688435571641
 31
0.0
  0
LINE
  5
98E
  8
0
  6
CONTINUOUS
 10
-135.71596227474021
 20
249.96665596985849
 30
0.0
 11
-136.52857466463749
 21
249.66688435571641
 31
0.0
  0
LINE
  5
98F
  8
0
  6
CONTINUOUS
 10
-140.9077605899204
 20
249.66688435571641
 30
0.0
 11
-490.44937789141431
 21
167.6818524878644
 31
0.0
  0
LINE
  5
990
  8
0
  6
CONTINUOUS
 10
-136.52857466463749
 20
249.66688435571641
 30
0.0
 11
-486.07019196600572
 21
167.6818524878644
 31
0.0
  0
LINE
  5
991
  8
0
  6
CONTINUOUS
 10
-490.44937789141431
 20
167.6818524878644
 30
0.0
 11
-491.13962615632221
 21
167.42623814368031
 31
0.0
  0
LINE
  5
992
  8
0
  6
CONTINUOUS
 10
-486.07019196600572
 20
167.6818524878644
 30
0.0
 11
-487.15999883972307
 21
167.42623814368031
 31
0.0
  0
LINE
  5
993
  8
0
  6
CONTINUOUS
 10
-491.13962615632221
 20
167.42623814368031
 30
0.0
 11
-491.74687683827233
 21
167.00867116788871
 31
0.0
  0
LINE
  5
994
  8
0
  6
CONTINUOUS
 10
-487.15999883972307
 20
167.42623814368031
 30
0.0
 11
-488.94028766470171
 21
167.00867116788871
 31
0.0
  0
LINE
  5
995
  8
0
  6
CONTINUOUS
 10
-491.74687683827233
 20
167.00867116788871
 30
0.0
 11
-492.01136826127038
 21
166.70827407148909
 31
0.0
  0
LINE
  5
996
  8
0
  6
CONTINUOUS
 10
-488.94028766470171
 20
167.00867116788871
 30
0.0
 11
-490.22102494705581
 21
166.70827407148909
 31
0.0
  0
LINE
  5
997
  8
0
  6
CONTINUOUS
 10
-492.01136826127038
 20
166.70827407148909
 30
0.0
 11
-492.16089227559178
 21
166.53845162796711
 31
0.0
  0
LINE
  5
998
  8
0
  6
CONTINUOUS
 10
-490.22102494705581
 20
166.70827407148909
 30
0.0
 11
-490.67934188115521
 21
166.53845162796711
 31
0.0
  0
LINE
  5
999
  8
0
  6
CONTINUOUS
 10
-492.16089227559178
 20
166.53845162796711
 30
0.0
 11
-492.23313762329178
 21
166.45639871134901
 31
0.0
  0
LINE
  5
99A
  8
0
  6
CONTINUOUS
 10
-490.67934188115521
 20
166.53845162796711
 30
0.0
 11
-490.79860886154751
 21
166.45639871134901
 31
0.0
  0
LINE
  5
99B
  8
0
  6
CONTINUOUS
 10
-492.23313762329178
 20
166.45639871134901
 30
0.0
 11
-492.33383597031298
 21
166.2610068098607
 31
0.0
  0
LINE
  5
99C
  8
0
  6
CONTINUOUS
 10
-490.79860886154751
 20
166.45639871134901
 30
0.0
 11
-491.08261829160932
 21
166.2610068098607
 31
0.0
  0
LINE
  5
99D
  8
0
  6
CONTINUOUS
 10
-492.33383597031298
 20
166.2610068098607
 30
0.0
 11
-492.52370837618901
 21
165.89258437273301
 31
0.0
  0
LINE
  5
99E
  8
0
  6
CONTINUOUS
 10
-491.08261829160932
 20
166.2610068098607
 30
0.0
 11
-491.40723606040967
 21
165.89258437273301
 31
0.0
  0
LINE
  5
99F
  8
0
  6
CONTINUOUS
 10
-492.52370837618901
 20
165.89258437273301
 30
0.0
 11
-492.57079241428551
 21
165.80122398792469
 31
0.0
  0
LINE
  5
9A0
  8
0
  6
CONTINUOUS
 10
-491.40723606040967
 20
165.89258437273301
 30
0.0
 11
-491.45429967665649
 21
165.80122398792469
 31
0.0
  0
LINE
  5
9A1
  8
0
  6
CONTINUOUS
 10
-492.57079241428551
 20
165.80122398792469
 30
0.0
 11
-492.65134294680053
 21
165.45585655582121
 31
0.0
  0
LINE
  5
9A2
  8
0
  6
CONTINUOUS
 10
-491.45429967665649
 20
165.80122398792469
 30
0.0
 11
-491.6322131160839
 21
165.45585655582121
 31
0.0
  0
LINE
  5
9A3
  8
0
  6
CONTINUOUS
 10
-492.65134294680053
 20
165.45585655582121
 30
0.0
 11
-492.73823583588188
 21
165.0832957168908
 31
0.0
  0
LINE
  5
9A4
  8
0
  6
CONTINUOUS
 10
-491.6322131160839
 20
165.45585655582121
 30
0.0
 11
-491.71922656199928
 21
165.0832957168908
 31
0.0
  0
LINE
  5
9A5
  8
0
  6
CONTINUOUS
 10
-492.73823583588188
 20
165.0832957168908
 30
0.0
 11
-492.73627327520393
 21
164.9785087716256
 31
0.0
  0
LINE
  5
9A6
  8
0
  6
CONTINUOUS
 10
-491.71922656199928
 20
165.0832957168908
 30
0.0
 11
-491.74370007676981
 21
164.9785087716256
 31
0.0
  0
LINE
  5
9A7
  8
0
  6
CONTINUOUS
 10
-492.73627327520393
 20
164.9785087716256
 30
0.0
 11
-492.72711059033531
 21
164.48928580463721
 31
0.0
  0
LINE
  5
9A8
  8
0
  6
CONTINUOUS
 10
-491.74370007676981
 20
164.9785087716256
 30
0.0
 11
-491.73466331840427
 21
164.48928580463721
 31
0.0
  0
LINE
  5
9A9
  8
0
  6
CONTINUOUS
 10
-492.72711059033531
 20
164.48928580463721
 30
0.0
 11
-492.72443924540067
 21
164.34665476215309
 31
0.0
  0
LINE
  5
9AA
  8
0
  6
CONTINUOUS
 10
-491.73466331840427
 20
164.48928580463721
 30
0.0
 11
-491.7141095610101
 21
164.34665476215309
 31
0.0
  0
LINE
  5
9AB
  8
0
  6
CONTINUOUS
 10
-492.72443924540067
 20
164.34665476215309
 30
0.0
 11
-489.61791718206831
 21
142.7892104517035
 31
0.0
  0
LINE
  5
9AC
  8
0
  6
CONTINUOUS
 10
-491.7141095610101
 20
164.34665476215309
 30
0.0
 11
-488.60758749764841
 21
142.7892104517035
 31
0.0
  0
LINE
  5
9AD
  8
0
  6
CONTINUOUS
 10
-489.61791718206831
 20
142.7892104517035
 30
0.0
 11
-489.6266402423816
 21
142.7501848803191
 31
0.0
  0
LINE
  5
9AE
  8
0
  6
CONTINUOUS
 10
-488.60758749764841
 20
142.7892104517035
 30
0.0
 11
-488.60196374203082
 21
142.7501848803191
 31
0.0
  0
LINE
  5
9AF
  8
0
  6
CONTINUOUS
 10
-489.37097888912677
 20
139.30973457498621
 30
0.0
 11
-489.50191071728091
 21
138.72396659648561
 31
0.0
  0
LINE
  5
9B0
  8
0
  6
CONTINUOUS
 10
-489.50191071728091
 20
138.72396659648561
 30
0.0
 11
-490.39565538947772
 21
139.30973457498621
 31
0.0
  0
LINE
  5
9B1
  8
0
  6
CONTINUOUS
 10
-489.6266402423816
 20
142.7501848803191
 30
0.0
 11
-490.39565538947772
 21
139.30973457498621
 31
0.0
  0
LINE
  5
9B2
  8
0
  6
CONTINUOUS
 10
-488.60196374203082
 20
142.7501848803191
 30
0.0
 11
-489.37097888912677
 21
139.30973457498621
 31
0.0
  0
ENDBLK
  5
9B4
  8
0
  0
ENDSEC
  0
SECTION
  2
ENTITIES
  0
LINE
  5
25F
  8
0
 10
-404.25
 20
0.0000000000003215
 30
0.0
 11
-404.25
 21
-7.0000000000001341
 31
0.0
1001
REVIT
1002
{
1070
     1
1000
683718
1002
}
1002
{
1070
     2
1000
-2000051
1002
}
1002
{
1070
     3
1000
-2000042
1002
}
  0
LINE
  5
26C
  8
0
  6
DASH
 10
-201.16518339091439
 20
74.999999999999545
 30
0.0
 11
-399.99999999999977
 21
75.000000000000185
 31
0.0
1001
REVIT
1002
{
1070
     1
1000
683700
1002
}
1002
{
1070
     2
1000
-2000051
1002
}
1002
{
1070
     3
1000
118704
1002
}
  0
CIRCLE
  5
284
  8
0
 10
120.0654921590432
 20
346.89031666656382
 30
0.0
 40
2.5
1001
REVIT
1002
{
1070
     1
1000
538049
1002
}
1002
{
1070
     5
1000
515860
1002
}
1002
{
1070
     2
1000
-2005028
1002
}
  0
INSERT
  5
285
  8
0
  6
CONTINUOUS
  2
*U24
 10
0.0
 20
0.0
 30
0.0
1001
REVIT
1002
{
1070
     1
1000
538049
1002
}
1002
{
1070
     5
1000
515860
1002
}
1002
{
1070
     2
1000
-2005028
1002
}
1001
ACAD
1002
{
1000
R14_HATCH_DATA
1000
285
1011
1.0
1021
0.0
1031
0.0
1021
0.0
1031
0.0
1011
0.0
1021
0.0
1031
0.0
1021
1.0
1031
0.0
1011
0.0
1021
0.0
1031
0.0
1021
0.0
1031
1.0
1040
0.0
1010
0.0
1020
0.0
1030
1.0
1000
SOLID
1070
     1
1070
     0
1071
        1
1071
        0
1071
        1
1070
     2
1040
120.0654921590432
1040
346.89031666656382
1040
2.5
1040
0.0
1040
6.2831853071795862
1070
     1
1071
        0
1070
     0
1070
     1
1071
        1
1040
0.0
1040
0.0
1040
0.0
1002
}
  0
LINE
  5
286
  8
0
 10
120.0654921590432
 20
456.12245500000978
 30
0.0
 11
77.257099771948191
 21
456.12245500000978
 31
0.0
1001
REVIT
1002
{
1070
     1
1000
538049
1002
}
1002
{
1070
     5
1000
515860
1002
}
1002
{
1070
     2
1000
-2005028
1002
}
  0
LINE
  5
287
  8
0
 10
120.0654921590432
 20
346.89031666656382
 30
0.0
 11
120.0654921590432
 21
456.12245500000978
 31
0.0
1001
REVIT
1002
{
1070
     1
1000
538049
1002
}
1002
{
1070
     5
1000
515860
1002
}
1002
{
1070
     2
1000
-2005028
1002
}
  0
INSERT
  5
289
  8
0
  2
*U25
 10
0.0
 20
0.0
 30
0.0
  0
INSERT
  5
2A2
  8
0
  2
*U26
 10
0.0
 20
0.0
 30
0.0
  0
CIRCLE
  5
2A3
  8
0
 10
57.467704130765313
 20
252.79246749175039
 30
0.0
 40
2.5
1001
REVIT
1002
{
1070
     1
1000
683704
1002
}
1002
{
1070
     5
1000
233013
1002
}
1002
{
1070
     2
1000
-2005028
1002
}
  0
INSERT
  5
2A4
  8
0
  6
CONTINUOUS
  2
*U27
 10
0.0
 20
0.0
 30
0.0
1001
REVIT
1002
{
1070
     1
1000
683704
1002
}
1002
{
1070
     5
1000
233013
1002
}
1002
{
1070
     2
1000
-2005028
1002
}
1001
ACAD
1002
{
1000
R14_HATCH_DATA
1000
2A4
1011
1.0
1021
0.0
1031
0.0
1021
0.0
1031
0.0
1011
0.0
1021
0.0
1031
0.0
1021
1.0
1031
0.0
1011
0.0
1021
0.0
1031
0.0
1021
0.0
1031
1.0
1040
0.0
1010
0.0
1020
0.0
1030
1.0
1000
SOLID
1070
     1
1070
     0
1071
        1
1071
        0
1071
        1
1070
     2
1040
57.467704130765313
1040
252.79246749175039
1040
2.5
1040
0.0
1040
6.2831853071795862
1070
     1
1071
        0
1070
     0
1070
     1
1071
        1
1040
0.0
1040
0.0
1040
0.0
1002
}
  0
LINE
  5
2A5
  8
0
 10
57.467704130765313
 20
395.90559581361879
 30
0.0
 11
-2.1179002280517731
 21
395.90559581361879
 31
0.0
1001
REVIT
1002
{
1070
     1
1000
683704
1002
}
1002
{
1070
     5
1000
233013
1002
}
1002
{
1070
     2
1000
-2005028
1002
}
  0
LINE
  5
2A6
  8
0
 10
57.467704130765313
 20
252.79246749175039
 30
0.0
 11
57.467704130765313
 21
395.90559581361879
 31
0.0
1001
REVIT
1002
{
1070
     1
1000
683704
1002
}
1002
{
1070
     5
1000
233013
1002
}
1002
{
1070
     2
1000
-2005028
1002
}
  0
INSERT
  5
2A7
  8
0
  2
*U28
 10
0.0
 20
0.0
 30
0.0
  0
CIRCLE
  5
2A8
  8
0
 10
-498.74805997483128
 20
16.174638231084479
 30
0.0
 40
2.4999999999999969
1001
REVIT
1002
{
1070
     1
1000
683705
1002
}
1002
{
1070
     5
1000
233011
1002
}
1002
{
1070
     2
1000
-2005028
1002
}
  0
INSERT
  5
2A9
  8
0
  6
CONTINUOUS
  2
*U29
 10
0.0
 20
0.0
 30
0.0
1001
REVIT
1002
{
1070
     1
1000
683705
1002
}
1002
{
1070
     5
1000
233011
1002
}
1002
{
1070
     2
1000
-2005028
1002
}
1001
ACAD
1002
{
1000
R14_HATCH_DATA
1000
2A9
1011
1.0
1021
0.0
1031
0.0
1021
0.0
1031
0.0
1011
0.0
1021
0.0
1031
0.0
1021
1.0
1031
0.0
1011
0.0
1021
0.0
1031
0.0
1021
0.0
1031
1.0
1040
0.0
1010
0.0
1020
0.0
1030
1.0
1000
SOLID
1070
     1
1070
     0
1071
        1
1071
        0
1071
        1
1070
     2
1040
-498.74805997483128
1040
16.174638231084479
1040
2.4999999999999969
1040
0.0
1040
6.2831853071795862
1070
     1
1071
        0
1070
     0
1070
     1
1071
        1
1040
0.0
1040
0.0
1040
0.0
1002
}
  0
LINE
  5
2AA
  8
0
 10
-498.74805997483128
 20
-49.611387151596951
 30
0.0
 11
-528.819284587418
 21
-49.611387151596951
 31
0.0
1001
REVIT
1002
{
1070
     1
1000
683705
1002
}
1002
{
1070
     5
1000
233011
1002
}
1002
{
1070
     2
1000
-2005028
1002
}
  0
LINE
  5
2AB
  8
0
 10
-498.74805997483128
 20
16.174638231084479
 30
0.0
 11
-498.74805997483128
 21
-49.611387151596951
 31
0.0
1001
REVIT
1002
{
1070
     1
1000
683705
1002
}
1002
{
1070
     5
1000
233011
1002
}
1002
{
1070
     2
1000
-2005028
1002
}
  0
INSERT
  5
2AC
  8
0
  2
*U30
 10
0.0
 20
0.0
 30
0.0
  0
CIRCLE
  5
2AD
  8
0
 10
-97.992596134563996
 20
272.96011717671229
 30
0.0
 40
2.5000000000000142
1001
REVIT
1002
{
1070
     1
1000
683706
1002
}
1002
{
1070
     5
1000
233013
1002
}
1002
{
1070
     2
1000
-2005028
1002
}
  0
INSERT
  5
2AE
  8
0
  6
CONTINUOUS
  2
*U31
 10
0.0
 20
0.0
 30
0.0
1001
REVIT
1002
{
1070
     1
1000
683706
1002
}
1002
{
1070
     5
1000
233013
1002
}
1002
{
1070
     2
1000
-2005028
1002
}
1001
ACAD
1002
{
1000
R14_HATCH_DATA
1000
2AE
1011
1.0
1021
0.0
1031
0.0
1021
0.0
1031
0.0
1011
0.0
1021
0.0
1031
0.0
1021
1.0
1031
0.0
1011
0.0
1021
0.0
1031
0.0
1021
0.0
1031
1.0
1040
0.0
1010
0.0
1020
0.0
1030
1.0
1000
SOLID
1070
     1
1070
     0
1071
        1
1071
        0
1071
        1
1070
     2
1040
-97.992596134563996
1040
272.96011717671229
1040
2.5000000000000142
1040
0.0
1040
6.2831853071795862
1070
     1
1071
        0
1070
     0
1070
     1
1071
        1
1040
0.0
1040
0.0
1040
0.0
1002
}
  0
LINE
  5
2AF
  8
0
 10
-97.992596134563996
 20
447.00121306712259
 30
0.0
 11
-139.02420835795681
 21
447.00121306712259
 31
0.0
1001
REVIT
1002
{
1070
     1
1000
683706
1002
}
1002
{
1070
     5
1000
233013
1002
}
1002
{
1070
     2
1000
-2005028
1002
}
  0
LINE
  5
2B0
  8
0
 10
-97.992596134563996
 20
272.96011717671229
 30
0.0
 11
-97.992596134563996
 21
447.00121306712259
 31
0.0
1001
REVIT
1002
{
1070
     1
1000
683706
1002
}
1002
{
1070
     5
1000
233013
1002
}
1002
{
1070
     2
1000
-2005028
1002
}
  0
INSERT
  5
2B1
  8
0
  2
*U32
 10
0.0
 20
0.0
 30
0.0
  0
CIRCLE
  5
2B2
  8
0
 10
-371.36066987241207
 20
-4.6125983903005441
 30
0.0
 40
2.4999999999999432
1001
REVIT
1002
{
1070
     1
1000
683707
1002
}
1002
{
1070
     5
1000
233013
1002
}
1002
{
1070
     2
1000
-2005028
1002
}
  0
INSERT
  5
2B3
  8
0
  6
CONTINUOUS
  2
*U33
 10
0.0
 20
0.0
 30
0.0
1001
REVIT
1002
{
1070
     1
1000
683707
1002
}
1002
{
1070
     5
1000
233013
1002
}
1002
{
1070
     2
1000
-2005028
1002
}
1001
ACAD
1002
{
1000
R14_HATCH_DATA
1000
2B3
1011
1.0
1021
0.0
1031
0.0
1021
0.0
1031
0.0
1011
0.0
1021
0.0
1031
0.0
1021
1.0
1031
0.0
1011
0.0
1021
0.0
1031
0.0
1021
0.0
1031
1.0
1040
0.0
1010
0.0
1020
0.0
1030
1.0
1000
SOLID
1070
     1
1070
     0
1071
        1
1071
        0
1071
        1
1070
     2
1040
-371.36066987241207
1040
-4.6125983903005441
1040
2.4999999999999432
1040
0.0
1040
6.2831853071795862
1070
     1
1071
        0
1070
     0
1070
     1
1071
        1
1040
0.0
1040
0.0
1040
0.0
1002
}
  0
LINE
  5
2B4
  8
0
 10
-371.36066987241207
 20
-129.94802151458521
 30
0.0
 11
-643.444284587418
 21
-129.94802151458521
 31
0.0
1001
REVIT
1002
{
1070
     1
1000
683707
1002
}
1002
{
1070
     5
1000
233013
1002
}
1002
{
1070
     2
1000
-2005028
1002
}
  0
LINE
  5
2B5
  8
0
 10
-371.36066987241207
 20
-4.6125983903005441
 30
0.0
 11
-371.36066987241207
 21
-129.94802151458521
 31
0.0
1001
REVIT
1002
{
1070
     1
1000
683707
1002
}
1002
{
1070
     5
1000
233013
1002
}
1002
{
1070
     2
1000
-2005028
1002
}
  0
INSERT
  5
2B6
  8
0
  2
*U34
 10
0.0
 20
0.0
 30
0.0
  0
CIRCLE
  5
2B7
  8
0
 10
-431.28179687252208
 20
-42.964082662386659
 30
0.0
 40
2.5
1001
REVIT
1002
{
1070
     1
1000
683709
1002
}
1002
{
1070
     5
1000
233011
1002
}
1002
{
1070
     2
1000
-2005028
1002
}
  0
INSERT
  5
2B8
  8
0
  6
CONTINUOUS
  2
*U35
 10
0.0
 20
0.0
 30
0.0
1001
REVIT
1002
{
1070
     1
1000
683709
1002
}
1002
{
1070
     5
1000
233011
1002
}
1002
{
1070
     2
1000
-2005028
1002
}
1001
ACAD
1002
{
1000
R14_HATCH_DATA
1000
2B8
1011
1.0
1021
0.0
1031
0.0
1021
0.0
1031
0.0
1011
0.0
1021
0.0
1031
0.0
1021
1.0
1031
0.0
1011
0.0
1021
0.0
1031
0.0
1021
0.0
1031
1.0
1040
0.0
1010
0.0
1020
0.0
1030
1.0
1000
SOLID
1070
     1
1070
     0
1071
        1
1071
        0
1071
        1
1070
     2
1040
-431.28179687252208
1040
-42.964082662386659
1040
2.5
1040
0.0
1040
6.2831853071795862
1070
     1
1071
        0
1070
     0
1070
     1
1071
        1
1040
0.0
1040
0.0
1040
0.0
1002
}
  0
LINE
  5
2B9
  8
0
 10
-431.28179687252208
 20
-98.945608927336437
 30
0.0
 11
-570.44428458741811
 21
-98.945608927336409
 31
0.0
1001
REVIT
1002
{
1070
     1
1000
683709
1002
}
1002
{
1070
     5
1000
233011
1002
}
1002
{
1070
     2
1000
-2005028
1002
}
  0
LINE
  5
2BA
  8
0
 10
-431.28179687252208
 20
-42.964082662386659
 30
0.0
 11
-431.28179687252208
 21
-98.945608927336437
 31
0.0
1001
REVIT
1002
{
1070
     1
1000
683709
1002
}
1002
{
1070
     5
1000
233011
1002
}
1002
{
1070
     2
1000
-2005028
1002
}
  0
INSERT
  5
2BB
  8
0
  2
*U36
 10
0.0
 20
0.0
 30
0.0
  0
CIRCLE
  5
2BC
  8
0
 10
-341.22830697254972
 20
143.6499963602412
 30
0.0
 40
2.5
1001
REVIT
1002
{
1070
     1
1000
683711
1002
}
1002
{
1070
     5
1000
233013
1002
}
1002
{
1070
     2
1000
-2005028
1002
}
  0
INSERT
  5
2BD
  8
0
  6
CONTINUOUS
  2
*U37
 10
0.0
 20
0.0
 30
0.0
1001
REVIT
1002
{
1070
     1
1000
683711
1002
}
1002
{
1070
     5
1000
233013
1002
}
1002
{
1070
     2
1000
-2005028
1002
}
1001
ACAD
1002
{
1000
R14_HATCH_DATA
1000
2BD
1011
1.0
1021
0.0
1031
0.0
1021
0.0
1031
0.0
1011
0.0
1021
0.0
1031
0.0
1021
1.0
1031
0.0
1011
0.0
1021
0.0
1031
0.0
1021
0.0
1031
1.0
1040
0.0
1010
0.0
1020
0.0
1030
1.0
1000
SOLID
1070
     1
1070
     0
1071
        1
1071
        0
1071
        1
1070
     2
1040
-341.22830697254972
1040
143.6499963602412
1040
2.5
1040
0.0
1040
6.2831853071795862
1070
     1
1071
        0
1070
     0
1070
     1
1071
        1
1040
0.0
1040
0.0
1040
0.0
1002
}
  0
LINE
  5
2BE
  8
0
 10
-341.22830697254972
 20
-175.54796328921009
 30
0.0
 11
-523.944284587418
 21
-175.54796328921009
 31
0.0
1001
REVIT
1002
{
1070
     1
1000
683711
1002
}
1002
{
1070
     5
1000
233013
1002
}
1002
{
1070
     2
1000
-2005028
1002
}
  0
LINE
  5
2BF
  8
0
 10
-341.22830697254972
 20
143.6499963602412
 30
0.0
 11
-341.22830697254972
 21
-175.54796328921009
 31
0.0
1001
REVIT
1002
{
1070
     1
1000
683711
1002
}
1002
{
1070
     5
1000
233013
1002
}
1002
{
1070
     2
1000
-2005028
1002
}
  0
INSERT
  5
2C0
  8
0
  2
*U38
 10
0.0
 20
0.0
 30
0.0
  0
CIRCLE
  5
2C1
  8
0
 10
-442.10053408952308
 20
144.1708657885336
 30
0.0
 40
2.4999999999999432
1001
REVIT
1002
{
1070
     1
1000
683713
1002
}
1002
{
1070
     5
1000
233013
1002
}
1002
{
1070
     2
1000
-2005028
1002
}
  0
INSERT
  5
2C2
  8
0
  6
CONTINUOUS
  2
*U39
 10
0.0
 20
0.0
 30
0.0
1001
REVIT
1002
{
1070
     1
1000
683713
1002
}
1002
{
1070
     5
1000
233013
1002
}
1002
{
1070
     2
1000
-2005028
1002
}
1001
ACAD
1002
{
1000
R14_HATCH_DATA
1000
2C2
1011
1.0
1021
0.0
1031
0.0
1021
0.0
1031
0.0
1011
0.0
1021
0.0
1031
0.0
1021
1.0
1031
0.0
1011
0.0
1021
0.0
1031
0.0
1021
0.0
1031
1.0
1040
0.0
1010
0.0
1020
0.0
1030
1.0
1000
SOLID
1070
     1
1070
     0
1071
        1
1071
        0
1071
        1
1070
     2
1040
-442.10053408952308
1040
144.1708657885336
1040
2.4999999999999432
1040
0.0
1040
6.2831853071795862
1070
     1
1071
        0
1070
     0
1070
     1
1071
        1
1040
0.0
1040
0.0
1040
0.0
1002
}
  0
LINE
  5
2C3
  8
0
 10
-442.10053408952308
 20
349.90417609517311
 30
0.0
 11
-519.81928458741811
 21
349.904176095173
 31
0.0
1001
REVIT
1002
{
1070
     1
1000
683713
1002
}
1002
{
1070
     5
1000
233013
1002
}
1002
{
1070
     2
1000
-2005028
1002
}
  0
LINE
  5
2C4
  8
0
 10
-442.10053408952308
 20
144.1708657885336
 30
0.0
 11
-442.10053408952308
 21
349.90417609517311
 31
0.0
1001
REVIT
1002
{
1070
     1
1000
683713
1002
}
1002
{
1070
     5
1000
233013
1002
}
1002
{
1070
     2
1000
-2005028
1002
}
  0
INSERT
  5
2C5
  8
0
  2
*U40
 10
0.0
 20
0.0
 30
0.0
  0
CIRCLE
  5
2C6
  8
0
 10
-473.39233209852102
 20
131.4663663716845
 30
0.0
 40
2.5
1001
REVIT
1002
{
1070
     1
1000
703688
1002
}
1002
{
1070
     5
1000
233013
1002
}
1002
{
1070
     2
1000
-2005028
1002
}
  0
INSERT
  5
2C7
  8
0
  6
CONTINUOUS
  2
*U41
 10
0.0
 20
0.0
 30
0.0
1001
REVIT
1002
{
1070
     1
1000
703688
1002
}
1002
{
1070
     5
1000
233013
1002
}
1002
{
1070
     2
1000
-2005028
1002
}
1001
ACAD
1002
{
1000
R14_HATCH_DATA
1000
2C7
1011
1.0
1021
0.0
1031
0.0
1021
0.0
1031
0.0
1011
0.0
1021
0.0
1031
0.0
1021
1.0
1031
0.0
1011
0.0
1021
0.0
1031
0.0
1021
0.0
1031
1.0
1040
0.0
1010
0.0
1020
0.0
1030
1.0
1000
SOLID
1070
     1
1070
     0
1071
        1
1071
        0
1071
        1
1070
     2
1040
-473.39233209852102
1040
131.4663663716845
1040
2.5
1040
0.0
1040
6.2831853071795862
1070
     1
1071
        0
1070
     0
1070
     1
1071
        1
1040
0.0
1040
0.0
1040
0.0
1002
}
  0
LINE
  5
2C8
  8
0
 10
-473.39233209852102
 20
131.4663663716845
 30
0.0
 11
-607.56928458741822
 21
131.4663663716845
 31
0.0
1001
REVIT
1002
{
1070
     1
1000
703688
1002
}
1002
{
1070
     5
1000
233013
1002
}
1002
{
1070
     2
1000
-2005028
1002
}
  0
INSERT
  5
2C9
  8
0
  2
*U42
 10
0.0
 20
0.0
 30
0.0
  0
LINE
  5
32E
  8
0
 10
178.39361968854769
 20
422.07633926360461
 30
0.0
 11
178.39361968854789
 21
300.63033240520468
 31
0.0
  0
LINE
  5
32F
  8
0
 10
178.39361968854811
 20
172.07633926360461
 30
0.0
 11
178.39361968854789
 21
293.52234612200448
 31
0.0
  0
LINE
  5
330
  8
0
 10
178.39361968854769
 20
422.07633926360461
 30
0.0
 11
178.39361968854789
 21
300.63033240520468
 31
0.0
  0
LINE
  5
331
  8
0
 10
178.39361968854789
 20
300.63033240520468
 30
0.0
 11
168.08600052766701
 21
298.81282104027389
 31
0.0
  0
LINE
  5
332
  8
0
 10
168.0860005276669
 20
298.81282104027389
 30
0.0
 11
188.70123884942871
 21
295.33985748693527
 31
0.0
  0
LINE
  5
333
  8
0
 10
188.70123884942871
 20
295.33985748693527
 30
0.0
 11
178.39361968854789
 21
293.52234612200448
 31
0.0
  0
LINE
  5
334
  8
0
 10
178.39361968854789
 20
293.52234612200448
 30
0.0
 11
178.39361968854811
 21
172.07633926360461
 31
0.0
  0
LINE
  5
335
  8
0
 10
119.99999999999859
 20
-228.78154087428589
 30
0.0
 11
23.55399314159871
 21
-228.78154087428589
 31
0.0
  0
LINE
  5
336
  8
0
 10
-80.000000000001407
 20
-228.78154087428589
 30
0.0
 11
16.446006858398508
 21
-228.78154087428589
 31
0.0
  0
LINE
  5
337
  8
0
 10
119.99999999999859
 20
-228.78154087428589
 30
0.0
 11
23.55399314159871
 21
-228.78154087428589
 31
0.0
  0
LINE
  5
338
  8
0
 10
23.55399314159871
 20
-228.78154087428589
 30
0.0
 11
21.736481776667919
 21
-218.47392171340499
 31
0.0
  0
LINE
  5
339
  8
0
 10
21.736481776667919
 20
-218.47392171340491
 30
0.0
 11
18.263518223329289
 21
-239.08916003516671
 31
0.0
  0
LINE
  5
33A
  8
0
 10
18.263518223329289
 20
-239.08916003516671
 30
0.0
 11
16.446006858398508
 21
-228.78154087428589
 31
0.0
  0
LINE
  5
33B
  8
0
 10
16.446006858398508
 20
-228.78154087428589
 30
0.0
 11
-80.000000000001407
 21
-228.78154087428589
 31
0.0
  0
ARC
  5
33C
  8
0
 10
48.999999999999872
 20
-2.0000000000000071
 30
0.0
 40
1.999999999999998
 50
0.0
 51
90.000000000000185
1001
REVIT
1002
{
1070
     3
1000
224526
1002
}
  0
ARC
  5
33D
  8
0
 10
2.9999999999999112
 20
-1.9999999999999361
 30
0.0
 40
2.0
 50
89.999999999999801
 51
179.9999999999996
1001
REVIT
1002
{
1070
     3
1000
224526
1002
}
  0
ARC
  5
33E
  8
0
 10
2.999999999999921
 20
-73.0
 30
0.0
 40
1.9999999999999949
 50
180.0
 51
269.99999999999977
1001
REVIT
1002
{
1070
     3
1000
224526
1002
}
  0
ARC
  5
33F
  8
0
 10
48.99999999999995
 20
-73.0
 30
0.0
 40
1.999999999999996
 50
269.9999999999996
 51
0.0
1001
REVIT
1002
{
1070
     3
1000
224526
1002
}
  0
LINE
  5
340
  8
0
 10
48.999999999999872
 20
0.0000000000000639
 30
0.0
 11
2.999999999999921
 21
0.0000000000000639
 31
0.0
1001
REVIT
1002
{
1070
     3
1000
224526
1002
}
  0
LINE
  5
341
  8
0
 10
0.9999999999999111
 20
-1.9999999999999281
 30
0.0
 11
0.9999999999999111
 21
-73.0
 31
0.0
1001
REVIT
1002
{
1070
     3
1000
224526
1002
}
  0
LINE
  5
342
  8
0
 10
2.9999999999999072
 20
-75.0
 30
0.0
 11
48.99999999999995
 21
-75.0
 31
0.0
1001
REVIT
1002
{
1070
     3
1000
224526
1002
}
  0
LINE
  5
343
  8
0
 10
50.999999999999943
 20
-73.0
 30
0.0
 11
50.999999999999943
 21
-2.0000000000000142
 31
0.0
1001
REVIT
1002
{
1070
     3
1000
224526
1002
}
  0
LINE
  5
344
  8
0
 10
2.9999999999997509
 20
-1.999999999999758
 30
0.0
 11
48.999999999999972
 21
-72.999999999999943
 31
0.0
  0
LINE
  5
345
  8
0
 10
48.999999999999972
 20
-1.999999999999758
 30
0.0
 11
2.9999999999999529
 21
-73.0
 31
0.0
  0
LINE
  5
346
  8
0
 10
100.0000000000006
 20
-228.78154087428709
 30
0.0
 11
100.00000000000129
 21
134.6151623516177
 31
0.0
1001
REVIT
1002
{
1070
     3
1000
206265
1002
}
  0
LINE
  5
347
  8
0
 10
0.0000000000012079
 20
134.61516235161781
 30
0.0
 11
0.0000000000004974
 21
-228.78154087428689
 31
0.0
1001
REVIT
1002
{
1070
     3
1000
206265
1002
}
  0
LINE
  5
348
  8
0
 10
-476.30000000000342
 20
145.4633376874246
 30
0.0
 11
-476.30000000000342
 21
149.46333768742591
 31
0.0
1001
REVIT
1002
{
1070
     3
1000
211597
1002
}
  0
LINE
  5
349
  8
0
 10
-447.55000000000342
 20
146.96333768742409
 30
0.0
 11
-475.55000000000342
 21
146.96333768742409
 31
0.0
1001
REVIT
1002
{
1070
     3
1000
211597
1002
}
  0
LINE
  5
34A
  8
0
 10
-445.55000000000342
 20
147.4633376874252
 30
0.0
 11
-447.55000000000342
 21
146.96333768742409
 31
0.0
1001
REVIT
1002
{
1070
     3
1000
211597
1002
}
  0
LINE
  5
34B
  8
0
 10
-447.55000000000342
 20
147.96333768742409
 30
0.0
 11
-445.55000000000342
 21
147.4633376874252
 31
0.0
1001
REVIT
1002
{
1070
     3
1000
211597
1002
}
  0
LINE
  5
34C
  8
0
 10
-475.55000000000342
 20
147.96333768742409
 30
0.0
 11
-447.55000000000342
 21
147.96333768742409
 31
0.0
1001
REVIT
1002
{
1070
     3
1000
211597
1002
}
  0
LINE
  5
34D
  8
0
 10
-475.55000000000342
 20
149.16320122853551
 30
0.0
 11
-475.55000000000342
 21
147.96333768742409
 31
0.0
1001
REVIT
1002
{
1070
     3
1000
211597
1002
}
  0
LINE
  5
34E
  8
0
 10
-475.55000000000342
 20
146.96333768742409
 30
0.0
 11
-475.55000000000342
 21
145.76347414631309
 31
0.0
1001
REVIT
1002
{
1070
     3
1000
211597
1002
}
  0
LINE
  5
34F
  8
0
 10
-476.30000000000342
 20
145.4633376874246
 30
0.0
 11
-475.55000000000342
 21
145.76347414631309
 31
0.0
1001
REVIT
1002
{
1070
     3
1000
211597
1002
}
  0
LINE
  5
350
  8
0
 10
-476.30000000000342
 20
149.46333768742591
 30
0.0
 11
-475.55000000000342
 21
149.16320122853551
 31
0.0
1001
REVIT
1002
{
1070
     3
1000
211597
1002
}
  0
ARC
  5
351
  8
0
 10
-2.9999999999999178
 20
72.999999999999901
 30
0.0
 40
1.999999999999998
 50
0.0
 51
90.000000000000185
1001
REVIT
1002
{
1070
     3
1000
224526
1002
}
  0
ARC
  5
352
  8
0
 10
-48.999999999999872
 20
72.999999999999972
 30
0.0
 40
2.0
 50
89.999999999999801
 51
179.9999999999996
1001
REVIT
1002
{
1070
     3
1000
224526
1002
}
  0
ARC
  5
353
  8
0
 10
-48.999999999999872
 20
1.999999999999907
 30
0.0
 40
1.9999999999999949
 50
180.0
 51
269.99999999999977
1001
REVIT
1002
{
1070
     3
1000
224526
1002
}
  0
ARC
  5
354
  8
0
 10
-2.9999999999998428
 20
1.9999999999999001
 30
0.0
 40
1.999999999999996
 50
269.9999999999996
 51
0.0
1001
REVIT
1002
{
1070
     3
1000
224526
1002
}
  0
LINE
  5
355
  8
0
 10
-2.9999999999999138
 20
74.999999999999972
 30
0.0
 11
-48.999999999999872
 21
74.999999999999972
 31
0.0
1001
REVIT
1002
{
1070
     3
1000
224526
1002
}
  0
LINE
  5
356
  8
0
 10
-50.999999999999872
 20
72.999999999999972
 30
0.0
 11
-50.999999999999872
 21
1.9999999999999141
 31
0.0
1001
REVIT
1002
{
1070
     3
1000
224526
1002
}
  0
LINE
  5
357
  8
0
 10
-48.999999999999872
 20
-0.0000000000000995
 30
0.0
 11
-2.9999999999998401
 21
-0.0000000000000995
 31
0.0
1001
REVIT
1002
{
1070
     3
1000
224526
1002
}
  0
LINE
  5
358
  8
0
 10
-0.9999999999998436
 20
1.9999999999999001
 30
0.0
 11
-0.9999999999998436
 21
72.999999999999886
 31
0.0
1001
REVIT
1002
{
1070
     3
1000
224526
1002
}
  0
LINE
  5
359
  8
0
 10
-49.000000000000028
 20
73.000000000000142
 30
0.0
 11
-2.9999999999998108
 21
1.9999999999999709
 31
0.0
  0
LINE
  5
35A
  8
0
 10
-2.9999999999998179
 20
73.000000000000142
 30
0.0
 11
-48.999999999999829
 21
1.9999999999999001
 31
0.0
  0
LINE
  5
35B
  8
0
 10
199.9049116822429
 20
328.46486362353693
 30
0.0
 11
-404.24999999999977
 21
108.57045888547481
 31
0.0
1001
REVIT
1002
{
1070
     3
1000
206265
1002
}
  0
LINE
  5
35C
  8
0
 10
-404.25000000000023
 20
2.1526816378833331
 30
0.0
 11
199.9049116822427
 21
222.0470863759455
 31
0.0
1001
REVIT
1002
{
1070
     3
1000
206265
1002
}
  0
LINE
  5
35D
  8
0
 10
-50.999999999999368
 20
75.000000000000483
 30
0.0
 11
-204.10363773226081
 21
75.000000000000483
 31
0.0
1001
REVIT
1002
{
1070
     3
1000
206265
1002
}
  0
LINE
  5
35E
  8
0
 10
-404.2499999999996
 20
0.000000000000334
 30
0.0
 11
-50.999999999999368
 21
0.000000000000334
 31
0.0
1001
REVIT
1002
{
1070
     3
1000
206265
1002
}
  0
LINE
  5
35F
  8
0
 10
-476.30000000000342
 20
80.663337687424587
 30
0.0
 11
-476.30000000000342
 21
84.663337687425951
 31
0.0
1001
REVIT
1002
{
1070
     3
1000
211597
1002
}
  0
LINE
  5
360
  8
0
 10
-447.55000000000342
 20
82.163337687424104
 30
0.0
 11
-475.55000000000348
 21
82.163337687424146
 31
0.0
1001
REVIT
1002
{
1070
     3
1000
211597
1002
}
  0
LINE
  5
361
  8
0
 10
-445.55000000000348
 20
82.663337687425255
 30
0.0
 11
-447.55000000000342
 21
82.163337687424104
 31
0.0
1001
REVIT
1002
{
1070
     3
1000
211597
1002
}
  0
LINE
  5
362
  8
0
 10
-447.55000000000342
 20
83.163337687424104
 30
0.0
 11
-445.55000000000348
 21
82.663337687425255
 31
0.0
1001
REVIT
1002
{
1070
     3
1000
211597
1002
}
  0
LINE
  5
363
  8
0
 10
-475.55000000000348
 20
83.163337687424132
 30
0.0
 11
-447.55000000000342
 21
83.163337687424104
 31
0.0
1001
REVIT
1002
{
1070
     3
1000
211597
1002
}
  0
LINE
  5
364
  8
0
 10
-475.55000000000348
 20
84.363201228535559
 30
0.0
 11
-475.55000000000348
 21
83.163337687424132
 31
0.0
1001
REVIT
1002
{
1070
     3
1000
211597
1002
}
  0
LINE
  5
365
  8
0
 10
-475.55000000000348
 20
82.163337687424146
 30
0.0
 11
-475.55000000000348
 21
80.963474146313146
 31
0.0
1001
REVIT
1002
{
1070
     3
1000
211597
1002
}
  0
LINE
  5
366
  8
0
 10
-476.30000000000342
 20
80.663337687424587
 30
0.0
 11
-475.55000000000348
 21
80.963474146313146
 31
0.0
1001
REVIT
1002
{
1070
     3
1000
211597
1002
}
  0
LINE
  5
367
  8
0
 10
-476.30000000000342
 20
84.663337687425951
 30
0.0
 11
-475.55000000000348
 21
84.363201228535559
 31
0.0
1001
REVIT
1002
{
1070
     3
1000
211597
1002
}
  0
INSERT
  5
368
  8
0
  6
CONTINUOUS
  2
*U43
 10
0.0
 20
0.0
 30
0.0
1001
ACAD
1002
{
1000
R14_HATCH_DATA
1000
368
1011
1.0
1021
0.0
1031
0.0
1021
0.0
1031
0.0
1011
0.0
1021
0.0
1031
0.0
1021
1.0
1031
0.0
1011
0.0
1021
0.0
1031
0.0
1021
0.0
1031
1.0
1040
0.0
1010
0.0
1020
0.0
1030
1.0
1000
SOLID
1070
     1
1070
     0
1071
        3
1071
        0
1071
        5
1070
     1
1040
-473.55000000000251
1040
45.146146506741573
1040
-471.55000000000263
1040
45.146146506741559
1070
     1
1040
-471.55000000000251
1040
45.146146506741559
1040
-471.550000000002
1040
82.163337687424232
1070
     1
1040
-471.55000000000211
1040
82.163337687424232
1040
-473.55000000000223
1040
82.163337687424246
1070
     1
1040
-473.55000000000223
1040
82.163337687424246
1040
-473.5500000000024
1040
55.012891851198411
1070
     1
1040
-473.5500000000024
1040
55.012891851198411
1040
-473.5500000000024
1040
45.146146506741573
1071
        0
1071
        0
1071
        4
1070
     1
1040
-471.55000000000211
1040
83.163337687424132
1040
-471.55000000000189
1040
146.9633376874244
1070
     1
1040
-471.55000000000189
1040
146.9633376874244
1040
-473.55000000000177
1040
146.9633376874244
1070
     1
1040
-473.55000000000177
1040
146.96333768742451
1040
-473.55000000000223
1040
83.163337687424146
1070
     1
1040
-473.55000000000223
1040
83.163337687424146
1040
-471.55000000000211
1040
83.163337687424146
1071
        0
1071
        0
1071
        4
1070
     1
1040
-473.55000000000189
1040
147.9633376874244
1040
-471.55000000000189
1040
147.9633376874244
1070
     1
1040
-471.55000000000189
1040
147.9633376874244
1040
-471.55000000000177
1040
165.1461465067417
1070
     1
1040
-471.55000000000177
1040
165.1461465067417
1040
-473.55000000000172
1040
165.1461465067417
1070
     1
1040
-473.55000000000172
1040
165.1461465067417
1040
-473.55000000000189
1040
147.9633376874244
1071
        0
1070
     0
1070
     1
1071
        1
1040
-473.55000000000189
1040
45.146146506741431
1040
0.0
1002
}
  0
LINE
  5
369
  8
0
 10
-473.55000000000109
 20
165.14614650674139
 30
0.0
 11
-473.55000000000121
 21
147.9633376874242
 31
0.0
  0
LINE
  5
36A
  8
0
 10
-473.55000000000121
 20
146.9633376874242
 30
0.0
 11
-473.5500000000016
 21
83.163337687424132
 31
0.0
  0
LINE
  5
36B
  8
0
 10
-473.5500000000016
 20
82.163337687424146
 30
0.0
 11
-473.55000000000189
 21
45.146146506741431
 31
0.0
  0
LINE
  5
36C
  8
0
 10
-473.55000000000189
 20
45.146146506741431
 30
0.0
 11
-471.55000000000189
 21
45.146146506741417
 31
0.0
  0
LINE
  5
36D
  8
0
 10
-471.55000000000189
 20
45.146146506741417
 30
0.0
 11
-471.55000000000172
 21
82.163337687424104
 31
0.0
  0
LINE
  5
36E
  8
0
 10
-471.55000000000172
 20
83.163337687424118
 30
0.0
 11
-471.55000000000121
 21
146.9633376874242
 31
0.0
  0
LINE
  5
36F
  8
0
 10
-471.55000000000121
 20
147.9633376874242
 30
0.0
 11
-471.55000000000121
 21
165.14614650674139
 31
0.0
  0
LINE
  5
370
  8
0
 10
-471.55000000000121
 20
165.14614650674139
 30
0.0
 11
-473.55000000000109
 21
165.14614650674139
 31
0.0
  0
LINE
  5
371
  8
0
  6
DASH
 10
-467.55000000000172
 20
108.03872599031961
 30
0.0
 11
-467.55000000000177
 21
83.163337687424118
 31
0.0
1001
REVIT
1002
{
1070
     3
1000
217411
1002
}
  0
LINE
  5
372
  8
0
  6
DASH
 10
-467.55000000000177
 20
82.163337687424104
 30
0.0
 11
-467.55000000000177
 21
76.494574202364475
 31
0.0
1001
REVIT
1002
{
1070
     3
1000
217411
1002
}
  0
ARC
  5
373
  8
0
 10
-422.94151964865182
 20
168.634114174106
 30
0.0
 40
1.9999999999999969
 50
19.999999999999531
 51
110.0000000000001
1001
REVIT
1002
{
1070
     3
1000
224526
1002
}
  0
ARC
  5
374
  8
0
 10
-466.16738020480369
 20
152.90118758112541
 30
0.0
 40
2.0
 50
110.0000000000001
 51
199.99999999999949
1001
REVIT
1002
{
1070
     3
1000
224526
1002
}
  0
ARC
  5
375
  8
0
 10
-453.85465504507971
 20
119.07225323283269
 30
0.0
 40
1.999999999999996
 50
199.99999999999949
 51
290.00000000000011
1001
REVIT
1002
{
1070
     3
1000
224526
1002
}
  0
ARC
  5
376
  8
0
 10
-410.62879448892778
 20
134.80517982581341
 30
0.0
 40
1.9999999999999989
 50
290.00000000000011
 51
19.999999999999531
1001
REVIT
1002
{
1070
     3
1000
224526
1002
}
  0
LINE
  5
377
  8
0
 10
-423.62555993530327
 20
170.5134994156779
 30
0.0
 11
-466.85142049145497
 21
154.78057282269731
 31
0.0
1001
REVIT
1002
{
1070
     3
1000
224526
1002
}
  0
LINE
  5
378
  8
0
 10
-468.0467654463755
 20
152.2171472944741
 30
0.0
 11
-466.49850536717372
 21
147.9633376874242
 31
0.0
1001
REVIT
1002
{
1070
     3
1000
224526
1002
}
  0
LINE
  5
379
  8
0
 10
-466.1345351329075
 20
146.9633376874242
 30
0.0
 11
-455.73404028665152
 21
118.3882129461814
 31
0.0
1001
REVIT
1002
{
1070
     3
1000
224526
1002
}
  0
LINE
  5
37A
  8
0
 10
-453.17061475842843
 20
117.1928679912609
 30
0.0
 11
-409.9447542022765
 21
132.9257945842416
 31
0.0
1001
REVIT
1002
{
1070
     3
1000
224526
1002
}
  0
LINE
  5
37B
  8
0
 10
-408.74940924735603
 20
135.48922011246469
 30
0.0
 11
-421.06213440708001
 21
169.3181544607574
 31
0.0
1001
REVIT
1002
{
1070
     3
1000
224526
1002
}
  0
LINE
  5
37C
  8
0
 10
-466.16738020480392
 20
152.9011875811255
 30
0.0
 11
-451.01259008304572
 21
147.96333768742409
 31
0.0
  0
LINE
  5
37D
  8
0
 10
-447.94348299230779
 20
146.9633376874242
 30
0.0
 11
-410.62879448892778
 21
134.8051798258135
 31
0.0
  0
LINE
  5
37E
  8
0
 10
-422.94151964865182
 20
168.63411417410629
 30
0.0
 11
-453.8546550450796
 21
119.07225323283269
 31
0.0
  0
LINE
  5
37F
  8
0
 10
274.93216436871973
 20
360.77255036017982
 30
0.0
 11
270.9989327204745
 21
371.57901549921792
 31
0.0
  0
LINE
  5
380
  8
0
 10
270.9989327204745
 20
371.57901549921792
 30
0.0
 11
-452.07636860782782
 21
108.4011286826571
 31
0.0
  0
LINE
  5
381
  8
0
 10
-452.07636860782782
 20
108.4011286826571
 30
0.0
 11
-448.14313695958259
 21
97.594663543618964
 31
0.0
  0
LINE
  5
382
  8
0
 10
-448.14313695958259
 20
97.594663543618964
 30
0.0
 11
274.93216436871973
 21
360.77255036017982
 31
0.0
  0
LINE
  5
383
  8
0
 10
-448.14313695958259
 20
97.594663543618964
 30
0.0
 11
274.93216436871973
 21
360.77255036017982
 31
0.0
  0
LINE
  5
384
  8
0
 10
-452.07636860782782
 20
108.4011286826571
 30
0.0
 11
-448.14313695958259
 21
97.594663543618964
 31
0.0
  0
LINE
  5
385
  8
0
 10
270.9989327204745
 20
371.57901549921792
 30
0.0
 11
-452.07636860782782
 21
108.4011286826571
 31
0.0
  0
LINE
  5
386
  8
0
 10
274.93216436871973
 20
360.77255036017982
 30
0.0
 11
270.9989327204745
 21
371.57901549921792
 31
0.0
  0
LINE
  5
387
  8
0
 10
-455.05000000000018
 20
95.080770984753713
 30
0.0
 11
-404.24999999999977
 21
95.080770984753713
 31
0.0
  0
LINE
  5
388
  8
0
 10
-455.05000000000018
 20
-57.319229015245703
 30
0.0
 11
-455.05000000000018
 21
82.163337687424104
 31
0.0
  0
LINE
  5
389
  8
0
 10
-455.05000000000018
 20
83.163337687424004
 30
0.0
 11
-455.05000000000018
 21
95.080770984753713
 31
0.0
  0
LINE
  5
38A
  8
0
 10
-404.24999999999977
 20
-57.319229015245703
 30
0.0
 11
-455.05000000000018
 21
-57.319229015245703
 31
0.0
  0
LINE
  5
38B
  8
0
 10
-404.24999999999977
 20
0.0000000000002913
 30
0.0
 11
-404.24999999999977
 21
-57.319229015245703
 31
0.0
  0
LINE
  5
38C
  8
0
 10
-455.05000000000018
 20
95.080770984753713
 30
0.0
 11
-451.07752223422352
 21
83.163337687424004
 31
0.0
1001
REVIT
1002
{
1070
     3
1000
41944
1002
}
  0
LINE
  5
38D
  8
0
 10
-450.74418890089021
 20
82.163337687424104
 30
0.0
 11
-404.24999999999977
 21
-57.319229015245703
 31
0.0
1001
REVIT
1002
{
1070
     3
1000
41944
1002
}
  0
LINE
  5
38E
  8
0
 10
-404.24999999999977
 20
95.080770984753713
 30
0.0
 11
-455.05000000000018
 21
-57.319229015245703
 31
0.0
1001
REVIT
1002
{
1070
     3
1000
41944
1002
}
  0
INSERT
  5
38F
  8
0
  6
CONTINUOUS
  2
*U44
 10
0.0
 20
0.0
 30
0.0
1001
ACAD
1002
{
1000
R14_HATCH_DATA
1000
38F
1011
1.0
1021
0.0
1031
0.0
1021
0.0
1031
0.0
1011
0.0
1021
0.0
1031
0.0
1021
1.0
1031
0.0
1011
0.0
1021
0.0
1031
0.0
1021
0.0
1031
1.0
1040
0.0
1010
0.0
1020
0.0
1030
1.0
1000
SOLID
1070
     1
1070
     0
1071
        2
1071
        0
1071
      106
1070
     1
1040
-471.0777858860049
1040
17.896774167515321
1040
-462.80000000000052
1040
17.896774167515321
1070
     1
1040
-462.80000000000052
1040
17.896774167515321
1040
-462.08824762596868
1040
17.990478145220361
1070
     1
1040
-462.08824762596868
1040
17.990478145220361
1040
-461.42500000000081
1040
18.265204307108121
1070
     1
1040
-461.42500000000069
1040
18.265204307108121
1040
-460.8554563517377
1040
18.702230519252101
1070
     1
1040
-460.85545635173781
1040
18.702230519252101
1040
-460.4184301395938
1040
19.271774167515151
1070
     1
1040
-460.41843013959368
1040
19.27177416751514
1040
-460.14370397770602
1040
19.935021793483092
1070
     1
1040
-460.14370397770602
1040
19.935021793483092
1040
-460.05000000000098
1040
20.646774167514831
1070
     1
1040
-460.05000000000098
1040
20.646774167514831
1040
-460.05000000000098
1040
82.163337687424175
1070
     1
1040
-460.05000000000098
1040
82.163337687424175
1040
-461.05000000000098
1040
82.163337687424175
1070
     1
1040
-461.05000000000092
1040
82.163337687424175
1040
-461.05000000000092
1040
20.646774167514831
1070
     1
1040
-461.05000000000092
1040
20.646774167514831
1040
-461.10962980399501
1040
20.193840838585569
1070
     1
1040
-461.10962980399501
1040
20.193840838585569
1040
-461.2844555433781
1040
19.77177416751503
1070
     1
1040
-461.2844555433781
1040
19.77177416751503
1040
-461.56256313292431
1040
19.409337300438828
1070
     1
1040
-461.56256313292431
1040
19.409337300438828
1040
-461.92500000000069
1040
19.131229710892459
1070
     1
1040
-461.92500000000069
1040
19.131229710892459
1040
-462.34706667107122
1040
18.956403971509442
1070
     1
1040
-462.34706667107122
1040
18.956403971509442
1040
-462.80000000000069
1040
18.89677416751536
1070
     1
1040
-462.80000000000058
1040
18.89677416751536
1040
-547.75148842848876
1040
18.93763233194754
1070
     1
1040
-547.75148842848876
1040
18.93763233194754
1040
-548.10987808020752
1040
19.058298951414798
1070
     1
1040
-548.10987808020752
1040
19.058298951414798
1040
-548.43397797065938
1040
19.253139492683172
1070
     1
1040
-548.43397797065938
1040
19.253139492683172
1040
-548.70865424085434
1040
19.513055867897599
1070
     1
1040
-548.70865424085434
1040
19.513055867897599
1040
-549.08165929623283
1040
20.128251494452051
1070
     1
1040
-549.08165929623283
1040
20.128251494452051
1040
-550.56219600538338
1040
22.915835176077682
1070
     1
1040
-550.56219600538338
1040
22.915835176077682
1040
-550.93939259777665
1040
23.856546566983418
1070
     1
1040
-550.93939259777665
1040
23.856546566983418
1040
-551.10842701320246
1040
24.85586761484268
1070
     1
1040
-551.10842701320269
1040
24.85586761484268
1040
-551.06160353003418
1040
25.868301687618271
1070
     1
1040
-551.06160353003418
1040
25.868301687618271
1040
-550.58670586989638
1040
28.945808172633381
1070
     1
1040
-550.58670586989615
1040
28.945808172633381
1040
-550.57364036180547
1040
29.532811297320421
1070
     1
1040
-550.57364036180547
1040
29.532811297320421
1040
-550.71289155138277
1040
30.103208073341658
1070
     1
1040
-550.71289155138277
1040
30.103208073341651
1040
-550.99497678673845
1040
30.618155930787871
1070
     1
1040
-550.99497678673845
1040
30.618155930787871
1040
-551.72297513038041
1040
31.612444883402311
1070
     1
1040
-551.72297513038041
1040
31.612444883402311
1040
-553.45093776720898
1040
33.646127752762553
1070
     1
1040
-553.45093776720887
1040
33.646127752762553
1040
-554.87427053601584
1040
35.016934299544523
1070
     1
1040
-554.87427053601584
1040
35.016934299544523
1040
-558.76732634137204
1040
38.35773523356643
1070
     1
1040
-558.76732634137204
1040
38.35773523356643
1040
-562.93544660620273
1040
42.745772931517052
1070
     1
1040
-562.93544660620273
1040
42.745772931517052
1040
-566.12927913876933
1040
47.886544773823132
1070
     1
1040
-566.12927913876945
1040
47.886544773823132
1040
-568.31158993427607
1040
53.938754099449177
1070
     1
1040
-568.31158993427607
1040
53.938754099449177
1040
-573.6642177854668
1040
74.880482156865526
1070
     1
1040
-573.6642177854668
1040
74.880482156865511
1040
-575.00388163464174
1040
78.856308540788959
1070
     1
1040
-575.00388163464174
1040
78.856308540788959
1040
-576.46718226849941
1040
81.968797692341909
1070
     1
1040
-576.46718226849941
1040
81.968797692341909
1040
-578.51755145751144
1040
85.190275504588087
1070
     1
1040
-578.51755145751144
1040
85.190275504588087
1040
-580.953041213868
1040
88.131418607656457
1070
     1
1040
-580.953041213868
1040
88.131418607656457
1040
-583.72024696520987
1040
90.718860420340903
1070
     1
1040
-583.72024696520987
1040
90.718860420340903
1040
-586.83697023565696
1040
92.977056469710377
1070
     1
1040
-586.83697023565696
1040
92.977056469710377
1040
-592.59848381425218
1040
96.668607333680825
1070
     1
1040
-592.59848381425218
1040
96.668607333680825
1040
-592.85048257956441
1040
96.999532774024047
1070
     1
1040
-592.85048257956441
1040
96.999532774024047
1040
-593.0172640901144
1040
97.380582577230641
1070
     1
1040
-593.0172640901144
1040
97.380582577230641
1040
-593.08940607416935
1040
97.790229448232623
1070
     1
1040
-593.08940607416935
1040
97.790229448232623
1040
-592.99001215722808
1040
98.598688275643852
1070
     1
1040
-592.99001215722808
1040
98.598688275643852
1040
-590.97687257387611
1040
109.3634063493521
1070
     1
1040
-590.97687257387611
1040
109.3634063493521
1040
-590.76997576354358
1040
109.63804616212821
1070
     1
1040
-590.76997576354358
1040
109.63804616212821
1040
-590.46226247665288
1040
109.7914927324981
1070
     1
1040
-590.46226247665288
1040
109.7914927324981
1040
-590.29033711720342
1040
109.8114641914289
1070
     1
1040
-590.29033711720319
1040
109.8114641914289
1040
-577.26719249341375
1040
109.7859085611458
1070
     1
1040
-577.26719249341375
1040
109.7859085611458
1040
-576.93097669135068
1040
109.5917942773189
1070
     1
1040
-576.93097669135068
1040
109.5917942773189
1040
-576.73686240752374
1040
109.2555784752559
1070
     1
1040
-576.73686240752374
1040
109.2555784752559
1040
-576.71130677724045
1040
109.061464191429
1070
     1
1040
-576.71130677724057
1040
109.061464191429
1040
-576.71130677724057
1040
106.40074009030479
1070
     1
1040
-576.71130677724057
1040
106.40074009030479
1040
-575.71130677724068
1040
106.40074009030479
1070
     1
1040
-575.71130677724057
1040
106.40074009030479
1040
-575.72636488287299
1040
109.17584185921621
1070
     1
1040
-575.7263648828731
1040
109.17584185921621
1040
-575.77093658123476
1040
109.5143975203584
1070
     1
1040
-575.77093658123465
1040
109.5143975203584
1040
-575.94576232061775
1040
109.936464191429
1070
     1
1040
-575.94576232061797
1040
109.936464191429
1040
-576.22386991016424
1040
110.29890105850539
1070
     1
1040
-576.22386991016424
1040
110.29890105850539
1040
-576.58630677724068
1040
110.5770086480518
1070
     1
1040
-576.58630677724057
1040
110.5770086480518
1040
-577.0083734483112
1040
110.7518343874348
1070
     1
1040
-577.00837344831132
1040
110.7518343874348
1040
-577.46130677724057
1040
110.8114641914289
1070
     1
1040
-577.46130677724057
1040
110.8114641914289
1040
-590.69149628925175
1040
110.7648641205929
1070
     1
1040
-590.69149628925175
1040
110.7648641205929
1040
-591.07129083749066
1040
110.6275456984918
1070
     1
1040
-591.07129083749078
1040
110.6275456984918
1040
-591.40949395866255
1040
110.40682212306309
1070
     1
1040
-591.40949395866255
1040
110.40682212306309
1040
-591.68809389344983
1040
110.114448519164
1070
     1
1040
-591.68809389344983
1040
110.114448519164
1040
-591.89225318277136
1040
109.7659958932532
1070
     1
1040
-591.89225318277136
1040
109.7659958932532
1040
-592.04892390537816
1040
109.17570132828379
1070
     1
1040
-592.04892390537816
1040
109.17570132828379
1040
-594.04612532181716
1040
98.387363465362824
1070
     1
1040
-594.04612532181716
1040
98.387363465362824
1040
-594.08788317976189
1040
97.735061798223512
1070
     1
1040
-594.08788317976189
1040
97.735061798223512
1040
-593.97451720481831
1040
97.091331000934815
1070
     1
1040
-593.97451720481831
1040
97.091331000934815
1040
-593.71243197395415
1040
96.492538453038875
1070
     1
1040
-593.71243197395415
1040
96.492538453038875
1040
-593.31643391417799
1040
95.972512761071215
1070
     1
1040
-593.31643391417788
1040
95.972512761071215
1040
-592.80889481785789
1040
95.560632621516618
1070
     1
1040
-592.80889481785789
1040
95.560632621516618
1040
-587.37036066419375
1040
92.131187300899114
1070
     1
1040
-587.37036066419375
1040
92.131187300899114
1040
-584.3566695679765
1040
89.947642360599914
1070
     1
1040
-584.3566695679765
1040
89.947642360599914
1040
-581.68094169271205
1040
87.445735814450373
1070
     1
1040
-581.68094169271194
1040
87.445735814450373
1040
-579.32596399441661
1040
84.601820582557821
1070
     1
1040
-579.32596399441661
1040
84.601820582557821
1040
-577.34337560504139
1040
81.486837904600719
1070
     1
1040
-577.34337560504139
1040
81.486837904600719
1040
-575.78481565653658
1040
78.1717290202578
1070
     1
1040
-575.78481565653658
1040
78.1717290202578
1040
-574.63307110491894
1040
74.632846849635982
1070
     1
1040
-574.63307110491894
1040
74.632846849635982
1040
-569.18550125762488
1040
53.319665831375083
1070
     1
1040
-569.18550125762488
1040
53.319665831375069
1040
-567.02796880109884
1040
47.447959672819451
1070
     1
1040
-567.02796880109884
1040
47.447959672819451
1040
-563.7267805531518
1040
42.134388776990512
1070
     1
1040
-563.7267805531518
1040
42.134388776990512
1040
-559.41855540546965
1040
37.598854013562502
1070
     1
1040
-559.41855540546965
1040
37.598854013562502
1040
-555.52549960011311
1040
34.258053079540453
1070
     1
1040
-555.52549960011333
1040
34.258053079540453
1040
-553.90064184144592
1040
32.684648880054453
1070
     1
1040
-553.90064184144592
1040
32.684648880054439
1040
-552.5298237206822
1040
31.021686597528952
1070
     1
1040
-552.52982372068197
1040
31.021686597528959
1040
-551.64511135739804
1040
29.741315501888671
1070
     1
1040
-551.64511135739804
1040
29.741315501888671
1040
-551.56774958541075
1040
29.424428404099391
1070
     1
1040
-551.56774958541075
1040
29.424428404099391
1040
-551.57500820101677
1040
29.098315557051119
1070
     1
1040
-551.57500820101677
1040
29.098315557051119
1040
-552.04990586115457
1040
26.02080907203587
1070
     1
1040
-552.04990586115457
1040
26.02080907203587
1040
-552.10658691972696
1040
24.795230983939081
1070
     1
1040
-552.10658691972696
1040
24.795230983939081
1040
-551.90196631157971
1040
23.585526557583108
1070
     1
1040
-551.90196631157971
1040
23.585526557583108
1040
-551.44535991026146
1040
22.446770663328781
1070
     1
1040
-551.44535991026146
1040
22.446770663328781
1040
-549.80424477485496
1040
19.356846757455038
1070
     1
1040
-549.80424477485496
1040
19.356846757455038
1040
-549.47043150051945
1040
18.86521683954469
1070
     1
1040
-549.47043150051945
1040
18.86521683954469
1040
-549.03879736164174
1040
18.456776821350559
1070
     1
1040
-549.03879736164174
1040
18.456776821350559
1040
-548.52949753378834
1040
18.15059882792881
1070
     1
1040
-548.52949753378834
1040
18.15059882792881
1040
-547.96631379537314
1040
17.9609798544803
1070
     1
1040
-547.96631379537314
1040
17.9609798544803
1040
-547.37554403644117
1040
17.896774167515321
1070
     1
1040
-547.37554403644117
1040
17.896774167515321
1040
-522.12466088600502
1040
17.896774167515321
1070
     1
1040
-522.12466088600502
1040
17.896774167515321
1040
-471.0777858860049
1040
17.896774167515321
1071
        0
1071
        0
1071
       30
1070
     1
1040
-460.05000000000098
1040
83.163337687424075
1040
-460.05000000000098
1040
92.14677416751509
1070
     1
1040
-460.05000000000098
1040
92.14677416751509
1040
-460.12666689085069
1040
92.729117018996064
1070
     1
1040
-460.12666689085057
1040
92.729117018996064
1040
-460.35144284148612
1040
93.271774167515645
1070
     1
1040
-460.35144284148612
1040
93.271774167515645
1040
-460.70900974233149
1040
93.737764425185446
1070
     1
1040
-460.70900974233149
1040
93.737764425185446
1040
-461.17500000000138
1040
94.095331326030902
1070
     1
1040
-461.17500000000138
1040
94.095331326030902
1040
-461.71765714852091
1040
94.320107276666434
1070
     1
1040
-461.71765714852091
1040
94.320107276666434
1040
-462.30000000000177
1040
94.396774167516071
1070
     1
1040
-462.30000000000177
1040
94.396774167516071
1040
-462.8823428514828
1040
94.320107276666434
1070
     1
1040
-462.8823428514828
1040
94.320107276666434
1040
-463.42500000000229
1040
94.095331326030902
1070
     1
1040
-463.42500000000229
1040
94.095331326030902
1040
-463.89099025767217
1040
93.737764425185446
1070
     1
1040
-463.89099025767217
1040
93.737764425185446
1040
-464.2485571585176
1040
93.271774167515645
1070
     1
1040
-464.2485571585176
1040
93.271774167515645
1040
-464.4733331091532
1040
92.729117018996064
1070
     1
1040
-464.4733331091532
1040
92.729117018996064
1040
-464.5500000000028
1040
92.14677416751509
1070
     1
1040
-464.5500000000028
1040
92.14677416751509
1040
-464.5500000000028
1040
87.146774167515147
1070
     1
1040
-464.5500000000028
1040
87.146774167515147
1040
-463.5500000000028
1040
87.146774167515147
1070
     1
1040
-463.5500000000028
1040
87.146774167515147
1040
-463.50740728286399
1040
92.470297973893423
1070
     1
1040
-463.50740728286399
1040
92.470297973893423
1040
-463.38253175473318
1040
92.771774167515616
1070
     1
1040
-463.38253175473329
1040
92.771774167515616
1040
-463.18388347648568
1040
93.030657643998865
1070
     1
1040
-463.18388347648568
1040
93.030657643998865
1040
-462.92500000000229
1040
93.229305922246553
1070
     1
1040
-462.92500000000229
1040
93.229305922246553
1040
-462.62352380638021
1040
93.354181450377354
1070
     1
1040
-462.62352380638021
1040
93.354181450377354
1040
-462.30000000000172
1040
93.396774167516014
1070
     1
1040
-462.30000000000177
1040
93.396774167516014
1040
-461.9764761936234
1040
93.354181450377496
1070
     1
1040
-461.9764761936234
1040
93.354181450377496
1040
-461.67500000000138
1040
93.229305922246553
1070
     1
1040
-461.67500000000138
1040
93.229305922246553
1040
-461.41611652351799
1040
93.030657643999007
1070
     1
1040
-461.41611652351799
1040
93.030657643999007
1040
-461.21746824527048
1040
92.771774167515616
1070
     1
1040
-461.2174682452706
1040
92.771774167515616
1040
-461.09259271713961
1040
92.470297973893565
1070
     1
1040
-461.09259271713961
1040
92.470297973893565
1040
-461.05000000000092
1040
92.14677416751509
1070
     1
1040
-461.05000000000092
1040
92.14677416751509
1040
-461.05000000000092
1040
83.163337687424075
1070
     1
1040
-461.05000000000092
1040
83.163337687424075
1040
-460.1756424682539
1040
83.163337687424075
1070
     1
1040
-460.17564246825401
1040
83.163337687424075
1040
-460.05000000000098
1040
83.163337687424075
1071
        0
1070
     0
1070
     1
1071
        1
1040
-460.0500000000003
1040
17.896774167515321
1040
0.0
1002
}
  0
LINE
  5
390
  8
0
 10
-576.71130677724
 20
106.40074009030459
 30
0.0
 11
-575.71130677724
 21
106.40074009030459
 31
0.0
1001
REVIT
1002
{
1070
     3
1000
476644
1002
}
  0
LINE
  5
391
  8
0
 10
-575.71130677724
 20
106.40074009030459
 30
0.0
 11
-575.71130677724
 21
109.0614641914289
 31
0.0
1001
REVIT
1002
{
1070
     3
1000
476644
1002
}
  0
ARC
  5
392
  8
0
 10
-577.46130677723988
 20
109.0614641914289
 30
0.0
 40
1.75
 50
0.0
 51
90.0
1001
REVIT
1002
{
1070
     3
1000
476644
1002
}
  0
LINE
  5
393
  8
0
 10
-577.46130677723988
 20
110.8114641914289
 30
0.0
 11
-590.29033711720263
 21
110.8114641914289
 31
0.0
1001
REVIT
1002
{
1070
     3
1000
476644
1002
}
  0
ARC
  5
394
  8
0
 10
-590.29033711720263
 20
109.0614641914256
 30
0.0
 40
1.7500000000014491
 50
90.0
 51
169.5118037983689
1001
REVIT
1002
{
1070
     3
1000
476644
1002
}
  0
LINE
  5
395
  8
0
 10
-592.01109886966253
 20
109.3800218648165
 30
0.0
 11
-594.04612532181659
 21
98.387363465362725
 31
0.0
1001
REVIT
1002
{
1070
     3
1000
476644
1002
}
  0
ARC
  5
396
  8
0
 10
-591.34207113938055
 20
97.886772835748644
 30
0.0
 40
2.7500000000013221
 50
169.5118037983689
 51
237.76518004707859
1001
REVIT
1002
{
1070
     3
1000
476644
1002
}
  0
LINE
  5
397
  8
0
 10
-592.80889481785709
 20
95.560632621516575
 30
0.0
 11
-587.37036066419284
 21
92.131187300898944
 31
0.0
1001
REVIT
1002
{
1070
     3
1000
476644
1002
}
  0
ARC
  5
398
  8
0
 10
-602.97203069889224
 20
67.389514113169014
 30
0.0
 40
29.250000000001211
 50
14.33762585345529
 51
57.765180047081607
1001
REVIT
1002
{
1070
     3
1000
476644
1002
}
  0
LINE
  5
399
  8
0
 10
-574.63307110491814
 20
74.632846849635982
 30
0.0
 11
-569.18550125762408
 21
53.319665831375062
 31
0.0
1001
REVIT
1002
{
1070
     3
1000
476644
1002
}
  0
ARC
  5
39A
  8
0
 10
-539.39326168447326
 20
60.934451528686139
 30
0.0
 40
30.749999999999812
 50
194.33762585345491
 51
229.3656677408556
1001
REVIT
1002
{
1070
     3
1000
476644
1002
}
  0
LINE
  5
39B
  8
0
 10
-559.41855540546885
 20
37.598854013562502
 30
0.0
 11
-555.52549960011265
 21
34.258053079540481
 31
0.0
1001
REVIT
1002
{
1070
     3
1000
476644
1002
}
  0
ARC
  5
39C
  8
0
 10
-568.06165908398702
 20
19.649589594464089
 30
0.0
 40
19.249999999998529
 50
36.210836948253387
 51
49.365667740855713
1001
REVIT
1002
{
1070
     3
1000
476644
1002
}
  0
LINE
  5
39D
  8
0
 10
-552.52982372068141
 20
31.021686597528841
 30
0.0
 11
-551.80182537703934
 21
30.027397644914291
 31
0.0
1001
REVIT
1002
{
1070
     3
1000
476644
1002
}
  0
ARC
  5
39E
  8
0
 10
-552.81038611491545
 20
29.288949787572971
 30
0.0
 40
1.2499999999989371
 50
351.2277387767702
 51
36.210836948254382
1001
REVIT
1002
{
1070
     3
1000
476644
1002
}
  0
LINE
  5
39F
  8
0
 10
-551.57500820101609
 20
29.098315557051048
 30
0.0
 11
-552.049905861154
 21
26.020809072035892
 31
0.0
1001
REVIT
1002
{
1070
     3
1000
476644
1002
}
  0
ARC
  5
3A0
  8
0
 10
-546.36716745721299
 20
25.1438916116347
 30
0.0
 40
5.7499999999984253
 50
171.22773877677221
 51
207.97358915472461
1001
REVIT
1002
{
1070
     3
1000
476644
1002
}
  0
LINE
  5
3A1
  8
0
 10
-551.44535991026078
 20
22.446770663328781
 30
0.0
 11
-549.80424477485428
 21
19.356846757454999
 31
0.0
1001
REVIT
1002
{
1070
     3
1000
476644
1002
}
  0
ARC
  5
3A2
  8
0
 10
-547.37554403644049
 20
20.64677416751416
 30
0.0
 40
2.74999999999884
 50
207.97358915472421
 51
270.0
1001
REVIT
1002
{
1070
     3
1000
476644
1002
}
  0
LINE
  5
3A3
  8
0
 10
-547.37554403644049
 20
17.896774167515321
 30
0.0
 11
-462.80000000000013
 21
17.896774167515321
 31
0.0
1001
REVIT
1002
{
1070
     3
1000
476644
1002
}
  0
ARC
  5
3A4
  8
0
 10
-462.7999999999999
 20
20.646774167514849
 30
0.0
 40
2.7499999999995191
 50
270.0
 51
0.0
1001
REVIT
1002
{
1070
     3
1000
476644
1002
}
  0
LINE
  5
3A5
  8
0
 10
-460.0500000000003
 20
20.646774167514849
 30
0.0
 11
-460.0500000000003
 21
82.163337687424175
 31
0.0
1001
REVIT
1002
{
1070
     3
1000
476644
1002
}
  0
LINE
  5
3A6
  8
0
 10
-460.0500000000003
 20
83.163337687424075
 30
0.0
 11
-460.0500000000003
 21
92.146774167515062
 31
0.0
1001
REVIT
1002
{
1070
     3
1000
476644
1002
}
  0
ARC
  5
3A7
  8
0
 10
-462.30000000000132
 20
92.146774167515034
 30
0.0
 40
2.2500000000009148
 50
0.0000000000002036
 51
179.9999999999996
1001
REVIT
1002
{
1070
     3
1000
476644
1002
}
  0
LINE
  5
3A8
  8
0
 10
-464.55000000000223
 20
92.146774167515062
 30
0.0
 11
-464.55000000000223
 21
87.146774167515034
 31
0.0
1001
REVIT
1002
{
1070
     3
1000
476644
1002
}
  0
LINE
  5
3A9
  8
0
 10
-464.55000000000223
 20
87.146774167515034
 30
0.0
 11
-463.55000000000223
 21
87.146774167515034
 31
0.0
1001
REVIT
1002
{
1070
     3
1000
476644
1002
}
  0
LINE
  5
3AA
  8
0
 10
-463.55000000000223
 20
87.146774167515034
 30
0.0
 11
-463.55000000000223
 21
92.146774167515062
 31
0.0
1001
REVIT
1002
{
1070
     3
1000
476644
1002
}
  0
ARC
  5
3AB
  8
0
 10
-462.30000000000132
 20
92.146774167515034
 30
0.0
 40
1.2500000000009139
 50
0.0000000000014249
 51
180.0
1001
REVIT
1002
{
1070
     3
1000
476644
1002
}
  0
LINE
  5
3AC
  8
0
 10
-461.05000000000041
 20
92.146774167515062
 30
0.0
 11
-461.05000000000041
 21
83.163337687424075
 31
0.0
1001
REVIT
1002
{
1070
     3
1000
476644
1002
}
  0
LINE
  5
3AD
  8
0
 10
-461.05000000000041
 20
82.163337687424175
 30
0.0
 11
-461.05000000000041
 21
20.646774167514849
 31
0.0
1001
REVIT
1002
{
1070
     3
1000
476644
1002
}
  0
ARC
  5
3AE
  8
0
 10
-462.7999999999999
 20
20.646774167514881
 30
0.0
 40
1.749999999999555
 50
270.0
 51
359.9999999999992
1001
REVIT
1002
{
1070
     3
1000
476644
1002
}
  0
LINE
  5
3AF
  8
0
 10
-462.80000000000013
 20
18.896774167515311
 30
0.0
 11
-547.37554403644106
 21
18.896774167515311
 31
0.0
1001
REVIT
1002
{
1070
     3
1000
476644
1002
}
  0
ARC
  5
3B0
  8
0
 10
-547.37554403644049
 20
20.646774167514138
 30
0.0
 40
1.7499999999988161
 50
207.97358915472421
 51
270.0
1001
REVIT
1002
{
1070
     3
1000
476644
1002
}
  0
LINE
  5
3B1
  8
0
 10
-548.92108086997632
 20
19.825911270203989
 30
0.0
 11
-550.5621960053827
 21
22.915835176077739
 31
0.0
1001
REVIT
1002
{
1070
     3
1000
476644
1002
}
  0
ARC
  5
3B2
  8
0
 10
-546.36716745721264
 20
25.143891611634739
 30
0.0
 40
4.7499999999986988
 50
171.22773877677321
 51
207.97358915472401
1001
REVIT
1002
{
1070
     3
1000
476644
1002
}
  0
LINE
  5
3B3
  8
0
 10
-551.06160353003338
 20
25.868301687618249
 30
0.0
 11
-550.58670586989558
 21
28.945808172633409
 31
0.0
1001
REVIT
1002
{
1070
     3
1000
476644
1002
}
  0
ARC
  5
3B4
  8
0
 10
-552.81038611491545
 20
29.288949787572971
 30
0.0
 40
2.249999999998916
 50
351.22773877677059
 51
36.210836948253878
1001
REVIT
1002
{
1070
     3
1000
476644
1002
}
  0
LINE
  5
3B5
  8
0
 10
-550.99497678673765
 20
30.618155930787829
 30
0.0
 11
-551.72297513037984
 21
31.612444883402361
 31
0.0
1001
REVIT
1002
{
1070
     3
1000
476644
1002
}
  0
ARC
  5
3B6
  8
0
 10
-568.06165908398725
 20
19.649589594463681
 30
0.0
 40
20.24999999999908
 50
36.210836948253061
 51
49.365667740855443
1001
REVIT
1002
{
1070
     3
1000
476644
1002
}
  0
LINE
  5
3B7
  8
0
 10
-554.87427053601505
 20
35.016934299544467
 30
0.0
 11
-558.76732634137159
 21
38.357735233566551
 31
0.0
1001
REVIT
1002
{
1070
     3
1000
476644
1002
}
  0
ARC
  5
3B8
  8
0
 10
-539.39326168447326
 20
60.934451528686168
 30
0.0
 40
29.749999999999851
 50
194.33762585345551
 51
229.3656677408558
1001
REVIT
1002
{
1070
     3
1000
476644
1002
}
  0
LINE
  5
3B9
  8
0
 10
-568.21664793817206
 20
53.567301138604691
 30
0.0
 11
-573.66421778546612
 21
74.880482156865625
 31
0.0
1001
REVIT
1002
{
1070
     3
1000
476644
1002
}
  0
ARC
  5
3BA
  8
0
 10
-602.97203069889224
 20
67.389514113169028
 30
0.0
 40
30.250000000001151
 50
14.33762585345489
 51
57.765180047078744
1001
REVIT
1002
{
1070
     3
1000
476644
1002
}
  0
LINE
  5
3BB
  8
0
 10
-586.83697023565617
 20
92.977056469710234
 30
0.0
 11
-592.27550438932042
 21
96.406501790327823
 31
0.0
1001
REVIT
1002
{
1070
     3
1000
476644
1002
}
  0
ARC
  5
3BC
  8
0
 10
-591.34207113938055
 20
97.886772835748644
 30
0.0
 40
1.750000000001342
 50
169.5118037983697
 51
237.76518004708171
1001
REVIT
1002
{
1070
     3
1000
476644
1002
}
  0
LINE
  5
3BD
  8
0
 10
-593.06283289184034
 20
98.205330509139515
 30
0.0
 11
-591.02780643968617
 21
109.1979889085933
 31
0.0
1001
REVIT
1002
{
1070
     3
1000
476644
1002
}
  0
ARC
  5
3BE
  8
0
 10
-590.29033711720263
 20
109.0614641914256
 30
0.0
 40
0.7500000000014656
 50
90.000000000003254
 51
169.51180379836609
1001
REVIT
1002
{
1070
     3
1000
476644
1002
}
  0
LINE
  5
3BF
  8
0
 10
-590.29033711720263
 20
109.8114641914289
 30
0.0
 11
-577.46130677723988
 21
109.8114641914289
 31
0.0
1001
REVIT
1002
{
1070
     3
1000
476644
1002
}
  0
ARC
  5
3C0
  8
0
 10
-577.46130677723988
 20
109.0614641914289
 30
0.0
 40
0.750000000000064
 50
0.0000000000026462
 51
89.999999999996746
1001
REVIT
1002
{
1070
     3
1000
476644
1002
}
  0
LINE
  5
3C1
  8
0
 10
-576.71130677724
 20
109.0614641914289
 30
0.0
 11
-576.71130677724
 21
106.40074009030459
 31
0.0
1001
REVIT
1002
{
1070
     3
1000
476644
1002
}
  0
LINE
  5
3C2
  8
0
  6
DASH
 10
200.04537822804139
 20
351.75151266754801
 30
0.0
 11
-467.55000000000109
 21
108.7666664588525
 31
0.0
1001
REVIT
1002
{
1070
     3
1000
217411
1002
}
  0
LINE
  5
3C3
  8
0
 10
-142.00251767188709
 20
265.85377890310269
 30
0.0
 11
-142.63559748050341
 21
269.80336241987169
 31
0.0
1001
REVIT
1002
{
1070
     3
1000
211597
1002
}
  0
LINE
  5
3C4
  8
0
 10
-113.8522910733507
 20
271.88513384631852
 30
0.0
 11
-141.49937569072409
 21
267.45357518600559
 31
0.0
1001
REVIT
1002
{
1070
     3
1000
211597
1002
}
  0
LINE
  5
3C5
  8
0
 10
-111.9566342910441
 20
272.69537169022368
 30
0.0
 11
-113.8522910733507
 21
271.88513384631852
 31
0.0
1001
REVIT
1002
{
1070
     3
1000
211597
1002
}
  0
LINE
  5
3C6
  8
0
 10
-114.0105610255047
 20
272.87252972551039
 30
0.0
 11
-111.9566342910441
 21
272.69537169022368
 31
0.0
1001
REVIT
1002
{
1070
     3
1000
211597
1002
}
  0
LINE
  5
3C7
  8
0
 10
-141.65764564287809
 20
268.44097106519757
 30
0.0
 11
-114.0105610255047
 21
272.87252972551039
 31
0.0
1001
REVIT
1002
{
1070
     3
1000
211597
1002
}
  0
LINE
  5
3C8
  8
0
 10
-141.84754798812119
 20
269.62571138128362
 30
0.0
 11
-141.65764564287809
 21
268.44097106519757
 31
0.0
1001
REVIT
1002
{
1070
     3
1000
211597
1002
}
  0
LINE
  5
3C9
  8
0
 10
-141.49937569072409
 20
267.45357518600559
 30
0.0
 11
-141.30947334548111
 21
266.26883486992011
 31
0.0
1001
REVIT
1002
{
1070
     3
1000
211597
1002
}
  0
LINE
  5
3CA
  8
0
 10
-142.00251767188709
 20
265.85377890310269
 30
0.0
 11
-141.30947334548111
 21
266.26883486992011
 31
0.0
1001
REVIT
1002
{
1070
     3
1000
211597
1002
}
  0
LINE
  5
3CB
  8
0
 10
-142.63559748050341
 20
269.80336241987169
 30
0.0
 11
-141.84754798812119
 21
269.62571138128362
 31
0.0
1001
REVIT
1002
{
1070
     3
1000
211597
1002
}
  0
LINE
  5
3CC
  8
0
  6
DASH
 10
-2.0
 20
0.0
 30
0.0
 11
-2.0000000000004481
 21
-228.78154087428649
 31
0.0
1001
REVIT
1002
{
1070
     3
1000
217411
1002
}
  0
ARC
  5
3CD
  8
0
 10
-87.614288445974637
 20
290.68324507078393
 30
0.0
 40
1.9999999999999969
 50
20.000000000003428
 51
110.00000000000369
1001
REVIT
1002
{
1070
     3
1000
224526
1002
}
  0
ARC
  5
3CE
  8
0
 10
-130.8401490021254
 20
274.95031847780052
 30
0.0
 40
2.0
 50
110.00000000000369
 51
200.0000000000035
1001
REVIT
1002
{
1070
     3
1000
224526
1002
}
  0
ARC
  5
3CF
  8
0
 10
-118.5274238423992
 20
241.12138412950861
 30
0.0
 40
1.999999999999996
 50
200.0000000000035
 51
290.00000000000301
1001
REVIT
1002
{
1070
     3
1000
224526
1002
}
  0
ARC
  5
3D0
  8
0
 10
-75.301563286248381
 20
256.85431072249207
 30
0.0
 40
1.9999999999999989
 50
290.00000000000369
 51
20.000000000003428
1001
REVIT
1002
{
1070
     3
1000
224526
1002
}
  0
LINE
  5
3D1
  8
0
 10
-88.298328732626118
 20
292.56263031235568
 30
0.0
 11
-131.5241892887768
 21
276.82970371937228
 31
0.0
1001
REVIT
1002
{
1070
     3
1000
224526
1002
}
  0
LINE
  5
3D2
  8
0
 10
-132.71953424369721
 20
274.26627819114913
 30
0.0
 11
-131.2088857652937
 21
270.11580560800292
 31
0.0
1001
REVIT
1002
{
1070
     3
1000
224526
1002
}
  0
LINE
  5
3D3
  8
0
 10
-130.86058936726539
 20
269.15886911914311
 30
0.0
 11
-120.4068090839709
 21
240.4373438428571
 31
0.0
1001
REVIT
1002
{
1070
     3
1000
224526
1002
}
  0
LINE
  5
3D4
  8
0
 10
-117.84338355574771
 20
239.2419988879368
 30
0.0
 11
-74.617522999596929
 21
254.97492548092029
 31
0.0
1001
REVIT
1002
{
1070
     3
1000
224526
1002
}
  0
LINE
  5
3D5
  8
0
 10
-73.422178044676613
 20
257.53835100914353
 30
0.0
 11
-85.734903204402798
 21
291.36728535743538
 31
0.0
1001
REVIT
1002
{
1070
     3
1000
224526
1002
}
  0
LINE
  5
3D6
  8
0
 10
-130.8401490021256
 20
274.95031847780058
 30
0.0
 11
-121.0165905603658
 21
271.74953135916161
 31
0.0
  0
LINE
  5
3D7
  8
0
 10
-118.9332174991204
 20
271.0707107772626
 30
0.0
 11
-75.301563286248381
 21
256.85431072249207
 31
0.0
  0
LINE
  5
3D8
  8
0
 10
-87.614288445974637
 20
290.68324507078421
 30
0.0
 11
-118.5274238423991
 21
241.12138412950861
 31
0.0
  0
LINE
  5
3D9
  8
0
  6
DASH
 10
200.0453782280413
 20
351.75151266754801
 30
0.0
 11
-99.902855951624304
 21
242.57928360544099
 31
0.0
1001
REVIT
1002
{
1070
     3
1000
217411
1002
}
  0
INSERT
  5
3DA
  8
0
  6
CONTINUOUS
  2
*X45
 10
0.0
 20
0.0
 30
0.0
1001
ACAD
1000
HATCH
1002
{
1070
    19
1000
FP_1
1040
1.0
1040
0.0
1000
R14_HATCH_DATA
1000
3DA
1011
1.0
1021
0.0
1031
0.0
1021
0.0
1031
0.0
1011
0.0
1021
0.0
1031
0.0
1021
1.0
1031
0.0
1011
0.0
1021
0.0
1031
0.0
1021
0.0
1031
1.0
1040
0.0
1010
0.0
1020
0.0
1030
1.0
1000
FP_1
1070
     0
1070
     0
1071
        1
1071
        0
1071
        4
1070
     1
1040
-65.000000000000327
1040
-228.78154087428689
1040
-25.00000000000048
1040
-228.7815408742868
1070
     1
1040
-25.00000000000049
1040
-228.7815408742868
1040
-25.00000000000103
1040
-9.0
1070
     1
1040
-25.00000000000103
1040
-9.0
1040
-65.000000000001137
1040
-9.0000000000001421
1070
     1
1040
-65.000000000001137
1040
-9.0000000000001421
1040
-65.000000000000327
1040
-228.78154087428689
1071
        0
1070
     0
1070
     2
1040
0.0
1040
1.0
1070
     0
1070
     1
1040
0.0
1040
0.0
1040
0.0004591257134905
1040
0.0
1040
15.0
1070
     0
1071
        1
1040
-45.0
1040
-228.78154087428649
1040
0.0
1002
}
  0
LINE
  5
3DB
  8
0
 10
-25.000000000001162
 20
-9.0000000000000568
 30
0.0
 11
-65.000000000001151
 21
-9.0000000000001705
 31
0.0
1001
REVIT
1002
{
1070
     3
1000
224526
1002
}
  0
LINE
  5
3DC
  8
0
 10
-65.000000000001151
 20
-9.0000000000001705
 30
0.0
 11
-65.000000000000426
 21
-228.78154087428669
 31
0.0
1001
REVIT
1002
{
1070
     3
1000
224526
1002
}
  0
LINE
  5
3DD
  8
0
 10
-25.00000000000043
 20
-228.78154087428649
 30
0.0
 11
-25.000000000001162
 21
-9.0000000000000568
 31
0.0
1001
REVIT
1002
{
1070
     3
1000
224526
1002
}
  0
LINE
  5
3DE
  8
0
 10
-1.999999999999545
 20
-0.9999999999996732
 30
0.0
 11
-404.2499999999996
 21
-0.9999999999996732
 31
0.0
1001
REVIT
1002
{
1070
     3
1000
211597
1002
}
  0
LINE
  5
3DF
  8
0
 10
-404.2499999999996
 20
-6.9999999999998357
 30
0.0
 11
-1.999999999999545
 21
-6.9999999999998357
 31
0.0
1001
REVIT
1002
{
1070
     3
1000
211597
1002
}
  0
LINE
  5
3E0
  8
0
 10
-1.999999999999488
 20
-1.000000000000131
 30
0.0
 11
-1.999999999999488
 21
-7.0000000000001288
 31
0.0
1001
REVIT
1002
{
1070
     3
1000
211597
1002
}
  0
LINE
  5
3E1
  8
0
 10
-404.2499999999996
 20
-0.9999999999997321
 30
0.0
 11
-404.2499999999996
 21
-6.9999999999998987
 31
0.0
1001
REVIT
1002
{
1070
     3
1000
211597
1002
}
  0
ARC
  5
3E2
  8
0
 10
98.000000000000384
 20
182.61516235161761
 30
0.0
 40
1.9999999999999969
 50
0.0
 51
90.0
1001
REVIT
1002
{
1070
     3
1000
224526
1002
}
  0
ARC
  5
3E3
  8
0
 10
2.0000000000004401
 20
136.6151623516177
 30
0.0
 40
1.999999999999992
 50
180.0
 51
269.9999999999996
1001
REVIT
1002
{
1070
     3
1000
224526
1002
}
  0
ARC
  5
3E4
  8
0
 10
98.000000000000426
 20
136.6151623516177
 30
0.0
 40
2.0000000000000071
 50
269.9999999999996
 51
0.0
1001
REVIT
1002
{
1070
     3
1000
224526
1002
}
  0
LINE
  5
3E5
  8
0
 10
98.000000000000384
 20
184.6151623516177
 30
0.0
 11
97.061545658660506
 21
184.6151623516177
 31
0.0
1001
REVIT
1002
{
1070
     3
1000
224526
1002
}
  0
LINE
  5
3E6
  8
0
 10
0.0000000000004334
 20
149.2876488399956
 30
0.0
 11
0.0000000000004334
 21
136.6151623516177
 31
0.0
1001
REVIT
1002
{
1070
     3
1000
224526
1002
}
  0
LINE
  5
3E7
  8
0
 10
100.0000000000004
 20
136.6151623516177
 30
0.0
 11
100.0000000000004
 21
182.61516235161761
 31
0.0
1001
REVIT
1002
{
1070
     3
1000
224526
1002
}
  0
LINE
  5
3E8
  8
0
 10
40.664626120646808
 20
164.0883623354747
 30
0.0
 11
98.000000000000455
 21
136.6151623516177
 31
0.0
  0
LINE
  5
3E9
  8
0
 10
98.000000000000455
 20
182.6151623516179
 30
0.0
 11
2.0000000000004761
 21
136.6151623516177
 31
0.0
  0
INSERT
  5
3EA
  8
0
  6
CONTINUOUS
  2
*U46
 10
0.0
 20
0.0
 30
0.0
1001
ACAD
1002
{
1000
R14_HATCH_DATA
1000
3EA
1011
1.0
1021
0.0
1031
0.0
1021
0.0
1031
0.0
1011
0.0
1021
0.0
1031
0.0
1021
1.0
1031
0.0
1011
0.0
1021
0.0
1031
0.0
1021
0.0
1031
1.0
1040
0.0
1010
0.0
1020
0.0
1030
1.0
1000
SOLID
1070
     1
1070
     0
1071
        2
1071
        0
1071
        8
1070
     1
1040
-140.75378161063469
1040
255.3277717937959
1040
-139.89888394762201
1040
259.13451337757772
1070
     1
1040
-139.89888394762201
1040
259.13451337757772
1040
-141.10676586902511
1040
267.5165067203634
1070
     1
1040
-141.10676586902511
1040
267.5165067203634
1040
-141.49937569072429
1040
267.45357518600599
1070
     1
1040
-141.49937569072429
1040
267.45357518600599
1040
-141.30947334548131
1040
266.2688348699204
1070
     1
1040
-141.30947334548139
1040
266.2688348699204
1040
-141.8874222118443
1040
265.92270819899989
1070
     1
1040
-141.8874222118443
1040
265.92270819899989
1040
-140.9149113086248
1040
259.17405191718092
1070
     1
1040
-140.9149113086248
1040
259.17405191718092
1040
-141.63942232887891
1040
255.94790410085599
1070
     1
1040
-141.63942232887891
1040
255.94790410085599
1040
-140.75378161063469
1040
255.3277717937959
1071
        0
1071
        0
1071
       20
1070
     1
1040
-141.65764564287829
1040
268.44097106519791
1040
-141.2494147597375
1040
268.50640650371253
1070
     1
1040
-141.2494147597375
1040
268.50640650371253
1040
-143.00546134025009
1040
280.69234164079921
1070
     1
1040
-143.00546134025009
1040
280.69234164079921
1040
-143.01812400448111
1040
281.3116625038499
1070
     1
1040
-143.01812400448111
1040
281.3116625038499
1040
-142.87908658555131
1040
281.91588029920752
1070
     1
1040
-142.87908658555131
1040
281.91588029920752
1040
-142.59660962614981
1040
282.46641988941758
1070
     1
1040
-142.59660962614981
1040
282.46641988941758
1040
-142.18665684997359
1040
282.93147517841669
1070
     1
1040
-142.18665684997359
1040
282.93147517841669
1040
-141.6748274185166
1040
283.28171903266281
1070
     1
1040
-141.6748274185166
1040
283.28171903266281
1040
-141.09310372750809
1040
283.49625776236769
1070
     1
1040
-141.09310372750809
1040
283.49625776236769
1040
180.18777364688469
1040
358.85272939919469
1070
     1
1040
180.18777364688481
1040
358.85272939919469
1040
179.95942074712599
1040
359.82630762534978
1070
     1
1040
179.95942074712599
1040
359.82630762534978
1040
-141.32159275473441
1040
284.4698040598077
1070
     1
1040
-141.32159275473441
1040
284.4698040598077
1040
-142.13409987595239
1040
284.16994649999111
1070
     1
1040
-142.13409987595239
1040
284.16994649999111
1040
-142.8490550115437
1040
283.68033582735433
1070
     1
1040
-142.8490550115437
1040
283.68033582735433
1040
-143.42297959105591
1040
283.02954738310331
1070
     1
1040
-143.42297959105591
1040
283.02954738310331
1040
-143.81855823625219
1040
282.25782550144629
1070
     1
1040
-143.81855823625219
1040
282.25782550144629
1040
-144.01278599464769
1040
281.4146770185198
1070
     1
1040
-144.01278599464769
1040
281.4146770185198
1040
-143.9952372672887
1040
280.54971059840329
1070
     1
1040
-143.9952372672887
1040
280.54971059840329
1040
-142.44029700644069
1040
269.7593355758865
1070
     1
1040
-142.44029700644069
1040
269.7593355758865
1040
-141.84754798812139
1040
269.62571138128402
1070
     1
1040
-141.84754798812139
1040
269.62571138128402
1040
-141.65764564287829
1040
268.44097106519791
1071
        0
1070
     0
1070
     1
1071
        1
1040
-138.5634794833795
1040
257.38409497877331
1040
0.0
1002
}
  0
LINE
  5
3EC
  8
0
 10
-143.99523726728839
 20
280.5497105984029
 30
0.0
 11
-142.4402970064404
 21
269.7593355758861
 31
0.0
  0
LINE
  5
3ED
  8
0
 10
-141.88742221184401
 20
265.9227081989996
 30
0.0
 11
-140.91491130862451
 21
259.17405191718058
 31
0.0
  0
LINE
  5
3EE
  8
0
 10
-140.91491130862451
 20
259.17405191718058
 30
0.0
 11
-141.63942232887871
 21
255.94790410085571
 31
0.0
  0
LINE
  5
3EF
  8
0
 10
-141.63942232887871
 20
255.94790410085571
 30
0.0
 11
-140.75378161063449
 21
255.32777179379559
 31
0.0
  0
LINE
  5
3F0
  8
0
 10
-140.75378161063449
 20
255.32777179379559
 30
0.0
 11
-139.89888394762181
 21
259.13451337757738
 31
0.0
  0
LINE
  5
3F1
  8
0
 10
-139.89888394762181
 20
259.13451337757738
 30
0.0
 11
-141.1067658690248
 21
267.516506720363
 31
0.0
  0
LINE
  5
3F2
  8
0
 10
-141.24941475973739
 20
268.50640650371218
 30
0.0
 11
-143.00546134024981
 21
280.69234164079887
 31
0.0
  0
LINE
  5
3F4
  8
0
 10
-141.09310372750789
 20
283.49625776236729
 30
0.0
 11
180.18777364688469
 21
358.85272939919417
 31
0.0
1001
REVIT
1002
{
1070
     3
1000
476644
1002
}
  0
LINE
  5
3F5
  8
0
 10
180.18777364688469
 20
358.85272939919417
 30
0.0
 11
179.9594207471259
 21
359.82630762534927
 31
0.0
1001
REVIT
1002
{
1070
     3
1000
476644
1002
}
  0
LINE
  5
3F6
  8
0
 10
179.9594207471259
 20
359.82630762534927
 30
0.0
 11
-141.32159275473421
 21
284.46980405980719
 31
0.0
1001
REVIT
1002
{
1070
     3
1000
476644
1002
}
  0
LINE
  5
3F7
  8
0
 10
179.9594207471259
 20
386.25074212023299
 30
0.0
 11
-146.70933607492589
 21
309.63054265715408
 31
0.0
  0
ARC
  5
3F8
  8
0
 10
-145.79592429744281
 20
305.73622899172398
 30
0.0
 40
3.9999999999999711
 50
103.2001220716476
 51
193.2001220716476
  0
LINE
  5
3F9
  8
0
 10
-144.9573488191447
 20
284.64423475697117
 30
0.0
 11
-149.6902379628728
 21
304.8228172142409
 31
0.0
  0
INSERT
  5
3FA
  8
0
  6
CONTINUOUS
  2
*U47
 10
0.0
 20
0.0
 30
0.0
1001
ACAD
1002
{
1000
R14_HATCH_DATA
1000
3FA
1011
1.0
1021
0.0
1031
0.0
1021
0.0
1031
0.0
1011
0.0
1021
0.0
1031
0.0
1021
1.0
1031
0.0
1011
0.0
1021
0.0
1031
0.0
1021
0.0
1031
1.0
1040
0.0
1010
0.0
1020
0.0
1030
1.0
1000
SOLID
1070
     1
1070
     0
1071
        2
1071
        0
1071
       34
1070
     1
1040
-489.50191071728091
1040
138.72396659648561
1040
-488.60196374203082
1040
142.75018488031921
1070
     1
1040
-488.60196374203082
1040
142.7501848803191
1040
-491.73466331840427
1040
164.48928580463709
1070
     1
1040
-491.73466331840427
1040
164.48928580463721
1040
-491.74370007676981
1040
164.9785087716256
1070
     1
1040
-491.74370007676981
1040
164.9785087716256
1040
-491.6322131160839
1040
165.45585655582121
1070
     1
1040
-491.6322131160839
1040
165.45585655582121
1040
-491.40723606040967
1040
165.89258437273301
1070
     1
1040
-491.40723606040967
1040
165.89258437273301
1040
-491.08261829160932
1040
166.26100680986059
1070
     1
1040
-491.08261829160932
1040
166.2610068098607
1040
-490.67934188115521
1040
166.53845162796711
1070
     1
1040
-490.67934188115521
1040
166.53845162796711
1040
-490.22102494705581
1040
166.70827407148909
1070
     1
1040
-490.22102494705581
1040
166.70827407148909
1040
-136.52857466463749
1040
249.66688435571641
1070
     1
1040
-136.52857466463749
1040
249.66688435571641
1040
-135.71596227474021
1040
249.96665596985849
1070
     1
1040
-135.71596227474021
1040
249.96665596985849
1040
-135.0008892434264
1040
250.4562138222559
1070
     1
1040
-135.0008892434264
1040
250.4562138222559
1040
-134.4268391284719
1040
251.10699260162801
1070
     1
1040
-134.4268391284719
1040
251.10699260162801
1040
-134.03114912905539
1040
251.8787569128898
1070
     1
1040
-134.03114912905539
1040
251.8787569128898
1040
-133.83685190242841
1040
252.72198667320899
1070
     1
1040
-133.83685190242841
1040
252.72198667320899
1040
-133.85438663131421
1040
253.5870481123055
1070
     1
1040
-133.85438663131421
1040
253.5870481123055
1040
-135.9801009930944
1040
268.33826121794868
1070
     1
1040
-135.9801009930944
1040
268.33826121794868
1040
-136.96762043077911
1040
268.17997146057053
1070
     1
1040
-136.96762043077911
1040
268.17997146057053
1040
-134.84416255835521
1040
253.44441706991699
1070
     1
1040
-134.84416255835521
1040
253.44441706991699
1040
-134.83150980686699
1040
252.82503914347481
1070
     1
1040
-134.83150980686699
1040
252.82503914347481
1040
-134.97059447702469
1040
252.22077325032799
1070
     1
1040
-134.97059447702469
1040
252.22077325032799
1040
-135.2531488140923
1040
251.6702086378431
1070
     1
1040
-135.2531488140923
1040
251.6702086378431
1040
-135.66319457150269
1040
251.20515688
1070
     1
1040
-135.66319457150269
1040
251.20515688
1040
-136.17511813351331
1040
250.8549442087652
1070
     1
1040
-136.17511813351331
1040
250.8549442087652
1040
-136.75692760902041
1040
250.64046277205611
1070
     1
1040
-136.75692760902041
1040
250.64046277205611
1040
-490.44937789141431
1040
167.6818524878644
1070
     1
1040
-490.44937789141431
1040
167.6818524878644
1040
-491.13962615632221
1040
167.42623814368039
1070
     1
1040
-491.13962615632221
1040
167.42623814368031
1040
-491.74687683827233
1040
167.00867116788871
1070
     1
1040
-491.74687683827233
1040
167.00867116788871
1040
-492.23313762329178
1040
166.45639871134901
1070
     1
1040
-492.23313762329178
1040
166.45639871134901
1040
-492.57079241428551
1040
165.80122398792469
1070
     1
1040
-492.57079241428551
1040
165.80122398792469
1040
-492.73823583588188
1040
165.08329571689069
1070
     1
1040
-492.73823583588188
1040
165.0832957168908
1040
-492.72443924540067
1040
164.34665476215321
1070
     1
1040
-492.72443924540067
1040
164.34665476215309
1040
-489.61791718206831
1040
142.7892104517035
1070
     1
1040
-489.61791718206831
1040
142.7892104517035
1040
-490.39565538947761
1040
139.30973457498621
1070
     1
1040
-490.39565538947772
1040
139.30973457498621
1040
-489.50191071728102
1040
138.72396659648561
1071
        0
1071
        0
1071
       19
1070
     1
1040
-137.11026932149181
1040
269.16987124391972
1040
-136.1227498838073
1040
269.32816100129787
1070
     1
1040
-136.1227498838073
1040
269.32816100129799
1040
-137.2876518697054
1040
277.41189875559343
1070
     1
1040
-137.2876518697054
1040
277.41189875559331
1040
-137.29668862823311
1040
277.90112172254982
1070
     1
1040
-137.29668862823311
1040
277.90112172254982
1040
-137.1852016669306
1040
278.3784695068602
1070
     1
1040
-137.1852016669306
1040
278.3784695068602
1040
-136.96022461173121
1040
278.81519732364899
1070
     1
1040
-136.96022461173121
1040
278.81519732364899
1040
-136.63560684555699
1040
279.18361976023499
1070
     1
1040
-136.63560684555699
1040
279.18361976023499
1040
-136.2323304283791
1040
279.46106457994512
1070
     1
1040
-136.2323304283791
1040
279.46106457994512
1040
-135.7740135759397
1040
279.63088700424089
1070
     1
1040
-135.7740135759397
1040
279.63088700424089
1040
-106.26111031414879
1040
286.5531423085327
1070
     1
1040
-106.26111031414879
1040
286.5531423085327
1040
-106.48946325852
1040
287.52672072489008
1070
     1
1040
-106.48946325852
1040
287.52672072489008
1040
-136.00236652047391
1040
280.60446542061987
1070
     1
1040
-136.00236652047391
1040
280.60446542061987
1040
-136.6926147118885
1040
280.34885109357822
1070
     1
1040
-136.6926147118885
1040
280.34885109357822
1040
-137.2998653897985
1040
279.93128411865882
1070
     1
1040
-137.2998653897985
1040
279.93128411865882
1040
-137.7861261746873
1040
279.3790116621563
1070
     1
1040
-137.7861261746873
1040
279.3790116621563
1040
-138.12378096559831
1040
278.72383693885331
1070
     1
1040
-138.12378096559831
1040
278.72383693885331
1040
-138.2912243871983
1040
278.00590866775917
1070
     1
1040
-138.2912243871983
1040
278.00590866775917
1040
-138.2774277967261
1040
277.26926771308302
1070
     1
1040
-138.2774277967261
1040
277.26926771308291
1040
-137.46978389328669
1040
271.66469188327028
1070
     1
1040
-137.46978389328669
1040
271.66469188327028
1040
-137.11026932149181
1040
269.16987124391972
1071
        0
1070
     0
1070
     1
1071
        1
1040
-488.08711856998701
1040
141.06894158504329
1040
0.0
1002
}
  0
LINE
  5
3FB
  8
0
 10
-489.61791718206769
 20
142.7892104517035
 30
0.0
 11
-490.39565538947699
 21
139.30973457498609
 31
0.0
  0
LINE
  5
3FC
  8
0
 10
-490.39565538947699
 20
139.30973457498609
 30
0.0
 11
-489.5019107172804
 21
138.7239665964855
 31
0.0
  0
LINE
  5
3FD
  8
0
 10
-489.5019107172804
 20
138.7239665964855
 30
0.0
 11
-488.60196374203031
 21
142.75018488031901
 31
0.0
  0
LINE
  5
3FE
  8
0
 10
-488.60196374203031
 20
142.75018488031901
 30
0.0
 11
-491.73466331837949
 21
164.48928580467251
 31
0.0
  0
LINE
  5
400
  8
0
 10
-490.22102494705513
 20
166.708274071489
 30
0.0
 11
-136.52857466464951
 21
249.66688435569839
 31
0.0
  0
LINE
  5
402
  8
0
 10
-133.8543866313141
 20
253.5870481123053
 30
0.0
 11
-135.9801009930934
 21
268.33826121794863
 31
0.0
  0
LINE
  5
403
  8
0
 10
-136.12274988380619
 20
269.32816100129787
 30
0.0
 11
-137.28765186970409
 21
277.41189875559462
 31
0.0
  0
LINE
  5
405
  8
0
 10
-135.77401357593959
 20
279.63088700424072
 30
0.0
 11
-106.2611103141486
 21
286.55314230853241
 31
0.0
  0
LINE
  5
406
  8
0
 10
-106.2611103141486
 20
286.55314230853241
 30
0.0
 11
-106.4894632585199
 21
287.5267207248898
 31
0.0
  0
LINE
  5
407
  8
0
 10
-106.4894632585199
 20
287.5267207248898
 30
0.0
 11
-136.00236652052249
 21
280.60446542054842
 31
0.0
  0
LINE
  5
409
  8
0
 10
-138.27742779672599
 20
277.26926771308263
 30
0.0
 11
-137.1102693214913
 21
269.1698712439196
 31
0.0
  0
LINE
  5
40A
  8
0
 10
-136.9676204307786
 20
268.1799714605703
 30
0.0
 11
-134.84416255835399
 21
253.44441706991819
 31
0.0
  0
LINE
  5
40C
  8
0
 10
-136.75692760902021
 20
250.64046277205591
 30
0.0
 11
-490.4493778914258
 21
167.6818524878465
 31
0.0
  0
LINE
  5
40E
  8
0
 10
-492.72443924540022
 20
164.34665476215301
 30
0.0
 11
-489.61791718206769
 21
142.78921045170341
 31
0.0
  0
LINE
  5
40F
  8
0
 10
-143.351672062196
 20
276.08374487017392
 30
0.0
 11
-496.23297516153332
 21
193.31538926342409
 31
0.0
  0
ARC
  5
410
  8
0
 10
-495.31956338405018
 20
189.4210755979941
 30
0.0
 40
3.9999999999999711
 50
103.2001220716476
 51
193.2001220716476
  0
LINE
  5
411
  8
0
 10
-494.48098790575222
 20
168.32908136324119
 30
0.0
 11
-499.21387704948017
 21
188.50766382051091
 31
0.0
  0
VIEWPORT
  5
31D
 67
     1
  8
0
 10
143.41473388671869
 20
99.790247440338135
 30
0.0
 40
334.673629294997
 41
222.15178063964851
 68
     1
 69
     1
1001
ACAD
1000
MVIEW
1002
{
1070
    16
1010
0.0
1020
0.0
1030
0.0
1010
0.0
1020
0.0
1030
1.0
1040
0.0
1040
222.15178063964851
1040
143.41473388671869
1040
99.790247440338135
1040
50.0
1040
0.0
1040
0.0
1070
     0
1070
   100
1070
     1
1070
     1
1070
     0
1070
     0
1070
     0
1070
     0
1040
0.0
1040
0.0
1040
0.0
1040
10.0
1040
10.0
1040
10.0
1040
10.0
1070
     0
1002
{
1002
}
1002
}
  0
VIEWPORT
  5
321
 67
     1
  8
0
 10
143.3724060058594
 20
99.832585573196425
 30
0.0
 40
229.39584960937501
 41
159.73213691711419
 68
     2
 69
     2
1001
ACAD
1000
MVIEW
1002
{
1070
    16
1010
0.0
1020
0.0
1030
0.0
1010
0.0
1020
0.0
1030
1.0
1040
0.0
1040
711.39065941234685
1040
-229.6323367039688
1040
111.3180233831314
1040
50.0
1040
0.0
1040
0.0
1070
     0
1070
  1000
1070
     1
1070
     1
1070
     0
1070
     0
1070
     0
1070
     0
1040
0.0
1040
0.0
1040
0.0
1040
1.0
1040
1.0
1040
0.0
1040
0.0
1070
     0
1002
{
1002
}
1002
}
  0
ENDSEC
  0
EOF
