  0
SECTION
  2
HEADER
  9
$ACADVER
  1
AC1009
  9
$INSBASE
 10
0.0
 20
0.0
 30
0.0
  9
$EXTMIN
 10
-368.63382906946259
 20
-228.726647313277
 30
0.0
  9
$EXTMAX
 10
921.17283223920322
 20
321.32744381679339
 30
0.0
  9
$LIMMIN
 10
0.0
 20
0.0
  9
$LIMMAX
 10
12.0
 20
9.0
  9
$ORTHOMODE
 70
     0
  9
$REGENMODE
 70
     1
  9
$FILLMODE
 70
     1
  9
$QTEXTMODE
 70
     0
  9
$MIRRTEXT
 70
     0
  9
$DRAGMODE
 70
     2
  9
$LTSCALE
 40
1.0
  9
$OSMODE
 70
     0
  9
$ATTMODE
 70
     1
  9
$TEXTSIZE
 40
0.2
  9
$TRACEWID
 40
0.05
  9
$TEXTSTYLE
  7
STANDARD
  9
$CLAYER
  8
0
  9
$CELTYPE
  6
BYLAYER
  9
$CECOLOR
 62
   256
  9
$DIMSCALE
 40
1.0
  9
$DIMASZ
 40
0.18
  9
$DIMEXO
 40
0.0625
  9
$DIMDLI
 40
0.38
  9
$DIMRND
 40
0.0
  9
$DIMDLE
 40
0.0
  9
$DIMEXE
 40
0.18
  9
$DIMTP
 40
0.0
  9
$DIMTM
 40
0.0
  9
$DIMTXT
 40
0.18
  9
$DIMCEN
 40
0.09
  9
$DIMTSZ
 40
0.0
  9
$DIMTOL
 70
     0
  9
$DIMLIM
 70
     0
  9
$DIMTIH
 70
     1
  9
$DIMTOH
 70
     1
  9
$DIMSE1
 70
     0
  9
$DIMSE2
 70
     0
  9
$DIMTAD
 70
     0
  9
$DIMZIN
 70
     0
  9
$DIMBLK
  1

  9
$DIMASO
 70
     1
  9
$DIMSHO
 70
     1
  9
$DIMPOST
  1

  9
$DIMAPOST
  1

  9
$DIMALT
 70
     0
  9
$DIMALTD
 70
     2
  9
$DIMALTF
 40
25.399999999999999
  9
$DIMLFAC
 40
1.0
  9
$DIMTOFL
 70
     0
  9
$DIMTVP
 40
0.0
  9
$DIMTIX
 70
     0
  9
$DIMSOXD
 70
     0
  9
$DIMSAH
 70
     0
  9
$DIMBLK1
  1

  9
$DIMBLK2
  1

  9
$DIMSTYLE
  2
STANDARD
  9
$DIMCLRD
 70
     0
  9
$DIMCLRE
 70
     0
  9
$DIMCLRT
 70
     0
  9
$DIMTFAC
 40
1.0
  9
$DIMGAP
 40
0.09
  9
$LUNITS
 70
     2
  9
$LUPREC
 70
     4
  9
$SKETCHINC
 40
0.1
  9
$FILLETRAD
 40
0.0
  9
$AUNITS
 70
     0
  9
$AUPREC
 70
     0
  9
$MENU
  1
.
  9
$ELEVATION
 40
0.0
  9
$PELEVATION
 40
0.0
  9
$THICKNESS
 40
0.0
  9
$LIMCHECK
 70
     0
  9
$BLIPMODE
 70
     0
  9
$CHAMFERA
 40
0.0
  9
$CHAMFERB
 40
0.0
  9
$SKPOLY
 70
     0
  9
$TDCREATE
 40
2458389.7581134262
  9
$TDUPDATE
 40
2458390.6730044219
  9
$TDINDWG
 40
0.0001256713
  9
$TDUSRTIMER
 40
0.0001256713
  9
$USRTIMER
 70
     1
  9
$ANGBASE
 50
0.0
  9
$ANGDIR
 70
     0
  9
$PDMODE
 70
     0
  9
$PDSIZE
 40
0.0
  9
$PLINEWID
 40
0.0
  9
$COORDS
 70
     2
  9
$SPLFRAME
 70
     0
  9
$SPLINETYPE
 70
     6
  9
$SPLINESEGS
 70
     8
  9
$ATTDIA
 70
     1
  9
$ATTREQ
 70
     0
  9
$HANDLING
 70
     1
  9
$HANDSEED
  5
5BE
  9
$SURFTAB1
 70
     6
  9
$SURFTAB2
 70
     6
  9
$SURFTYPE
 70
     6
  9
$SURFU
 70
     6
  9
$SURFV
 70
     6
  9
$UCSNAME
  2

  9
$UCSORG
 10
0.0
 20
0.0
 30
0.0
  9
$UCSXDIR
 10
1.0
 20
0.0
 30
0.0
  9
$UCSYDIR
 10
0.0
 20
1.0
 30
0.0
  9
$PUCSNAME
  2

  9
$PUCSORG
 10
0.0
 20
0.0
 30
0.0
  9
$PUCSXDIR
 10
1.0
 20
0.0
 30
0.0
  9
$PUCSYDIR
 10
0.0
 20
1.0
 30
0.0
  9
$USERI1
 70
     0
  9
$USERI2
 70
     0
  9
$USERI3
 70
     0
  9
$USERI4
 70
     0
  9
$USERI5
 70
     0
  9
$USERR1
 40
0.0
  9
$USERR2
 40
0.0
  9
$USERR3
 40
0.0
  9
$USERR4
 40
0.0
  9
$USERR5
 40
0.0
  9
$WORLDVIEW
 70
     1
  9
$SHADEDGE
 70
     3
  9
$SHADEDIF
 70
    70
  9
$TILEMODE
 70
     1
  9
$MAXACTVP
 70
    64
  9
$PLIMCHECK
 70
     0
  9
$PEXTMIN
 10
25.699999999999989
 20
19.5
 30
0.0
  9
$PEXTMAX
 10
231.30000000000001
 20
175.5
 30
0.0
  9
$PLIMMIN
 10
-20.0
 20
-7.5
  9
$PLIMMAX
 10
277.0
 20
202.5
  9
$UNITMODE
 70
     0
  9
$VISRETAIN
 70
     1
  9
$PLINEGEN
 70
     0
  9
$PSLTSCALE
 70
     1
  0
ENDSEC
  0
SECTION
  2
TABLES
  0
TABLE
  2
VPORT
 70
     1
  0
VPORT
  2
*ACTIVE
 70
     0
 10
0.0
 20
0.0
 11
1.0
 21
1.0
 12
404.24097224457938
 22
44.646237269493518
 13
0.0
 23
0.0
 14
1.0
 24
1.0
 15
0.0
 25
0.0
 16
0.0
 26
0.0
 36
1.0
 17
0.0
 27
0.0
 37
0.0
 40
546.74576916554099
 41
2.815750371471025
 42
50.0
 43
0.0
 44
0.0
 50
0.0
 51
0.0
 71
     0
 72
  1000
 73
     1
 74
     1
 75
     0
 76
     0
 77
     0
 78
     0
  0
ENDTAB
  0
TABLE
  2
LTYPE
 70
     2
  0
LTYPE
  2
CONTINUOUS
 70
     0
  3
Solid line
 72
    65
 73
     0
 40
0.0
  0
LTYPE
  2
DASH
 70
     0
  3

 72
    65
 73
     2
 40
6.3499999999999996
 49
3.1749999999999998
 49
-3.1749999999999998
  0
ENDTAB
  0
TABLE
  2
LAYER
 70
     6
  0
LAYER
  2
0
 70
     0
 62
     7
  6
CONTINUOUS
  0
ENDTAB
  0
TABLE
  2
STYLE
 70
     8
  0
STYLE
  2
STANDARD
 70
     0
 40
0.0
 41
1.0
 50
0.0
 71
     0
 42
0.2
  3
txt
  4

  0
STYLE
  2
ARIAL
 70
     0
 40
12.5
 41
1.0
 50
0.0
 71
     0
 42
0.2
  3
txt
  4

  0
ENDTAB
  0
TABLE
  2
VIEW
 70
     1
  0
ENDTAB
  0
TABLE
  2
UCS
 70
     0
  0
ENDTAB
  0
TABLE
  2
APPID
 70
     6
  0
APPID
  2
ACAD
 70
     0
  0
APPID
  2
ACADANNOTATIVE
 70
     0
  0
APPID
  2
REVIT
 70
     0
  0
APPID
  2
ACAD_PSEXT
 70
     0
  0
APPID
  2
ACAD_NAV_VCDISPLAY
 70
     0
  0
APPID
  2
ACAD_MLEADERVER
 70
     0
  0
ENDTAB
  0
TABLE
  2
DIMSTYLE
 70
     2
  0
DIMSTYLE
  2
STANDARD
 70
     0
  3

  4

  5

  6

  7

 40
1.0
 41
0.18
 42
0.0625
 43
0.38
 44
0.18
 45
0.0
 46
0.0
 47
0.0
 48
0.0
140
0.18
141
0.09
142
0.0
143
25.399999999999999
144
1.0
145
0.0
146
1.0
147
0.09
 71
     0
 72
     0
 73
     1
 74
     1
 75
     0
 76
     0
 77
     0
 78
     0
170
     0
171
     2
172
     0
173
     0
174
     0
175
     0
176
     0
177
     0
178
     0
  0
ENDTAB
  0
ENDSEC
  0
SECTION
  2
BLOCKS
  0
BLOCK
  8
0
  2
$MODEL_SPACE
 70
     0
 10
0.0
 20
0.0
 30
0.0
  3
$MODEL_SPACE
  1

  0
ENDBLK
  5
72
  8
0
  0
BLOCK
 67
     1
  8
0
  2
$PAPER_SPACE
 70
     0
 10
0.0
 20
0.0
 30
0.0
  3
$PAPER_SPACE
  1

  0
ENDBLK
  5
76
 67
     1
  8
0
  0
BLOCK
  8
0
  2
*U16
 70
     1
 10
0.0
 20
0.0
 30
0.0
  3
*U16
  1

  0
SOLID
  5
40C
  8
0
  6
CONTINUOUS
 10
-122.2911784494875
 20
120.500000000003
 30
0.0
 11
-123.0637209354248
 21
120.3776412907409
 31
0.0
 12
-121.5186359635501
 22
120.3776412907409
 32
0.0
 13
-121.5186359635501
 23
120.3776412907409
 33
0.0
210
0.0
220
0.0
230
1.0
  0
SOLID
  5
40D
  8
0
  6
CONTINUOUS
 10
-123.0637209354248
 20
120.3776412907409
 30
0.0
 11
-123.7606415802186
 21
120.02254248594031
 31
0.0
 12
-120.8217153187563
 22
120.02254248594031
 32
0.0
 13
-120.8217153187563
 23
120.02254248594031
 33
0.0
210
0.0
220
0.0
230
1.0
  0
SOLID
  5
40E
  8
0
  6
CONTINUOUS
 10
123.0637209354248
 20
120.3776412907409
 30
0.0
 11
121.5186359635501
 21
120.3776412907409
 31
0.0
 12
120.8217153187563
 22
120.02254248594031
 32
0.0
 13
120.8217153187563
 23
120.02254248594031
 33
0.0
210
0.0
220
0.0
230
-1.0
  0
SOLID
  5
40F
  8
0
  6
CONTINUOUS
 10
-123.7606415802186
 20
120.02254248594031
 30
0.0
 11
-124.3137209354248
 21
119.4694631307341
 31
0.0
 12
-120.2686359635501
 22
119.4694631307341
 32
0.0
 13
-120.2686359635501
 23
119.4694631307341
 33
0.0
210
0.0
220
0.0
230
1.0
  0
SOLID
  5
410
  8
0
  6
CONTINUOUS
 10
123.7606415802186
 20
120.02254248594031
 30
0.0
 11
120.8217153187563
 21
120.02254248594031
 31
0.0
 12
120.2686359635501
 22
119.4694631307341
 32
0.0
 13
120.2686359635501
 23
119.4694631307341
 33
0.0
210
0.0
220
0.0
230
-1.0
  0
SOLID
  5
411
  8
0
  6
CONTINUOUS
 10
-124.3137209354248
 20
119.4694631307341
 30
0.0
 11
-124.6688197402253
 21
118.77254248594031
 31
0.0
 12
-119.91353715874961
 22
118.77254248594031
 32
0.0
 13
-119.91353715874961
 23
118.77254248594031
 33
0.0
  0
SOLID
  5
412
  8
0
  6
CONTINUOUS
 10
124.3137209354248
 20
119.4694631307341
 30
0.0
 11
120.2686359635501
 21
119.4694631307341
 31
0.0
 12
119.91353715874961
 22
118.77254248594031
 32
0.0
 13
119.91353715874961
 23
118.77254248594031
 33
0.0
210
0.0
220
0.0
230
-1.0
  0
SOLID
  5
413
  8
0
  6
CONTINUOUS
 10
-124.6688197402253
 20
118.77254248594031
 30
0.0
 11
-124.7911784494875
 21
118.000000000003
 31
0.0
 12
-119.7911784494875
 22
118.000000000003
 32
0.0
 13
-119.7911784494875
 23
118.000000000003
 33
0.0
210
0.0
220
0.0
230
1.0
  0
SOLID
  5
414
  8
0
  6
CONTINUOUS
 10
124.6688197402253
 20
118.77254248594031
 30
0.0
 11
119.91353715874961
 21
118.77254248594031
 31
0.0
 12
119.7911784494875
 22
118.000000000003
 32
0.0
 13
119.7911784494875
 23
118.000000000003
 33
0.0
210
0.0
220
0.0
230
-1.0
  0
SOLID
  5
415
  8
0
  6
CONTINUOUS
 10
-124.7911784494875
 20
118.000000000003
 30
0.0
 11
-124.6688197402253
 21
117.22745751406561
 31
0.0
 12
-119.91353715874961
 22
117.22745751406561
 32
0.0
 13
-119.91353715874961
 23
117.22745751406561
 33
0.0
210
0.0
220
0.0
230
1.0
  0
SOLID
  5
416
  8
0
  6
CONTINUOUS
 10
124.7911784494875
 20
118.000000000003
 30
0.0
 11
119.7911784494875
 21
118.000000000003
 31
0.0
 12
119.91353715874961
 22
117.22745751406561
 32
0.0
 13
119.91353715874961
 23
117.22745751406561
 33
0.0
210
0.0
220
0.0
230
-1.0
  0
SOLID
  5
417
  8
0
  6
CONTINUOUS
 10
-124.6688197402253
 20
117.22745751406561
 30
0.0
 11
-124.3137209354248
 21
116.5305368692718
 31
0.0
 12
-120.2686359635501
 22
116.5305368692718
 32
0.0
 13
-120.2686359635501
 23
116.5305368692718
 33
0.0
210
0.0
220
0.0
230
1.0
  0
SOLID
  5
418
  8
0
  6
CONTINUOUS
 10
124.6688197402253
 20
117.22745751406561
 30
0.0
 11
119.91353715874961
 21
117.22745751406561
 31
0.0
 12
120.2686359635501
 22
116.5305368692718
 32
0.0
 13
120.2686359635501
 23
116.5305368692718
 33
0.0
210
0.0
220
0.0
230
-1.0
  0
SOLID
  5
419
  8
0
  6
CONTINUOUS
 10
-124.3137209354248
 20
116.5305368692718
 30
0.0
 11
-123.7606415802186
 21
115.97745751406561
 31
0.0
 12
-120.8217153187563
 22
115.97745751406561
 32
0.0
 13
-120.8217153187563
 23
115.97745751406561
 33
0.0
210
0.0
220
0.0
230
1.0
  0
SOLID
  5
41A
  8
0
  6
CONTINUOUS
 10
124.3137209354248
 20
116.5305368692718
 30
0.0
 11
120.2686359635501
 21
116.5305368692718
 31
0.0
 12
120.8217153187563
 22
115.97745751406561
 32
0.0
 13
120.8217153187563
 23
115.97745751406561
 33
0.0
210
0.0
220
0.0
230
-1.0
  0
SOLID
  5
41B
  8
0
  6
CONTINUOUS
 10
123.0637209354248
 20
115.6223587092651
 30
0.0
 11
121.5186359635501
 21
115.6223587092651
 31
0.0
 12
122.2911784494875
 22
115.500000000003
 32
0.0
 13
122.2911784494875
 23
115.500000000003
 33
0.0
210
0.0
220
0.0
230
-1.0
  0
SOLID
  5
41C
  8
0
  6
CONTINUOUS
 10
-123.7606415802186
 20
115.97745751406561
 30
0.0
 11
-123.0637209354248
 21
115.6223587092651
 31
0.0
 12
-121.5186359635501
 22
115.6223587092651
 32
0.0
 13
-121.5186359635501
 23
115.6223587092651
 33
0.0
210
0.0
220
0.0
230
1.0
  0
SOLID
  5
41D
  8
0
  6
CONTINUOUS
 10
123.7606415802186
 20
115.97745751406561
 30
0.0
 11
120.8217153187563
 21
115.97745751406561
 31
0.0
 12
121.5186359635501
 22
115.6223587092651
 32
0.0
 13
121.5186359635501
 23
115.6223587092651
 33
0.0
210
0.0
220
0.0
230
-1.0
  0
LINE
  5
41E
  8
0
  6
CONTINUOUS
 10
-122.2911784494875
 20
120.500000000003
 30
0.0
 11
-123.0637209354248
 21
120.3776412907409
 31
0.0
  0
LINE
  5
41F
  8
0
  6
CONTINUOUS
 10
-121.5186359635501
 20
120.3776412907409
 30
0.0
 11
-122.2911784494875
 21
120.500000000003
 31
0.0
  0
LINE
  5
420
  8
0
  6
CONTINUOUS
 10
-123.0637209354248
 20
120.3776412907409
 30
0.0
 11
-123.7606415802186
 21
120.02254248594031
 31
0.0
  0
LINE
  5
421
  8
0
  6
CONTINUOUS
 10
-121.5186359635501
 20
120.3776412907409
 30
0.0
 11
-120.8217153187563
 21
120.02254248594031
 31
0.0
  0
LINE
  5
422
  8
0
  6
CONTINUOUS
 10
-123.7606415802186
 20
120.02254248594031
 30
0.0
 11
-124.3137209354248
 21
119.4694631307341
 31
0.0
  0
LINE
  5
423
  8
0
  6
CONTINUOUS
 10
-120.8217153187563
 20
120.02254248594031
 30
0.0
 11
-120.2686359635501
 21
119.4694631307341
 31
0.0
  0
LINE
  5
424
  8
0
  6
CONTINUOUS
 10
-124.3137209354248
 20
119.4694631307341
 30
0.0
 11
-124.6688197402253
 21
118.77254248594031
 31
0.0
  0
LINE
  5
425
  8
0
  6
CONTINUOUS
 10
-120.2686359635501
 20
119.4694631307341
 30
0.0
 11
-119.91353715874961
 21
118.77254248594031
 31
0.0
  0
LINE
  5
426
  8
0
  6
CONTINUOUS
 10
-124.6688197402253
 20
118.77254248594031
 30
0.0
 11
-124.7911784494875
 21
118.000000000003
 31
0.0
  0
LINE
  5
427
  8
0
  6
CONTINUOUS
 10
-119.91353715874961
 20
118.77254248594031
 30
0.0
 11
-119.7911784494875
 21
118.000000000003
 31
0.0
  0
LINE
  5
428
  8
0
  6
CONTINUOUS
 10
-124.7911784494875
 20
118.000000000003
 30
0.0
 11
-124.6688197402253
 21
117.22745751406561
 31
0.0
  0
LINE
  5
429
  8
0
  6
CONTINUOUS
 10
-119.7911784494875
 20
118.000000000003
 30
0.0
 11
-119.91353715874961
 21
117.22745751406561
 31
0.0
  0
LINE
  5
42A
  8
0
  6
CONTINUOUS
 10
-124.6688197402253
 20
117.22745751406561
 30
0.0
 11
-124.3137209354248
 21
116.5305368692718
 31
0.0
  0
LINE
  5
42B
  8
0
  6
CONTINUOUS
 10
-119.91353715874961
 20
117.22745751406561
 30
0.0
 11
-120.2686359635501
 21
116.5305368692718
 31
0.0
  0
LINE
  5
42C
  8
0
  6
CONTINUOUS
 10
-124.3137209354248
 20
116.5305368692718
 30
0.0
 11
-123.7606415802186
 21
115.97745751406561
 31
0.0
  0
LINE
  5
42D
  8
0
  6
CONTINUOUS
 10
-120.2686359635501
 20
116.5305368692718
 30
0.0
 11
-120.8217153187563
 21
115.97745751406561
 31
0.0
  0
LINE
  5
42E
  8
0
  6
CONTINUOUS
 10
-121.5186359635501
 20
115.6223587092651
 30
0.0
 11
-122.2911784494875
 21
115.500000000003
 31
0.0
  0
LINE
  5
42F
  8
0
  6
CONTINUOUS
 10
-122.2911784494875
 20
115.500000000003
 30
0.0
 11
-123.0637209354248
 21
115.6223587092651
 31
0.0
  0
LINE
  5
430
  8
0
  6
CONTINUOUS
 10
-123.7606415802186
 20
115.97745751406561
 30
0.0
 11
-123.0637209354248
 21
115.6223587092651
 31
0.0
  0
LINE
  5
431
  8
0
  6
CONTINUOUS
 10
-120.8217153187563
 20
115.97745751406561
 30
0.0
 11
-121.5186359635501
 21
115.6223587092651
 31
0.0
  0
ENDBLK
  5
433
  8
0
  0
BLOCK
  8
0
  2
*U17
 70
     1
 10
0.0
 20
0.0
 30
0.0
  3
*U17
  1

  0
TEXT
  5
435
  8
0
 10
-366.78781951966721
 20
202.47151815582399
 30
0.0
 40
12.5
  1
Batten 150x25mm
  7
ARIAL
  0
ENDBLK
  5
437
  8
0
  0
BLOCK
  8
0
  2
*U18
 70
     1
 10
0.0
 20
0.0
 30
0.0
  3
*U18
  1

  0
SOLID
  5
439
  8
0
  6
CONTINUOUS
 10
437.44386097051017
 20
-4.3438215980007699
 30
0.0
 11
436.67131848457279
 21
-4.4661803072628903
 31
0.0
 12
438.21640345644761
 22
-4.4661803072628903
 32
0.0
 13
438.21640345644761
 23
-4.4661803072628903
 33
0.0
210
0.0
220
0.0
230
1.0
  0
SOLID
  5
43A
  8
0
  6
CONTINUOUS
 10
436.67131848457279
 20
-4.4661803072628903
 30
0.0
 11
435.97439783977899
 21
-4.8212791120634133
 31
0.0
 12
438.91332410124141
 22
-4.8212791120634133
 32
0.0
 13
438.91332410124141
 23
-4.8212791120634133
 33
0.0
210
0.0
220
0.0
230
1.0
  0
SOLID
  5
43B
  8
0
  6
CONTINUOUS
 10
-436.67131848457279
 20
-4.4661803072628903
 30
0.0
 11
-438.21640345644761
 21
-4.4661803072628903
 31
0.0
 12
-438.91332410124141
 22
-4.8212791120634133
 32
0.0
 13
-438.91332410124141
 23
-4.8212791120634133
 33
0.0
210
0.0
220
0.0
230
-1.0
  0
SOLID
  5
43C
  8
0
  6
CONTINUOUS
 10
435.97439783977899
 20
-4.8212791120634133
 30
0.0
 11
435.42131848457268
 21
-5.3743584672696123
 31
0.0
 12
439.46640345644772
 22
-5.3743584672696123
 32
0.0
 13
439.46640345644772
 23
-5.3743584672696123
 33
0.0
210
0.0
220
0.0
230
1.0
  0
SOLID
  5
43D
  8
0
  6
CONTINUOUS
 10
-435.97439783977899
 20
-4.8212791120634133
 30
0.0
 11
-438.91332410124141
 21
-4.8212791120634133
 31
0.0
 12
-439.46640345644772
 22
-5.3743584672696123
 32
0.0
 13
-439.46640345644772
 23
-5.3743584672696123
 33
0.0
210
0.0
220
0.0
230
-1.0
  0
SOLID
  5
43E
  8
0
  6
CONTINUOUS
 10
435.42131848457268
 20
-5.3743584672696123
 30
0.0
 11
435.06621967977219
 21
-6.0712791120634417
 31
0.0
 12
439.82150226124821
 22
-6.0712791120634417
 32
0.0
 13
439.82150226124821
 23
-6.0712791120634417
 33
0.0
  0
SOLID
  5
43F
  8
0
  6
CONTINUOUS
 10
-435.42131848457268
 20
-5.3743584672696123
 30
0.0
 11
-439.46640345644772
 21
-5.3743584672696123
 31
0.0
 12
-439.82150226124821
 22
-6.0712791120634417
 32
0.0
 13
-439.82150226124821
 23
-6.0712791120634417
 33
0.0
210
0.0
220
0.0
230
-1.0
  0
SOLID
  5
440
  8
0
  6
CONTINUOUS
 10
435.06621967977219
 20
-6.0712791120634417
 30
0.0
 11
434.94386097051012
 21
-6.8438215980008286
 31
0.0
 12
439.94386097051029
 22
-6.8438215980008286
 32
0.0
 13
439.94386097051029
 23
-6.8438215980008286
 33
0.0
210
0.0
220
0.0
230
1.0
  0
SOLID
  5
441
  8
0
  6
CONTINUOUS
 10
-435.06621967977219
 20
-6.0712791120634417
 30
0.0
 11
-439.82150226124821
 21
-6.0712791120634417
 31
0.0
 12
-439.94386097051029
 22
-6.8438215980008286
 32
0.0
 13
-439.94386097051029
 23
-6.8438215980008286
 33
0.0
210
0.0
220
0.0
230
-1.0
  0
SOLID
  5
442
  8
0
  6
CONTINUOUS
 10
434.94386097051012
 20
-6.8438215980008286
 30
0.0
 11
435.06621967977219
 21
-7.6163640839382163
 31
0.0
 12
439.82150226124821
 22
-7.6163640839382163
 32
0.0
 13
439.82150226124821
 23
-7.6163640839382163
 33
0.0
210
0.0
220
0.0
230
1.0
  0
SOLID
  5
443
  8
0
  6
CONTINUOUS
 10
-434.94386097051012
 20
-6.8438215980008286
 30
0.0
 11
-439.94386097051029
 21
-6.8438215980008286
 31
0.0
 12
-439.82150226124821
 22
-7.6163640839382163
 32
0.0
 13
-439.82150226124821
 23
-7.6163640839382163
 33
0.0
210
0.0
220
0.0
230
-1.0
  0
SOLID
  5
444
  8
0
  6
CONTINUOUS
 10
435.06621967977219
 20
-7.6163640839382163
 30
0.0
 11
435.42131848457268
 21
-8.3132847287320466
 31
0.0
 12
439.46640345644772
 22
-8.3132847287320466
 32
0.0
 13
439.46640345644772
 23
-8.3132847287320466
 33
0.0
210
0.0
220
0.0
230
1.0
  0
SOLID
  5
445
  8
0
  6
CONTINUOUS
 10
-435.06621967977219
 20
-7.6163640839382163
 30
0.0
 11
-439.82150226124821
 21
-7.6163640839382163
 31
0.0
 12
-439.46640345644772
 22
-8.3132847287320466
 32
0.0
 13
-439.46640345644772
 23
-8.3132847287320466
 33
0.0
210
0.0
220
0.0
230
-1.0
  0
SOLID
  5
446
  8
0
  6
CONTINUOUS
 10
435.42131848457268
 20
-8.3132847287320466
 30
0.0
 11
435.97439783977899
 21
-8.8663640839382438
 31
0.0
 12
438.91332410124141
 22
-8.8663640839382438
 32
0.0
 13
438.91332410124141
 23
-8.8663640839382438
 33
0.0
210
0.0
220
0.0
230
1.0
  0
SOLID
  5
447
  8
0
  6
CONTINUOUS
 10
-435.42131848457268
 20
-8.3132847287320466
 30
0.0
 11
-439.46640345644772
 21
-8.3132847287320466
 31
0.0
 12
-438.91332410124141
 22
-8.8663640839382438
 32
0.0
 13
-438.91332410124141
 23
-8.8663640839382438
 33
0.0
210
0.0
220
0.0
230
-1.0
  0
SOLID
  5
448
  8
0
  6
CONTINUOUS
 10
-436.67131848457279
 20
-9.2214628887387668
 30
0.0
 11
-438.21640345644761
 21
-9.2214628887387668
 31
0.0
 12
-437.44386097051017
 22
-9.3438215980008863
 32
0.0
 13
-437.44386097051017
 23
-9.3438215980008863
 33
0.0
210
0.0
220
0.0
230
-1.0
  0
SOLID
  5
449
  8
0
  6
CONTINUOUS
 10
435.97439783977899
 20
-8.8663640839382438
 30
0.0
 11
436.67131848457279
 21
-9.2214628887387668
 31
0.0
 12
438.21640345644761
 22
-9.2214628887387668
 32
0.0
 13
438.21640345644761
 23
-9.2214628887387668
 33
0.0
210
0.0
220
0.0
230
1.0
  0
SOLID
  5
44A
  8
0
  6
CONTINUOUS
 10
-435.97439783977899
 20
-8.8663640839382438
 30
0.0
 11
-438.91332410124141
 21
-8.8663640839382438
 31
0.0
 12
-438.21640345644761
 22
-9.2214628887387668
 32
0.0
 13
-438.21640345644761
 23
-9.2214628887387668
 33
0.0
210
0.0
220
0.0
230
-1.0
  0
LINE
  5
44B
  8
0
  6
CONTINUOUS
 10
437.44386097051017
 20
-4.3438215980007699
 30
0.0
 11
436.67131848457279
 21
-4.4661803072628903
 31
0.0
  0
LINE
  5
44C
  8
0
  6
CONTINUOUS
 10
438.21640345644761
 20
-4.4661803072628903
 30
0.0
 11
437.44386097051017
 21
-4.3438215980007699
 31
0.0
  0
LINE
  5
44D
  8
0
  6
CONTINUOUS
 10
436.67131848457279
 20
-4.4661803072628903
 30
0.0
 11
435.97439783977899
 21
-4.8212791120634133
 31
0.0
  0
LINE
  5
44E
  8
0
  6
CONTINUOUS
 10
438.21640345644761
 20
-4.4661803072628903
 30
0.0
 11
438.91332410124141
 21
-4.8212791120634133
 31
0.0
  0
LINE
  5
44F
  8
0
  6
CONTINUOUS
 10
435.97439783977899
 20
-4.8212791120634133
 30
0.0
 11
435.42131848457268
 21
-5.3743584672696123
 31
0.0
  0
LINE
  5
450
  8
0
  6
CONTINUOUS
 10
438.91332410124141
 20
-4.8212791120634133
 30
0.0
 11
439.46640345644772
 21
-5.3743584672696123
 31
0.0
  0
LINE
  5
451
  8
0
  6
CONTINUOUS
 10
435.42131848457268
 20
-5.3743584672696123
 30
0.0
 11
435.06621967977219
 21
-6.0712791120634417
 31
0.0
  0
LINE
  5
452
  8
0
  6
CONTINUOUS
 10
439.46640345644772
 20
-5.3743584672696123
 30
0.0
 11
439.82150226124821
 21
-6.0712791120634417
 31
0.0
  0
LINE
  5
453
  8
0
  6
CONTINUOUS
 10
435.06621967977219
 20
-6.0712791120634417
 30
0.0
 11
434.94386097051012
 21
-6.8438215980008286
 31
0.0
  0
LINE
  5
454
  8
0
  6
CONTINUOUS
 10
439.82150226124821
 20
-6.0712791120634417
 30
0.0
 11
439.94386097051029
 21
-6.8438215980008286
 31
0.0
  0
LINE
  5
455
  8
0
  6
CONTINUOUS
 10
434.94386097051012
 20
-6.8438215980008286
 30
0.0
 11
435.06621967977219
 21
-7.6163640839382163
 31
0.0
  0
LINE
  5
456
  8
0
  6
CONTINUOUS
 10
439.94386097051029
 20
-6.8438215980008286
 30
0.0
 11
439.82150226124821
 21
-7.6163640839382163
 31
0.0
  0
LINE
  5
457
  8
0
  6
CONTINUOUS
 10
435.06621967977219
 20
-7.6163640839382163
 30
0.0
 11
435.42131848457268
 21
-8.3132847287320466
 31
0.0
  0
LINE
  5
458
  8
0
  6
CONTINUOUS
 10
439.82150226124821
 20
-7.6163640839382163
 30
0.0
 11
439.46640345644772
 21
-8.3132847287320466
 31
0.0
  0
LINE
  5
459
  8
0
  6
CONTINUOUS
 10
435.42131848457268
 20
-8.3132847287320466
 30
0.0
 11
435.97439783977899
 21
-8.8663640839382438
 31
0.0
  0
LINE
  5
45A
  8
0
  6
CONTINUOUS
 10
439.46640345644772
 20
-8.3132847287320466
 30
0.0
 11
438.91332410124141
 21
-8.8663640839382438
 31
0.0
  0
LINE
  5
45B
  8
0
  6
CONTINUOUS
 10
438.21640345644761
 20
-9.2214628887387668
 30
0.0
 11
437.44386097051017
 21
-9.3438215980008863
 31
0.0
  0
LINE
  5
45C
  8
0
  6
CONTINUOUS
 10
437.44386097051017
 20
-9.3438215980008863
 30
0.0
 11
436.67131848457279
 21
-9.2214628887387668
 31
0.0
  0
LINE
  5
45D
  8
0
  6
CONTINUOUS
 10
435.97439783977899
 20
-8.8663640839382438
 30
0.0
 11
436.67131848457279
 21
-9.2214628887387668
 31
0.0
  0
LINE
  5
45E
  8
0
  6
CONTINUOUS
 10
438.91332410124141
 20
-8.8663640839382438
 30
0.0
 11
438.21640345644761
 21
-9.2214628887387668
 31
0.0
  0
ENDBLK
  5
460
  8
0
  0
BLOCK
  8
0
  2
*U19
 70
     1
 10
0.0
 20
0.0
 30
0.0
  3
*U19
  1

  0
TEXT
  5
462
  8
0
 10
646.55505811783587
 20
-136.1409929430703
 30
0.0
 40
12.5
  1
Eaves lining
  7
ARIAL
  0
ENDBLK
  5
464
  8
0
  0
BLOCK
  8
0
  2
*U20
 70
     1
 10
0.0
 20
0.0
 30
0.0
  3
*U20
  1

  0
SOLID
  5
466
  8
0
  6
CONTINUOUS
 10
-77.760043573123042
 20
143.259961946316
 30
0.0
 11
-78.532586059060407
 21
143.13760323705381
 31
0.0
 12
-76.987501087185663
 22
143.13760323705381
 32
0.0
 13
-76.987501087185663
 23
143.13760323705381
 33
0.0
210
0.0
220
0.0
230
1.0
  0
SOLID
  5
467
  8
0
  6
CONTINUOUS
 10
-78.532586059060407
 20
143.13760323705381
 30
0.0
 11
-79.229506703854213
 21
142.78250443225329
 31
0.0
 12
-76.290580442391857
 22
142.78250443225329
 32
0.0
 13
-76.290580442391857
 23
142.78250443225329
 33
0.0
210
0.0
220
0.0
230
1.0
  0
SOLID
  5
468
  8
0
  6
CONTINUOUS
 10
78.532586059060407
 20
143.13760323705381
 30
0.0
 11
76.987501087185663
 21
143.13760323705381
 31
0.0
 12
76.290580442391857
 22
142.78250443225329
 32
0.0
 13
76.290580442391857
 23
142.78250443225329
 33
0.0
210
0.0
220
0.0
230
-1.0
  0
SOLID
  5
469
  8
0
  6
CONTINUOUS
 10
-79.229506703854213
 20
142.78250443225329
 30
0.0
 11
-79.782586059060407
 21
142.22942507704721
 31
0.0
 12
-75.737501087185663
 22
142.22942507704721
 32
0.0
 13
-75.737501087185663
 23
142.22942507704721
 33
0.0
210
0.0
220
0.0
230
1.0
  0
SOLID
  5
46A
  8
0
  6
CONTINUOUS
 10
79.229506703854213
 20
142.78250443225329
 30
0.0
 11
76.290580442391857
 21
142.78250443225329
 31
0.0
 12
75.737501087185663
 22
142.22942507704721
 32
0.0
 13
75.737501087185663
 23
142.22942507704721
 33
0.0
210
0.0
220
0.0
230
-1.0
  0
SOLID
  5
46B
  8
0
  6
CONTINUOUS
 10
-79.782586059060407
 20
142.22942507704721
 30
0.0
 11
-80.137684863860912
 21
141.5325044322534
 31
0.0
 12
-75.382402282385158
 22
141.5325044322534
 32
0.0
 13
-75.382402282385158
 23
141.5325044322534
 33
0.0
210
0.0
220
0.0
230
1.0
  0
SOLID
  5
46C
  8
0
  6
CONTINUOUS
 10
79.782586059060407
 20
142.22942507704721
 30
0.0
 11
75.737501087185663
 21
142.22942507704721
 31
0.0
 12
75.382402282385158
 22
141.5325044322534
 32
0.0
 13
75.382402282385158
 23
141.5325044322534
 33
0.0
210
0.0
220
0.0
230
-1.0
  0
SOLID
  5
46D
  8
0
  6
CONTINUOUS
 10
-80.137684863860912
 20
141.5325044322534
 30
0.0
 11
-80.260043573123014
 21
140.759961946316
 31
0.0
 12
-75.260043573123042
 22
140.759961946316
 32
0.0
 13
-75.260043573123042
 23
140.759961946316
 33
0.0
210
0.0
220
0.0
230
1.0
  0
SOLID
  5
46E
  8
0
  6
CONTINUOUS
 10
80.137684863860912
 20
141.5325044322534
 30
0.0
 11
75.382402282385158
 21
141.5325044322534
 31
0.0
 12
75.260043573123042
 22
140.759961946316
 32
0.0
 13
75.260043573123042
 23
140.759961946316
 33
0.0
210
0.0
220
0.0
230
-1.0
  0
SOLID
  5
46F
  8
0
  6
CONTINUOUS
 10
-80.260043573123014
 20
140.759961946316
 30
0.0
 11
-80.137684863860912
 21
139.98741946037859
 31
0.0
 12
-75.382402282385172
 22
139.98741946037859
 32
0.0
 13
-75.382402282385172
 23
139.98741946037859
 33
0.0
  0
SOLID
  5
470
  8
0
  6
CONTINUOUS
 10
80.260043573123014
 20
140.759961946316
 30
0.0
 11
75.260043573123042
 21
140.759961946316
 31
0.0
 12
75.382402282385172
 22
139.98741946037859
 32
0.0
 13
75.382402282385172
 23
139.98741946037859
 33
0.0
210
0.0
220
0.0
230
-1.0
  0
SOLID
  5
471
  8
0
  6
CONTINUOUS
 10
-80.137684863860912
 20
139.98741946037859
 30
0.0
 11
-79.782586059060407
 21
139.29049881558481
 31
0.0
 12
-75.737501087185663
 22
139.29049881558481
 32
0.0
 13
-75.737501087185663
 23
139.29049881558481
 33
0.0
  0
SOLID
  5
472
  8
0
  6
CONTINUOUS
 10
80.137684863860912
 20
139.98741946037859
 30
0.0
 11
75.382402282385172
 21
139.98741946037859
 31
0.0
 12
75.737501087185663
 22
139.29049881558481
 32
0.0
 13
75.737501087185663
 23
139.29049881558481
 33
0.0
210
0.0
220
0.0
230
-1.0
  0
SOLID
  5
473
  8
0
  6
CONTINUOUS
 10
-79.782586059060407
 20
139.29049881558481
 30
0.0
 11
-79.229506703854213
 21
138.73741946037859
 31
0.0
 12
-76.290580442391871
 22
138.73741946037859
 32
0.0
 13
-76.290580442391871
 23
138.73741946037859
 33
0.0
210
0.0
220
0.0
230
1.0
  0
SOLID
  5
474
  8
0
  6
CONTINUOUS
 10
79.782586059060407
 20
139.29049881558481
 30
0.0
 11
75.737501087185663
 21
139.29049881558481
 31
0.0
 12
76.290580442391871
 22
138.73741946037859
 32
0.0
 13
76.290580442391871
 23
138.73741946037859
 33
0.0
210
0.0
220
0.0
230
-1.0
  0
SOLID
  5
475
  8
0
  6
CONTINUOUS
 10
78.532586059060407
 20
138.3823206555781
 30
0.0
 11
76.987501087185663
 21
138.3823206555781
 31
0.0
 12
77.760043573123042
 22
138.259961946316
 32
0.0
 13
77.760043573123042
 23
138.259961946316
 33
0.0
210
0.0
220
0.0
230
-1.0
  0
SOLID
  5
476
  8
0
  6
CONTINUOUS
 10
-79.229506703854213
 20
138.73741946037859
 30
0.0
 11
-78.532586059060407
 21
138.3823206555781
 31
0.0
 12
-76.987501087185663
 22
138.3823206555781
 32
0.0
 13
-76.987501087185663
 23
138.3823206555781
 33
0.0
210
0.0
220
0.0
230
1.0
  0
SOLID
  5
477
  8
0
  6
CONTINUOUS
 10
79.229506703854213
 20
138.73741946037859
 30
0.0
 11
76.290580442391871
 21
138.73741946037859
 31
0.0
 12
76.987501087185663
 22
138.3823206555781
 32
0.0
 13
76.987501087185663
 23
138.3823206555781
 33
0.0
210
0.0
220
0.0
230
-1.0
  0
LINE
  5
478
  8
0
  6
CONTINUOUS
 10
-77.760043573123042
 20
143.259961946316
 30
0.0
 11
-78.532586059060407
 21
143.13760323705381
 31
0.0
  0
LINE
  5
479
  8
0
  6
CONTINUOUS
 10
-76.987501087185663
 20
143.13760323705381
 30
0.0
 11
-77.760043573123042
 21
143.259961946316
 31
0.0
  0
LINE
  5
47A
  8
0
  6
CONTINUOUS
 10
-78.532586059060407
 20
143.13760323705381
 30
0.0
 11
-79.229506703854213
 21
142.78250443225329
 31
0.0
  0
LINE
  5
47B
  8
0
  6
CONTINUOUS
 10
-76.987501087185663
 20
143.13760323705381
 30
0.0
 11
-76.290580442391857
 21
142.78250443225329
 31
0.0
  0
LINE
  5
47C
  8
0
  6
CONTINUOUS
 10
-79.229506703854213
 20
142.78250443225329
 30
0.0
 11
-79.782586059060407
 21
142.22942507704721
 31
0.0
  0
LINE
  5
47D
  8
0
  6
CONTINUOUS
 10
-76.290580442391857
 20
142.78250443225329
 30
0.0
 11
-75.737501087185663
 21
142.22942507704721
 31
0.0
  0
LINE
  5
47E
  8
0
  6
CONTINUOUS
 10
-79.782586059060407
 20
142.22942507704721
 30
0.0
 11
-80.137684863860912
 21
141.5325044322534
 31
0.0
  0
LINE
  5
47F
  8
0
  6
CONTINUOUS
 10
-75.737501087185663
 20
142.22942507704721
 30
0.0
 11
-75.382402282385158
 21
141.5325044322534
 31
0.0
  0
LINE
  5
480
  8
0
  6
CONTINUOUS
 10
-80.137684863860912
 20
141.5325044322534
 30
0.0
 11
-80.260043573123014
 21
140.759961946316
 31
0.0
  0
LINE
  5
481
  8
0
  6
CONTINUOUS
 10
-75.382402282385158
 20
141.5325044322534
 30
0.0
 11
-75.260043573123042
 21
140.759961946316
 31
0.0
  0
LINE
  5
482
  8
0
  6
CONTINUOUS
 10
-80.260043573123014
 20
140.759961946316
 30
0.0
 11
-80.137684863860912
 21
139.98741946037859
 31
0.0
  0
LINE
  5
483
  8
0
  6
CONTINUOUS
 10
-75.260043573123042
 20
140.759961946316
 30
0.0
 11
-75.382402282385172
 21
139.98741946037859
 31
0.0
  0
LINE
  5
484
  8
0
  6
CONTINUOUS
 10
-80.137684863860912
 20
139.98741946037859
 30
0.0
 11
-79.782586059060407
 21
139.29049881558481
 31
0.0
  0
LINE
  5
485
  8
0
  6
CONTINUOUS
 10
-75.382402282385172
 20
139.98741946037859
 30
0.0
 11
-75.737501087185663
 21
139.29049881558481
 31
0.0
  0
LINE
  5
486
  8
0
  6
CONTINUOUS
 10
-79.782586059060407
 20
139.29049881558481
 30
0.0
 11
-79.229506703854213
 21
138.73741946037859
 31
0.0
  0
LINE
  5
487
  8
0
  6
CONTINUOUS
 10
-75.737501087185663
 20
139.29049881558481
 30
0.0
 11
-76.290580442391871
 21
138.73741946037859
 31
0.0
  0
LINE
  5
488
  8
0
  6
CONTINUOUS
 10
-76.987501087185663
 20
138.3823206555781
 30
0.0
 11
-77.760043573123042
 21
138.259961946316
 31
0.0
  0
LINE
  5
489
  8
0
  6
CONTINUOUS
 10
-77.760043573123042
 20
138.259961946316
 30
0.0
 11
-78.532586059060407
 21
138.3823206555781
 31
0.0
  0
LINE
  5
48A
  8
0
  6
CONTINUOUS
 10
-79.229506703854213
 20
138.73741946037859
 30
0.0
 11
-78.532586059060407
 21
138.3823206555781
 31
0.0
  0
LINE
  5
48B
  8
0
  6
CONTINUOUS
 10
-76.290580442391871
 20
138.73741946037859
 30
0.0
 11
-76.987501087185663
 21
138.3823206555781
 31
0.0
  0
ENDBLK
  5
48D
  8
0
  0
BLOCK
  8
0
  2
*U21
 70
     1
 10
0.0
 20
0.0
 30
0.0
  3
*U21
  1

  0
TEXT
  5
48F
  8
0
 10
-365.91810601352807
 20
252.0170197189525
 30
0.0
 40
12.5
  1
Tilcor CF Slate Tile
  7
ARIAL
  0
ENDBLK
  5
491
  8
0
  0
BLOCK
  8
0
  2
*U22
 70
     1
 10
0.0
 20
0.0
 30
0.0
  3
*U22
  1

  0
SOLID
  5
493
  8
0
  6
CONTINUOUS
 10
580.13459659089915
 20
25.15663519117313
 30
0.0
 11
579.36205410496177
 21
25.034276481911011
 31
0.0
 12
580.90713907683653
 22
25.034276481911011
 32
0.0
 13
580.90713907683653
 23
25.034276481911011
 33
0.0
210
0.0
220
0.0
230
1.0
  0
SOLID
  5
494
  8
0
  6
CONTINUOUS
 10
579.36205410496177
 20
25.034276481911011
 30
0.0
 11
578.66513346016802
 21
24.679177677110491
 31
0.0
 12
581.60405972163028
 22
24.679177677110491
 32
0.0
 13
581.60405972163028
 23
24.679177677110491
 33
0.0
210
0.0
220
0.0
230
1.0
  0
SOLID
  5
495
  8
0
  6
CONTINUOUS
 10
-579.36205410496177
 20
25.034276481911011
 30
0.0
 11
-580.90713907683653
 21
25.034276481911011
 31
0.0
 12
-581.60405972163028
 22
24.679177677110491
 32
0.0
 13
-581.60405972163028
 23
24.679177677110491
 33
0.0
210
0.0
220
0.0
230
-1.0
  0
SOLID
  5
496
  8
0
  6
CONTINUOUS
 10
578.66513346016802
 20
24.679177677110491
 30
0.0
 11
578.11205410496177
 21
24.126098321904308
 31
0.0
 12
582.15713907683653
 22
24.126098321904308
 32
0.0
 13
582.15713907683653
 23
24.126098321904308
 33
0.0
210
0.0
220
0.0
230
1.0
  0
SOLID
  5
497
  8
0
  6
CONTINUOUS
 10
-578.66513346016802
 20
24.679177677110491
 30
0.0
 11
-581.60405972163028
 21
24.679177677110491
 31
0.0
 12
-582.15713907683653
 22
24.126098321904308
 32
0.0
 13
-582.15713907683653
 23
24.126098321904308
 33
0.0
210
0.0
220
0.0
230
-1.0
  0
SOLID
  5
498
  8
0
  6
CONTINUOUS
 10
578.11205410496177
 20
24.126098321904308
 30
0.0
 11
577.75695530016128
 21
23.429177677110491
 31
0.0
 12
582.51223788163702
 22
23.429177677110491
 32
0.0
 13
582.51223788163702
 23
23.429177677110491
 33
0.0
210
0.0
220
0.0
230
1.0
  0
SOLID
  5
499
  8
0
  6
CONTINUOUS
 10
-578.11205410496177
 20
24.126098321904308
 30
0.0
 11
-582.15713907683653
 21
24.126098321904308
 31
0.0
 12
-582.51223788163702
 22
23.429177677110491
 32
0.0
 13
-582.51223788163702
 23
23.429177677110491
 33
0.0
210
0.0
220
0.0
230
-1.0
  0
SOLID
  5
49A
  8
0
  6
CONTINUOUS
 10
577.75695530016128
 20
23.429177677110491
 30
0.0
 11
577.63459659089915
 21
22.65663519117312
 31
0.0
 12
582.63459659089915
 22
22.65663519117312
 32
0.0
 13
582.63459659089915
 23
22.65663519117312
 33
0.0
210
0.0
220
0.0
230
1.0
  0
SOLID
  5
49B
  8
0
  6
CONTINUOUS
 10
-577.75695530016128
 20
23.429177677110491
 30
0.0
 11
-582.51223788163702
 21
23.429177677110491
 31
0.0
 12
-582.63459659089915
 22
22.65663519117312
 32
0.0
 13
-582.63459659089915
 23
22.65663519117312
 33
0.0
210
0.0
220
0.0
230
-1.0
  0
SOLID
  5
49C
  8
0
  6
CONTINUOUS
 10
577.63459659089915
 20
22.65663519117312
 30
0.0
 11
577.75695530016128
 21
21.884092705235759
 31
0.0
 12
582.51223788163702
 22
21.884092705235759
 32
0.0
 13
582.51223788163702
 23
21.884092705235759
 33
0.0
210
0.0
220
0.0
230
1.0
  0
SOLID
  5
49D
  8
0
  6
CONTINUOUS
 10
-577.63459659089915
 20
22.65663519117312
 30
0.0
 11
-582.63459659089915
 21
22.65663519117312
 31
0.0
 12
-582.51223788163702
 22
21.884092705235759
 32
0.0
 13
-582.51223788163702
 23
21.884092705235759
 33
0.0
210
0.0
220
0.0
230
-1.0
  0
SOLID
  5
49E
  8
0
  6
CONTINUOUS
 10
577.75695530016128
 20
21.884092705235759
 30
0.0
 11
578.11205410496177
 21
21.187172060441942
 31
0.0
 12
582.15713907683653
 22
21.187172060441942
 32
0.0
 13
582.15713907683653
 23
21.187172060441942
 33
0.0
  0
SOLID
  5
49F
  8
0
  6
CONTINUOUS
 10
-577.75695530016128
 20
21.884092705235759
 30
0.0
 11
-582.51223788163702
 21
21.884092705235759
 31
0.0
 12
-582.15713907683653
 22
21.187172060441942
 32
0.0
 13
-582.15713907683653
 23
21.187172060441942
 33
0.0
210
0.0
220
0.0
230
-1.0
  0
SOLID
  5
4A0
  8
0
  6
CONTINUOUS
 10
578.11205410496177
 20
21.187172060441942
 30
0.0
 11
578.66513346016802
 21
20.634092705235759
 31
0.0
 12
581.60405972163028
 22
20.634092705235759
 32
0.0
 13
581.60405972163028
 23
20.634092705235759
 33
0.0
210
0.0
220
0.0
230
1.0
  0
SOLID
  5
4A1
  8
0
  6
CONTINUOUS
 10
-578.11205410496177
 20
21.187172060441942
 30
0.0
 11
-582.15713907683653
 21
21.187172060441942
 31
0.0
 12
-581.60405972163028
 22
20.634092705235759
 32
0.0
 13
-581.60405972163028
 23
20.634092705235759
 33
0.0
210
0.0
220
0.0
230
-1.0
  0
SOLID
  5
4A2
  8
0
  6
CONTINUOUS
 10
-579.36205410496177
 20
20.278993900435239
 30
0.0
 11
-580.90713907683653
 21
20.278993900435239
 31
0.0
 12
-580.13459659089915
 22
20.15663519117313
 32
0.0
 13
-580.13459659089915
 23
20.15663519117313
 33
0.0
210
0.0
220
0.0
230
-1.0
  0
SOLID
  5
4A3
  8
0
  6
CONTINUOUS
 10
578.66513346016802
 20
20.634092705235759
 30
0.0
 11
579.36205410496177
 21
20.278993900435239
 31
0.0
 12
580.90713907683653
 22
20.278993900435239
 32
0.0
 13
580.90713907683653
 23
20.278993900435239
 33
0.0
210
0.0
220
0.0
230
1.0
  0
SOLID
  5
4A4
  8
0
  6
CONTINUOUS
 10
-578.66513346016802
 20
20.634092705235759
 30
0.0
 11
-581.60405972163028
 21
20.634092705235759
 31
0.0
 12
-580.90713907683653
 22
20.278993900435239
 32
0.0
 13
-580.90713907683653
 23
20.278993900435239
 33
0.0
210
0.0
220
0.0
230
-1.0
  0
LINE
  5
4A5
  8
0
  6
CONTINUOUS
 10
580.13459659089915
 20
25.15663519117313
 30
0.0
 11
579.36205410496177
 21
25.034276481911011
 31
0.0
  0
LINE
  5
4A6
  8
0
  6
CONTINUOUS
 10
580.90713907683653
 20
25.034276481911011
 30
0.0
 11
580.13459659089915
 21
25.15663519117313
 31
0.0
  0
LINE
  5
4A7
  8
0
  6
CONTINUOUS
 10
579.36205410496177
 20
25.034276481911011
 30
0.0
 11
578.66513346016802
 21
24.679177677110491
 31
0.0
  0
LINE
  5
4A8
  8
0
  6
CONTINUOUS
 10
580.90713907683653
 20
25.034276481911011
 30
0.0
 11
581.60405972163028
 21
24.679177677110491
 31
0.0
  0
LINE
  5
4A9
  8
0
  6
CONTINUOUS
 10
578.66513346016802
 20
24.679177677110491
 30
0.0
 11
578.11205410496177
 21
24.126098321904308
 31
0.0
  0
LINE
  5
4AA
  8
0
  6
CONTINUOUS
 10
581.60405972163028
 20
24.679177677110491
 30
0.0
 11
582.15713907683653
 21
24.126098321904308
 31
0.0
  0
LINE
  5
4AB
  8
0
  6
CONTINUOUS
 10
578.11205410496177
 20
24.126098321904308
 30
0.0
 11
577.75695530016128
 21
23.429177677110491
 31
0.0
  0
LINE
  5
4AC
  8
0
  6
CONTINUOUS
 10
582.15713907683653
 20
24.126098321904308
 30
0.0
 11
582.51223788163702
 21
23.429177677110491
 31
0.0
  0
LINE
  5
4AD
  8
0
  6
CONTINUOUS
 10
577.75695530016128
 20
23.429177677110491
 30
0.0
 11
577.63459659089915
 21
22.65663519117312
 31
0.0
  0
LINE
  5
4AE
  8
0
  6
CONTINUOUS
 10
582.51223788163702
 20
23.429177677110491
 30
0.0
 11
582.63459659089915
 21
22.65663519117312
 31
0.0
  0
LINE
  5
4AF
  8
0
  6
CONTINUOUS
 10
577.63459659089915
 20
22.65663519117312
 30
0.0
 11
577.75695530016128
 21
21.884092705235759
 31
0.0
  0
LINE
  5
4B0
  8
0
  6
CONTINUOUS
 10
582.63459659089915
 20
22.65663519117312
 30
0.0
 11
582.51223788163702
 21
21.884092705235759
 31
0.0
  0
LINE
  5
4B1
  8
0
  6
CONTINUOUS
 10
577.75695530016128
 20
21.884092705235759
 30
0.0
 11
578.11205410496177
 21
21.187172060441942
 31
0.0
  0
LINE
  5
4B2
  8
0
  6
CONTINUOUS
 10
582.51223788163702
 20
21.884092705235759
 30
0.0
 11
582.15713907683653
 21
21.187172060441942
 31
0.0
  0
LINE
  5
4B3
  8
0
  6
CONTINUOUS
 10
578.11205410496177
 20
21.187172060441942
 30
0.0
 11
578.66513346016802
 21
20.634092705235759
 31
0.0
  0
LINE
  5
4B4
  8
0
  6
CONTINUOUS
 10
582.15713907683653
 20
21.187172060441942
 30
0.0
 11
581.60405972163028
 21
20.634092705235759
 31
0.0
  0
LINE
  5
4B5
  8
0
  6
CONTINUOUS
 10
580.90713907683653
 20
20.278993900435239
 30
0.0
 11
580.13459659089915
 21
20.15663519117313
 31
0.0
  0
LINE
  5
4B6
  8
0
  6
CONTINUOUS
 10
580.13459659089915
 20
20.15663519117313
 30
0.0
 11
579.36205410496177
 21
20.278993900435239
 31
0.0
  0
LINE
  5
4B7
  8
0
  6
CONTINUOUS
 10
578.66513346016802
 20
20.634092705235759
 30
0.0
 11
579.36205410496177
 21
20.278993900435239
 31
0.0
  0
LINE
  5
4B8
  8
0
  6
CONTINUOUS
 10
581.60405972163028
 20
20.634092705235759
 30
0.0
 11
580.90713907683653
 21
20.278993900435239
 31
0.0
  0
ENDBLK
  5
4BA
  8
0
  0
BLOCK
  8
0
  2
*U23
 70
     1
 10
0.0
 20
0.0
 30
0.0
  3
*U23
  1

  0
TEXT
  5
4BC
  8
0
 10
647.64032414784924
 20
16.86862513372493
 30
0.0
 40
12.5
  1
Metal fascia system
  7
ARIAL
  0
ENDBLK
  5
4BE
  8
0
  0
BLOCK
  8
0
  2
*U24
 70
     1
 10
0.0
 20
0.0
 30
0.0
  3
*U24
  1

  0
SOLID
  5
4C0
  8
0
  6
CONTINUOUS
 10
555.28904286663817
 20
165.56688319402139
 30
0.0
 11
554.51650038070068
 21
165.44452448475931
 31
0.0
 12
556.06158535257555
 22
165.44452448475931
 32
0.0
 13
556.06158535257555
 23
165.44452448475931
 33
0.0
210
0.0
220
0.0
230
1.0
  0
SOLID
  5
4C1
  8
0
  6
CONTINUOUS
 10
554.51650038070068
 20
165.44452448475931
 30
0.0
 11
553.81957973590693
 21
165.08942567995879
 31
0.0
 12
556.7585059973693
 22
165.08942567995879
 32
0.0
 13
556.7585059973693
 23
165.08942567995879
 33
0.0
210
0.0
220
0.0
230
1.0
  0
SOLID
  5
4C2
  8
0
  6
CONTINUOUS
 10
-554.51650038070068
 20
165.44452448475931
 30
0.0
 11
-556.06158535257555
 21
165.44452448475931
 31
0.0
 12
-556.7585059973693
 22
165.08942567995879
 32
0.0
 13
-556.7585059973693
 23
165.08942567995879
 33
0.0
210
0.0
220
0.0
230
-1.0
  0
SOLID
  5
4C3
  8
0
  6
CONTINUOUS
 10
553.81957973590693
 20
165.08942567995879
 30
0.0
 11
553.26650038070068
 21
164.5363463247526
 31
0.0
 12
557.31158535257555
 22
164.5363463247526
 32
0.0
 13
557.31158535257555
 23
164.5363463247526
 33
0.0
210
0.0
220
0.0
230
1.0
  0
SOLID
  5
4C4
  8
0
  6
CONTINUOUS
 10
-553.81957973590693
 20
165.08942567995879
 30
0.0
 11
-556.7585059973693
 21
165.08942567995879
 31
0.0
 12
-557.31158535257555
 22
164.5363463247526
 32
0.0
 13
-557.31158535257555
 23
164.5363463247526
 33
0.0
210
0.0
220
0.0
230
-1.0
  0
SOLID
  5
4C5
  8
0
  6
CONTINUOUS
 10
553.26650038070068
 20
164.5363463247526
 30
0.0
 11
552.91140157590019
 21
163.83942567995879
 31
0.0
 12
557.66668415737604
 22
163.83942567995879
 32
0.0
 13
557.66668415737604
 23
163.83942567995879
 33
0.0
210
0.0
220
0.0
230
1.0
  0
SOLID
  5
4C6
  8
0
  6
CONTINUOUS
 10
-553.26650038070068
 20
164.5363463247526
 30
0.0
 11
-557.31158535257555
 21
164.5363463247526
 31
0.0
 12
-557.66668415737604
 22
163.83942567995879
 32
0.0
 13
-557.66668415737604
 23
163.83942567995879
 33
0.0
210
0.0
220
0.0
230
-1.0
  0
SOLID
  5
4C7
  8
0
  6
CONTINUOUS
 10
552.91140157590019
 20
163.83942567995879
 30
0.0
 11
552.78904286663806
 21
163.06688319402139
 31
0.0
 12
557.78904286663806
 22
163.06688319402139
 32
0.0
 13
557.78904286663806
 23
163.06688319402139
 33
0.0
210
0.0
220
0.0
230
1.0
  0
SOLID
  5
4C8
  8
0
  6
CONTINUOUS
 10
-552.91140157590019
 20
163.83942567995879
 30
0.0
 11
-557.66668415737604
 21
163.83942567995879
 31
0.0
 12
-557.78904286663806
 22
163.06688319402139
 32
0.0
 13
-557.78904286663806
 23
163.06688319402139
 33
0.0
210
0.0
220
0.0
230
-1.0
  0
SOLID
  5
4C9
  8
0
  6
CONTINUOUS
 10
552.78904286663806
 20
163.06688319402139
 30
0.0
 11
552.91140157590019
 21
162.29434070808401
 31
0.0
 12
557.66668415737604
 22
162.29434070808401
 32
0.0
 13
557.66668415737604
 23
162.29434070808401
 33
0.0
210
0.0
220
0.0
230
1.0
  0
SOLID
  5
4CA
  8
0
  6
CONTINUOUS
 10
-552.78904286663806
 20
163.06688319402139
 30
0.0
 11
-557.78904286663806
 21
163.06688319402139
 31
0.0
 12
-557.66668415737604
 22
162.29434070808401
 32
0.0
 13
-557.66668415737604
 23
162.29434070808401
 33
0.0
210
0.0
220
0.0
230
-1.0
  0
SOLID
  5
4CB
  8
0
  6
CONTINUOUS
 10
552.91140157590019
 20
162.29434070808401
 30
0.0
 11
553.26650038070068
 21
161.5974200632902
 31
0.0
 12
557.31158535257555
 22
161.5974200632902
 32
0.0
 13
557.31158535257555
 23
161.5974200632902
 33
0.0
210
0.0
220
0.0
230
1.0
  0
SOLID
  5
4CC
  8
0
  6
CONTINUOUS
 10
-552.91140157590019
 20
162.29434070808401
 30
0.0
 11
-557.66668415737604
 21
162.29434070808401
 31
0.0
 12
-557.31158535257555
 22
161.5974200632902
 32
0.0
 13
-557.31158535257555
 23
161.5974200632902
 33
0.0
210
0.0
220
0.0
230
-1.0
  0
SOLID
  5
4CD
  8
0
  6
CONTINUOUS
 10
553.26650038070068
 20
161.5974200632902
 30
0.0
 11
553.81957973590693
 21
161.04434070808401
 31
0.0
 12
556.7585059973693
 22
161.04434070808401
 32
0.0
 13
556.7585059973693
 23
161.04434070808401
 33
0.0
  0
SOLID
  5
4CE
  8
0
  6
CONTINUOUS
 10
-553.26650038070068
 20
161.5974200632902
 30
0.0
 11
-557.31158535257555
 21
161.5974200632902
 31
0.0
 12
-556.7585059973693
 22
161.04434070808401
 32
0.0
 13
-556.7585059973693
 23
161.04434070808401
 33
0.0
210
0.0
220
0.0
230
-1.0
  0
SOLID
  5
4CF
  8
0
  6
CONTINUOUS
 10
-554.51650038070068
 20
160.68924190328349
 30
0.0
 11
-556.06158535257555
 21
160.68924190328349
 31
0.0
 12
-555.28904286663817
 22
160.56688319402139
 32
0.0
 13
-555.28904286663817
 23
160.56688319402139
 33
0.0
210
0.0
220
0.0
230
-1.0
  0
SOLID
  5
4D0
  8
0
  6
CONTINUOUS
 10
553.81957973590693
 20
161.04434070808401
 30
0.0
 11
554.51650038070068
 21
160.68924190328349
 31
0.0
 12
556.06158535257555
 22
160.68924190328349
 32
0.0
 13
556.06158535257555
 23
160.68924190328349
 33
0.0
210
0.0
220
0.0
230
1.0
  0
SOLID
  5
4D1
  8
0
  6
CONTINUOUS
 10
-553.81957973590693
 20
161.04434070808401
 30
0.0
 11
-556.7585059973693
 21
161.04434070808401
 31
0.0
 12
-556.06158535257555
 22
160.68924190328349
 32
0.0
 13
-556.06158535257555
 23
160.68924190328349
 33
0.0
210
0.0
220
0.0
230
-1.0
  0
LINE
  5
4D2
  8
0
  6
CONTINUOUS
 10
555.28904286663817
 20
165.56688319402139
 30
0.0
 11
554.51650038070068
 21
165.44452448475931
 31
0.0
  0
LINE
  5
4D3
  8
0
  6
CONTINUOUS
 10
556.06158535257555
 20
165.44452448475931
 30
0.0
 11
555.28904286663817
 21
165.56688319402139
 31
0.0
  0
LINE
  5
4D4
  8
0
  6
CONTINUOUS
 10
554.51650038070068
 20
165.44452448475931
 30
0.0
 11
553.81957973590693
 21
165.08942567995879
 31
0.0
  0
LINE
  5
4D5
  8
0
  6
CONTINUOUS
 10
556.06158535257555
 20
165.44452448475931
 30
0.0
 11
556.7585059973693
 21
165.08942567995879
 31
0.0
  0
LINE
  5
4D6
  8
0
  6
CONTINUOUS
 10
553.81957973590693
 20
165.08942567995879
 30
0.0
 11
553.26650038070068
 21
164.5363463247526
 31
0.0
  0
LINE
  5
4D7
  8
0
  6
CONTINUOUS
 10
556.7585059973693
 20
165.08942567995879
 30
0.0
 11
557.31158535257555
 21
164.5363463247526
 31
0.0
  0
LINE
  5
4D8
  8
0
  6
CONTINUOUS
 10
553.26650038070068
 20
164.5363463247526
 30
0.0
 11
552.91140157590019
 21
163.83942567995879
 31
0.0
  0
LINE
  5
4D9
  8
0
  6
CONTINUOUS
 10
557.31158535257555
 20
164.5363463247526
 30
0.0
 11
557.66668415737604
 21
163.83942567995879
 31
0.0
  0
LINE
  5
4DA
  8
0
  6
CONTINUOUS
 10
552.91140157590019
 20
163.83942567995879
 30
0.0
 11
552.78904286663806
 21
163.06688319402139
 31
0.0
  0
LINE
  5
4DB
  8
0
  6
CONTINUOUS
 10
557.66668415737604
 20
163.83942567995879
 30
0.0
 11
557.78904286663806
 21
163.06688319402139
 31
0.0
  0
LINE
  5
4DC
  8
0
  6
CONTINUOUS
 10
552.78904286663806
 20
163.06688319402139
 30
0.0
 11
552.91140157590019
 21
162.29434070808401
 31
0.0
  0
LINE
  5
4DD
  8
0
  6
CONTINUOUS
 10
557.78904286663806
 20
163.06688319402139
 30
0.0
 11
557.66668415737604
 21
162.29434070808401
 31
0.0
  0
LINE
  5
4DE
  8
0
  6
CONTINUOUS
 10
552.91140157590019
 20
162.29434070808401
 30
0.0
 11
553.26650038070068
 21
161.5974200632902
 31
0.0
  0
LINE
  5
4DF
  8
0
  6
CONTINUOUS
 10
557.66668415737604
 20
162.29434070808401
 30
0.0
 11
557.31158535257555
 21
161.5974200632902
 31
0.0
  0
LINE
  5
4E0
  8
0
  6
CONTINUOUS
 10
553.26650038070068
 20
161.5974200632902
 30
0.0
 11
553.81957973590693
 21
161.04434070808401
 31
0.0
  0
LINE
  5
4E1
  8
0
  6
CONTINUOUS
 10
557.31158535257555
 20
161.5974200632902
 30
0.0
 11
556.7585059973693
 21
161.04434070808401
 31
0.0
  0
LINE
  5
4E2
  8
0
  6
CONTINUOUS
 10
556.06158535257555
 20
160.68924190328349
 30
0.0
 11
555.28904286663817
 21
160.56688319402139
 31
0.0
  0
LINE
  5
4E3
  8
0
  6
CONTINUOUS
 10
555.28904286663817
 20
160.56688319402139
 30
0.0
 11
554.51650038070068
 21
160.68924190328349
 31
0.0
  0
LINE
  5
4E4
  8
0
  6
CONTINUOUS
 10
553.81957973590693
 20
161.04434070808401
 30
0.0
 11
554.51650038070068
 21
160.68924190328349
 31
0.0
  0
LINE
  5
4E5
  8
0
  6
CONTINUOUS
 10
556.7585059973693
 20
161.04434070808401
 30
0.0
 11
556.06158535257555
 21
160.68924190328349
 31
0.0
  0
ENDBLK
  5
4E7
  8
0
  0
BLOCK
  8
0
  2
*U25
 70
     1
 10
0.0
 20
0.0
 30
0.0
  3
*U25
  1

  0
TEXT
  5
4E9
  8
0
 10
647.5270908599914
 20
197.6261919524118
 30
0.0
 40
12.5
  1
Tile edge turned up minimum
  7
ARIAL
  0
TEXT
  5
4EA
  8
0
 10
647.71467612602146
 20
178.0058188763162
 30
0.0
 40
12.5
  1
40mm
  7
ARIAL
  0
ENDBLK
  5
4EC
  8
0
  0
BLOCK
  8
0
  2
*U26
 70
     1
 10
0.0
 20
0.0
 30
0.0
  3
*U26
  1

  0
SOLID
  5
4EE
  8
0
  6
CONTINUOUS
 10
546.11383900775058
 20
173.30645178204799
 30
0.0
 11
545.34129652181321
 21
173.18409307278591
 31
0.0
 12
546.88638149368785
 22
173.18409307278591
 32
0.0
 13
546.88638149368785
 23
173.18409307278591
 33
0.0
  0
SOLID
  5
4EF
  8
0
  6
CONTINUOUS
 10
545.34129652181321
 20
173.18409307278591
 30
0.0
 11
544.64437587701946
 21
172.82899426798539
 31
0.0
 12
547.58330213848171
 22
172.82899426798539
 32
0.0
 13
547.58330213848171
 23
172.82899426798539
 33
0.0
210
0.0
220
0.0
230
1.0
  0
SOLID
  5
4F0
  8
0
  6
CONTINUOUS
 10
-545.34129652181321
 20
173.18409307278591
 30
0.0
 11
-546.88638149368785
 21
173.18409307278591
 31
0.0
 12
-547.58330213848171
 22
172.82899426798539
 32
0.0
 13
-547.58330213848171
 23
172.82899426798539
 33
0.0
210
0.0
220
0.0
230
-1.0
  0
SOLID
  5
4F1
  8
0
  6
CONTINUOUS
 10
544.64437587701946
 20
172.82899426798539
 30
0.0
 11
544.09129652181321
 21
172.2759149127792
 31
0.0
 12
548.13638149368785
 22
172.2759149127792
 32
0.0
 13
548.13638149368785
 23
172.2759149127792
 33
0.0
210
0.0
220
0.0
230
1.0
  0
SOLID
  5
4F2
  8
0
  6
CONTINUOUS
 10
-544.64437587701946
 20
172.82899426798539
 30
0.0
 11
-547.58330213848171
 21
172.82899426798539
 31
0.0
 12
-548.13638149368785
 22
172.2759149127792
 32
0.0
 13
-548.13638149368785
 23
172.2759149127792
 33
0.0
210
0.0
220
0.0
230
-1.0
  0
SOLID
  5
4F3
  8
0
  6
CONTINUOUS
 10
544.09129652181321
 20
172.2759149127792
 30
0.0
 11
543.73619771701271
 21
171.57899426798539
 31
0.0
 12
548.49148029848845
 22
171.57899426798539
 32
0.0
 13
548.49148029848845
 23
171.57899426798539
 33
0.0
210
0.0
220
0.0
230
1.0
  0
SOLID
  5
4F4
  8
0
  6
CONTINUOUS
 10
-544.09129652181321
 20
172.2759149127792
 30
0.0
 11
-548.13638149368785
 21
172.2759149127792
 31
0.0
 12
-548.49148029848845
 22
171.57899426798539
 32
0.0
 13
-548.49148029848845
 23
171.57899426798539
 33
0.0
210
0.0
220
0.0
230
-1.0
  0
SOLID
  5
4F5
  8
0
  6
CONTINUOUS
 10
543.73619771701271
 20
171.57899426798539
 30
0.0
 11
543.61383900775047
 21
170.80645178204799
 31
0.0
 12
548.61383900775047
 22
170.80645178204799
 32
0.0
 13
548.61383900775047
 23
170.80645178204799
 33
0.0
210
0.0
220
0.0
230
1.0
  0
SOLID
  5
4F6
  8
0
  6
CONTINUOUS
 10
-543.73619771701271
 20
171.57899426798539
 30
0.0
 11
-548.49148029848845
 21
171.57899426798539
 31
0.0
 12
-548.61383900775047
 22
170.80645178204799
 32
0.0
 13
-548.61383900775047
 23
170.80645178204799
 33
0.0
210
0.0
220
0.0
230
-1.0
  0
SOLID
  5
4F7
  8
0
  6
CONTINUOUS
 10
543.61383900775047
 20
170.80645178204799
 30
0.0
 11
543.73619771701271
 21
170.03390929611069
 31
0.0
 12
548.49148029848845
 22
170.03390929611069
 32
0.0
 13
548.49148029848845
 23
170.03390929611069
 33
0.0
210
0.0
220
0.0
230
1.0
  0
SOLID
  5
4F8
  8
0
  6
CONTINUOUS
 10
-543.61383900775047
 20
170.80645178204799
 30
0.0
 11
-548.61383900775047
 21
170.80645178204799
 31
0.0
 12
-548.49148029848845
 22
170.03390929611069
 32
0.0
 13
-548.49148029848845
 23
170.03390929611069
 33
0.0
210
0.0
220
0.0
230
-1.0
  0
SOLID
  5
4F9
  8
0
  6
CONTINUOUS
 10
543.73619771701271
 20
170.03390929611069
 30
0.0
 11
544.09129652181321
 21
169.33698865131689
 31
0.0
 12
548.13638149368785
 22
169.33698865131689
 32
0.0
 13
548.13638149368785
 23
169.33698865131689
 33
0.0
210
0.0
220
0.0
230
1.0
  0
SOLID
  5
4FA
  8
0
  6
CONTINUOUS
 10
-543.73619771701271
 20
170.03390929611069
 30
0.0
 11
-548.49148029848845
 21
170.03390929611069
 31
0.0
 12
-548.13638149368785
 22
169.33698865131689
 32
0.0
 13
-548.13638149368785
 23
169.33698865131689
 33
0.0
210
0.0
220
0.0
230
-1.0
  0
SOLID
  5
4FB
  8
0
  6
CONTINUOUS
 10
544.09129652181321
 20
169.33698865131689
 30
0.0
 11
544.64437587701946
 21
168.78390929611069
 31
0.0
 12
547.58330213848171
 22
168.78390929611069
 32
0.0
 13
547.58330213848171
 23
168.78390929611069
 33
0.0
210
0.0
220
0.0
230
1.0
  0
SOLID
  5
4FC
  8
0
  6
CONTINUOUS
 10
-544.09129652181321
 20
169.33698865131689
 30
0.0
 11
-548.13638149368785
 21
169.33698865131689
 31
0.0
 12
-547.58330213848171
 22
168.78390929611069
 32
0.0
 13
-547.58330213848171
 23
168.78390929611069
 33
0.0
210
0.0
220
0.0
230
-1.0
  0
SOLID
  5
4FD
  8
0
  6
CONTINUOUS
 10
-545.34129652181321
 20
168.4288104913102
 30
0.0
 11
-546.88638149368785
 21
168.4288104913102
 31
0.0
 12
-546.11383900775058
 22
168.3064517820481
 32
0.0
 13
-546.11383900775058
 23
168.3064517820481
 33
0.0
210
0.0
220
0.0
230
-1.0
  0
SOLID
  5
4FE
  8
0
  6
CONTINUOUS
 10
544.64437587701946
 20
168.78390929611069
 30
0.0
 11
545.34129652181321
 21
168.4288104913102
 31
0.0
 12
546.88638149368785
 22
168.4288104913102
 32
0.0
 13
546.88638149368785
 23
168.4288104913102
 33
0.0
210
0.0
220
0.0
230
1.0
  0
SOLID
  5
4FF
  8
0
  6
CONTINUOUS
 10
-544.64437587701946
 20
168.78390929611069
 30
0.0
 11
-547.58330213848171
 21
168.78390929611069
 31
0.0
 12
-546.88638149368785
 22
168.4288104913102
 32
0.0
 13
-546.88638149368785
 23
168.4288104913102
 33
0.0
210
0.0
220
0.0
230
-1.0
  0
LINE
  5
500
  8
0
  6
CONTINUOUS
 10
546.11383900775058
 20
173.30645178204799
 30
0.0
 11
545.34129652181321
 21
173.18409307278591
 31
0.0
  0
LINE
  5
501
  8
0
  6
CONTINUOUS
 10
546.88638149368785
 20
173.18409307278591
 30
0.0
 11
546.11383900775058
 21
173.30645178204799
 31
0.0
  0
LINE
  5
502
  8
0
  6
CONTINUOUS
 10
545.34129652181321
 20
173.18409307278591
 30
0.0
 11
544.64437587701946
 21
172.82899426798539
 31
0.0
  0
LINE
  5
503
  8
0
  6
CONTINUOUS
 10
546.88638149368785
 20
173.18409307278591
 30
0.0
 11
547.58330213848171
 21
172.82899426798539
 31
0.0
  0
LINE
  5
504
  8
0
  6
CONTINUOUS
 10
544.64437587701946
 20
172.82899426798539
 30
0.0
 11
544.09129652181321
 21
172.2759149127792
 31
0.0
  0
LINE
  5
505
  8
0
  6
CONTINUOUS
 10
547.58330213848171
 20
172.82899426798539
 30
0.0
 11
548.13638149368785
 21
172.2759149127792
 31
0.0
  0
LINE
  5
506
  8
0
  6
CONTINUOUS
 10
544.09129652181321
 20
172.2759149127792
 30
0.0
 11
543.73619771701271
 21
171.57899426798539
 31
0.0
  0
LINE
  5
507
  8
0
  6
CONTINUOUS
 10
548.13638149368785
 20
172.2759149127792
 30
0.0
 11
548.49148029848845
 21
171.57899426798539
 31
0.0
  0
LINE
  5
508
  8
0
  6
CONTINUOUS
 10
543.73619771701271
 20
171.57899426798539
 30
0.0
 11
543.61383900775047
 21
170.80645178204799
 31
0.0
  0
LINE
  5
509
  8
0
  6
CONTINUOUS
 10
548.49148029848845
 20
171.57899426798539
 30
0.0
 11
548.61383900775047
 21
170.80645178204799
 31
0.0
  0
LINE
  5
50A
  8
0
  6
CONTINUOUS
 10
543.61383900775047
 20
170.80645178204799
 30
0.0
 11
543.73619771701271
 21
170.03390929611069
 31
0.0
  0
LINE
  5
50B
  8
0
  6
CONTINUOUS
 10
548.61383900775047
 20
170.80645178204799
 30
0.0
 11
548.49148029848845
 21
170.03390929611069
 31
0.0
  0
LINE
  5
50C
  8
0
  6
CONTINUOUS
 10
543.73619771701271
 20
170.03390929611069
 30
0.0
 11
544.09129652181321
 21
169.33698865131689
 31
0.0
  0
LINE
  5
50D
  8
0
  6
CONTINUOUS
 10
548.49148029848845
 20
170.03390929611069
 30
0.0
 11
548.13638149368785
 21
169.33698865131689
 31
0.0
  0
LINE
  5
50E
  8
0
  6
CONTINUOUS
 10
544.09129652181321
 20
169.33698865131689
 30
0.0
 11
544.64437587701946
 21
168.78390929611069
 31
0.0
  0
LINE
  5
50F
  8
0
  6
CONTINUOUS
 10
548.13638149368785
 20
169.33698865131689
 30
0.0
 11
547.58330213848171
 21
168.78390929611069
 31
0.0
  0
LINE
  5
510
  8
0
  6
CONTINUOUS
 10
546.88638149368785
 20
168.4288104913102
 30
0.0
 11
546.11383900775058
 21
168.3064517820481
 31
0.0
  0
LINE
  5
511
  8
0
  6
CONTINUOUS
 10
546.11383900775058
 20
168.3064517820481
 30
0.0
 11
545.34129652181321
 21
168.4288104913102
 31
0.0
  0
LINE
  5
512
  8
0
  6
CONTINUOUS
 10
544.64437587701946
 20
168.78390929611069
 30
0.0
 11
545.34129652181321
 21
168.4288104913102
 31
0.0
  0
LINE
  5
513
  8
0
  6
CONTINUOUS
 10
547.58330213848171
 20
168.78390929611069
 30
0.0
 11
546.88638149368785
 21
168.4288104913102
 31
0.0
  0
ENDBLK
  5
515
  8
0
  0
BLOCK
  8
0
  2
*U27
 70
     1
 10
0.0
 20
0.0
 30
0.0
  3
*U27
  1

  0
TEXT
  5
517
  8
0
 10
646.65737735385221
 20
305.51912185226411
 30
0.0
 40
12.5
  1
Barge flashing minimum
  7
ARIAL
  0
TEXT
  5
518
  8
0
 10
647.25423956394775
 20
285.89874877616847
 30
0.0
 40
12.5
  1
cover over turn up 25mm at
  7
ARIAL
  0
TEXT
  5
519
  8
0
 10
647.30539918195586
 20
266.2783757000729
 30
0.0
 40
12.5
  1
any point
  7
ARIAL
  0
ENDBLK
  5
51B
  8
0
  0
BLOCK
  8
0
  2
*U28
 70
     1
 10
0.0
 20
0.0
 30
0.0
  3
*U28
  1

  0
SOLID
  5
51D
  8
0
  6
CONTINUOUS
 10
-122.2911784494875
 20
25.15663519117313
 30
0.0
 11
-123.0637209354249
 21
25.034276481911011
 31
0.0
 12
-121.5186359635501
 22
25.034276481911011
 32
0.0
 13
-121.5186359635501
 23
25.034276481911011
 33
0.0
210
0.0
220
0.0
230
1.0
  0
SOLID
  5
51E
  8
0
  6
CONTINUOUS
 10
-123.0637209354249
 20
25.034276481911011
 30
0.0
 11
-123.7606415802186
 21
24.679177677110498
 31
0.0
 12
-120.8217153187563
 22
24.679177677110498
 32
0.0
 13
-120.8217153187563
 23
24.679177677110498
 33
0.0
210
0.0
220
0.0
230
1.0
  0
SOLID
  5
51F
  8
0
  6
CONTINUOUS
 10
123.0637209354249
 20
25.034276481911011
 30
0.0
 11
121.5186359635501
 21
25.034276481911011
 31
0.0
 12
120.8217153187563
 22
24.679177677110498
 32
0.0
 13
120.8217153187563
 23
24.679177677110498
 33
0.0
210
0.0
220
0.0
230
-1.0
  0
SOLID
  5
520
  8
0
  6
CONTINUOUS
 10
-123.7606415802186
 20
24.679177677110498
 30
0.0
 11
-124.3137209354248
 21
24.126098321904308
 31
0.0
 12
-120.2686359635501
 22
24.126098321904308
 32
0.0
 13
-120.2686359635501
 23
24.126098321904308
 33
0.0
210
0.0
220
0.0
230
1.0
  0
SOLID
  5
521
  8
0
  6
CONTINUOUS
 10
123.7606415802186
 20
24.679177677110498
 30
0.0
 11
120.8217153187563
 21
24.679177677110498
 31
0.0
 12
120.2686359635501
 22
24.126098321904308
 32
0.0
 13
120.2686359635501
 23
24.126098321904308
 33
0.0
210
0.0
220
0.0
230
-1.0
  0
SOLID
  5
522
  8
0
  6
CONTINUOUS
 10
-124.3137209354248
 20
24.126098321904308
 30
0.0
 11
-124.6688197402254
 21
23.429177677110491
 31
0.0
 12
-119.91353715874961
 22
23.429177677110491
 32
0.0
 13
-119.91353715874961
 23
23.429177677110491
 33
0.0
  0
SOLID
  5
523
  8
0
  6
CONTINUOUS
 10
124.3137209354248
 20
24.126098321904308
 30
0.0
 11
120.2686359635501
 21
24.126098321904308
 31
0.0
 12
119.91353715874961
 22
23.429177677110491
 32
0.0
 13
119.91353715874961
 23
23.429177677110491
 33
0.0
210
0.0
220
0.0
230
-1.0
  0
SOLID
  5
524
  8
0
  6
CONTINUOUS
 10
-124.6688197402254
 20
23.429177677110491
 30
0.0
 11
-124.7911784494875
 21
22.65663519117312
 31
0.0
 12
-119.7911784494875
 22
22.65663519117312
 32
0.0
 13
-119.7911784494875
 23
22.65663519117312
 33
0.0
210
0.0
220
0.0
230
1.0
  0
SOLID
  5
525
  8
0
  6
CONTINUOUS
 10
124.6688197402254
 20
23.429177677110491
 30
0.0
 11
119.91353715874961
 21
23.429177677110491
 31
0.0
 12
119.7911784494875
 22
22.65663519117312
 32
0.0
 13
119.7911784494875
 23
22.65663519117312
 33
0.0
210
0.0
220
0.0
230
-1.0
  0
SOLID
  5
526
  8
0
  6
CONTINUOUS
 10
-124.7911784494875
 20
22.65663519117312
 30
0.0
 11
-124.6688197402254
 21
21.884092705235751
 31
0.0
 12
-119.91353715874961
 22
21.884092705235751
 32
0.0
 13
-119.91353715874961
 23
21.884092705235751
 33
0.0
210
0.0
220
0.0
230
1.0
  0
SOLID
  5
527
  8
0
  6
CONTINUOUS
 10
124.7911784494875
 20
22.65663519117312
 30
0.0
 11
119.7911784494875
 21
22.65663519117312
 31
0.0
 12
119.91353715874961
 22
21.884092705235751
 32
0.0
 13
119.91353715874961
 23
21.884092705235751
 33
0.0
210
0.0
220
0.0
230
-1.0
  0
SOLID
  5
528
  8
0
  6
CONTINUOUS
 10
-124.6688197402254
 20
21.884092705235751
 30
0.0
 11
-124.3137209354248
 21
21.187172060441931
 31
0.0
 12
-120.2686359635501
 22
21.187172060441931
 32
0.0
 13
-120.2686359635501
 23
21.187172060441931
 33
0.0
210
0.0
220
0.0
230
1.0
  0
SOLID
  5
529
  8
0
  6
CONTINUOUS
 10
124.6688197402254
 20
21.884092705235751
 30
0.0
 11
119.91353715874961
 21
21.884092705235751
 31
0.0
 12
120.2686359635501
 22
21.187172060441931
 32
0.0
 13
120.2686359635501
 23
21.187172060441931
 33
0.0
210
0.0
220
0.0
230
-1.0
  0
SOLID
  5
52A
  8
0
  6
CONTINUOUS
 10
-124.3137209354248
 20
21.187172060441931
 30
0.0
 11
-123.7606415802186
 21
20.634092705235741
 31
0.0
 12
-120.8217153187563
 22
20.634092705235741
 32
0.0
 13
-120.8217153187563
 23
20.634092705235741
 33
0.0
210
0.0
220
0.0
230
1.0
  0
SOLID
  5
52B
  8
0
  6
CONTINUOUS
 10
124.3137209354248
 20
21.187172060441931
 30
0.0
 11
120.2686359635501
 21
21.187172060441931
 31
0.0
 12
120.8217153187563
 22
20.634092705235741
 32
0.0
 13
120.8217153187563
 23
20.634092705235741
 33
0.0
210
0.0
220
0.0
230
-1.0
  0
SOLID
  5
52C
  8
0
  6
CONTINUOUS
 10
123.0637209354249
 20
20.278993900435221
 30
0.0
 11
121.5186359635501
 21
20.278993900435221
 31
0.0
 12
122.2911784494875
 22
20.156635191173098
 32
0.0
 13
122.2911784494875
 23
20.156635191173098
 33
0.0
210
0.0
220
0.0
230
-1.0
  0
SOLID
  5
52D
  8
0
  6
CONTINUOUS
 10
-123.7606415802186
 20
20.634092705235741
 30
0.0
 11
-123.0637209354249
 21
20.278993900435221
 31
0.0
 12
-121.5186359635501
 22
20.278993900435221
 32
0.0
 13
-121.5186359635501
 23
20.278993900435221
 33
0.0
  0
SOLID
  5
52E
  8
0
  6
CONTINUOUS
 10
123.7606415802186
 20
20.634092705235741
 30
0.0
 11
120.8217153187563
 21
20.634092705235741
 31
0.0
 12
121.5186359635501
 22
20.278993900435221
 32
0.0
 13
121.5186359635501
 23
20.278993900435221
 33
0.0
210
0.0
220
0.0
230
-1.0
  0
LINE
  5
52F
  8
0
  6
CONTINUOUS
 10
-122.2911784494875
 20
25.15663519117313
 30
0.0
 11
-123.0637209354249
 21
25.034276481911011
 31
0.0
  0
LINE
  5
530
  8
0
  6
CONTINUOUS
 10
-121.5186359635501
 20
25.034276481911011
 30
0.0
 11
-122.2911784494875
 21
25.15663519117313
 31
0.0
  0
LINE
  5
531
  8
0
  6
CONTINUOUS
 10
-123.0637209354249
 20
25.034276481911011
 30
0.0
 11
-123.7606415802186
 21
24.679177677110498
 31
0.0
  0
LINE
  5
532
  8
0
  6
CONTINUOUS
 10
-121.5186359635501
 20
25.034276481911011
 30
0.0
 11
-120.8217153187563
 21
24.679177677110498
 31
0.0
  0
LINE
  5
533
  8
0
  6
CONTINUOUS
 10
-123.7606415802186
 20
24.679177677110498
 30
0.0
 11
-124.3137209354248
 21
24.126098321904308
 31
0.0
  0
LINE
  5
534
  8
0
  6
CONTINUOUS
 10
-120.8217153187563
 20
24.679177677110498
 30
0.0
 11
-120.2686359635501
 21
24.126098321904308
 31
0.0
  0
LINE
  5
535
  8
0
  6
CONTINUOUS
 10
-124.3137209354248
 20
24.126098321904308
 30
0.0
 11
-124.6688197402254
 21
23.429177677110491
 31
0.0
  0
LINE
  5
536
  8
0
  6
CONTINUOUS
 10
-120.2686359635501
 20
24.126098321904308
 30
0.0
 11
-119.91353715874961
 21
23.429177677110491
 31
0.0
  0
LINE
  5
537
  8
0
  6
CONTINUOUS
 10
-124.6688197402254
 20
23.429177677110491
 30
0.0
 11
-124.7911784494875
 21
22.65663519117312
 31
0.0
  0
LINE
  5
538
  8
0
  6
CONTINUOUS
 10
-119.91353715874961
 20
23.429177677110491
 30
0.0
 11
-119.7911784494875
 21
22.65663519117312
 31
0.0
  0
LINE
  5
539
  8
0
  6
CONTINUOUS
 10
-124.7911784494875
 20
22.65663519117312
 30
0.0
 11
-124.6688197402254
 21
21.884092705235751
 31
0.0
  0
LINE
  5
53A
  8
0
  6
CONTINUOUS
 10
-119.7911784494875
 20
22.65663519117312
 30
0.0
 11
-119.91353715874961
 21
21.884092705235751
 31
0.0
  0
LINE
  5
53B
  8
0
  6
CONTINUOUS
 10
-124.6688197402254
 20
21.884092705235751
 30
0.0
 11
-124.3137209354248
 21
21.187172060441931
 31
0.0
  0
LINE
  5
53C
  8
0
  6
CONTINUOUS
 10
-119.91353715874961
 20
21.884092705235751
 30
0.0
 11
-120.2686359635501
 21
21.187172060441931
 31
0.0
  0
LINE
  5
53D
  8
0
  6
CONTINUOUS
 10
-124.3137209354248
 20
21.187172060441931
 30
0.0
 11
-123.7606415802186
 21
20.634092705235741
 31
0.0
  0
LINE
  5
53E
  8
0
  6
CONTINUOUS
 10
-120.2686359635501
 20
21.187172060441931
 30
0.0
 11
-120.8217153187563
 21
20.634092705235741
 31
0.0
  0
LINE
  5
53F
  8
0
  6
CONTINUOUS
 10
-121.5186359635501
 20
20.278993900435221
 30
0.0
 11
-122.2911784494875
 21
20.156635191173098
 31
0.0
  0
LINE
  5
540
  8
0
  6
CONTINUOUS
 10
-122.2911784494875
 20
20.156635191173098
 30
0.0
 11
-123.0637209354249
 21
20.278993900435221
 31
0.0
  0
LINE
  5
541
  8
0
  6
CONTINUOUS
 10
-123.7606415802186
 20
20.634092705235741
 30
0.0
 11
-123.0637209354249
 21
20.278993900435221
 31
0.0
  0
LINE
  5
542
  8
0
  6
CONTINUOUS
 10
-120.8217153187563
 20
20.634092705235741
 30
0.0
 11
-121.5186359635501
 21
20.278993900435221
 31
0.0
  0
ENDBLK
  5
544
  8
0
  0
BLOCK
  8
0
  2
*U29
 70
     1
 10
0.0
 20
0.0
 30
0.0
  3
*U29
  1

  0
TEXT
  5
546
  8
0
 10
-366.35296276659773
 20
16.868625133724919
 30
0.0
 40
12.5
  1
Outrigger
  7
ARIAL
  0
ENDBLK
  5
548
  8
0
  0
BLOCK
  8
0
  2
*U30
 70
     1
 10
0.0
 20
0.0
 30
0.0
  3
*U30
  1

  0
SOLID
  5
54A
  8
0
  6
CONTINUOUS
 10
475.4287047401358
 20
20.513544642077608
 30
0.0
 11
474.65616225419831
 21
20.391185932815489
 31
0.0
 12
476.20124722607318
 22
20.391185932815489
 32
0.0
 13
476.20124722607318
 23
20.391185932815489
 33
0.0
210
0.0
220
0.0
230
1.0
  0
SOLID
  5
54B
  8
0
  6
CONTINUOUS
 10
474.65616225419831
 20
20.391185932815489
 30
0.0
 11
473.95924160940461
 21
20.03608712801498
 31
0.0
 12
476.89816787086693
 22
20.03608712801498
 32
0.0
 13
476.89816787086693
 23
20.03608712801498
 33
0.0
210
0.0
220
0.0
230
1.0
  0
SOLID
  5
54C
  8
0
  6
CONTINUOUS
 10
-474.65616225419831
 20
20.391185932815489
 30
0.0
 11
-476.20124722607318
 21
20.391185932815489
 31
0.0
 12
-476.89816787086693
 22
20.03608712801498
 32
0.0
 13
-476.89816787086693
 23
20.03608712801498
 33
0.0
210
0.0
220
0.0
230
-1.0
  0
SOLID
  5
54D
  8
0
  6
CONTINUOUS
 10
473.95924160940461
 20
20.03608712801498
 30
0.0
 11
473.40616225419842
 21
19.48300777280879
 31
0.0
 12
477.45124722607312
 22
19.48300777280879
 32
0.0
 13
477.45124722607312
 23
19.48300777280879
 33
0.0
  0
SOLID
  5
54E
  8
0
  6
CONTINUOUS
 10
-473.95924160940461
 20
20.03608712801498
 30
0.0
 11
-476.89816787086693
 21
20.03608712801498
 31
0.0
 12
-477.45124722607312
 22
19.48300777280879
 32
0.0
 13
-477.45124722607312
 23
19.48300777280879
 33
0.0
210
0.0
220
0.0
230
-1.0
  0
SOLID
  5
54F
  8
0
  6
CONTINUOUS
 10
473.40616225419842
 20
19.48300777280879
 30
0.0
 11
473.05106344939787
 21
18.786087128014969
 31
0.0
 12
477.80634603087361
 22
18.786087128014969
 32
0.0
 13
477.80634603087361
 23
18.786087128014969
 33
0.0
  0
SOLID
  5
550
  8
0
  6
CONTINUOUS
 10
-473.40616225419842
 20
19.48300777280879
 30
0.0
 11
-477.45124722607312
 21
19.48300777280879
 31
0.0
 12
-477.80634603087361
 22
18.786087128014969
 32
0.0
 13
-477.80634603087361
 23
18.786087128014969
 33
0.0
210
0.0
220
0.0
230
-1.0
  0
SOLID
  5
551
  8
0
  6
CONTINUOUS
 10
473.05106344939787
 20
18.786087128014969
 30
0.0
 11
472.92870474013569
 21
18.013544642077601
 31
0.0
 12
477.9287047401358
 22
18.013544642077601
 32
0.0
 13
477.9287047401358
 23
18.013544642077601
 33
0.0
210
0.0
220
0.0
230
1.0
  0
SOLID
  5
552
  8
0
  6
CONTINUOUS
 10
-473.05106344939787
 20
18.786087128014969
 30
0.0
 11
-477.80634603087361
 21
18.786087128014969
 31
0.0
 12
-477.9287047401358
 22
18.013544642077601
 32
0.0
 13
-477.9287047401358
 23
18.013544642077601
 33
0.0
210
0.0
220
0.0
230
-1.0
  0
SOLID
  5
553
  8
0
  6
CONTINUOUS
 10
472.92870474013569
 20
18.013544642077601
 30
0.0
 11
473.05106344939787
 21
17.241002156140219
 31
0.0
 12
477.80634603087361
 22
17.241002156140219
 32
0.0
 13
477.80634603087361
 23
17.241002156140219
 33
0.0
210
0.0
220
0.0
230
1.0
  0
SOLID
  5
554
  8
0
  6
CONTINUOUS
 10
-472.92870474013569
 20
18.013544642077601
 30
0.0
 11
-477.9287047401358
 21
18.013544642077601
 31
0.0
 12
-477.80634603087361
 22
17.241002156140219
 32
0.0
 13
-477.80634603087361
 23
17.241002156140219
 33
0.0
210
0.0
220
0.0
230
-1.0
  0
SOLID
  5
555
  8
0
  6
CONTINUOUS
 10
473.05106344939787
 20
17.241002156140219
 30
0.0
 11
473.40616225419842
 21
16.544081511346409
 31
0.0
 12
477.45124722607312
 22
16.544081511346409
 32
0.0
 13
477.45124722607312
 23
16.544081511346409
 33
0.0
210
0.0
220
0.0
230
1.0
  0
SOLID
  5
556
  8
0
  6
CONTINUOUS
 10
-473.05106344939787
 20
17.241002156140219
 30
0.0
 11
-477.80634603087361
 21
17.241002156140219
 31
0.0
 12
-477.45124722607312
 22
16.544081511346409
 32
0.0
 13
-477.45124722607312
 23
16.544081511346409
 33
0.0
210
0.0
220
0.0
230
-1.0
  0
SOLID
  5
557
  8
0
  6
CONTINUOUS
 10
473.40616225419842
 20
16.544081511346409
 30
0.0
 11
473.95924160940461
 21
15.991002156140221
 31
0.0
 12
476.89816787086693
 22
15.991002156140221
 32
0.0
 13
476.89816787086693
 23
15.991002156140221
 33
0.0
210
0.0
220
0.0
230
1.0
  0
SOLID
  5
558
  8
0
  6
CONTINUOUS
 10
-473.40616225419842
 20
16.544081511346409
 30
0.0
 11
-477.45124722607312
 21
16.544081511346409
 31
0.0
 12
-476.89816787086693
 22
15.991002156140221
 32
0.0
 13
-476.89816787086693
 23
15.991002156140221
 33
0.0
210
0.0
220
0.0
230
-1.0
  0
SOLID
  5
559
  8
0
  6
CONTINUOUS
 10
-474.65616225419831
 20
15.635903351339699
 30
0.0
 11
-476.20124722607318
 21
15.635903351339699
 31
0.0
 12
-475.4287047401358
 22
15.513544642077591
 32
0.0
 13
-475.4287047401358
 23
15.513544642077591
 33
0.0
210
0.0
220
0.0
230
-1.0
  0
SOLID
  5
55A
  8
0
  6
CONTINUOUS
 10
473.95924160940461
 20
15.991002156140221
 30
0.0
 11
474.65616225419831
 21
15.635903351339699
 31
0.0
 12
476.20124722607318
 22
15.635903351339699
 32
0.0
 13
476.20124722607318
 23
15.635903351339699
 33
0.0
210
0.0
220
0.0
230
1.0
  0
SOLID
  5
55B
  8
0
  6
CONTINUOUS
 10
-473.95924160940461
 20
15.991002156140221
 30
0.0
 11
-476.89816787086693
 21
15.991002156140221
 31
0.0
 12
-476.20124722607318
 22
15.635903351339699
 32
0.0
 13
-476.20124722607318
 23
15.635903351339699
 33
0.0
210
0.0
220
0.0
230
-1.0
  0
LINE
  5
55C
  8
0
  6
CONTINUOUS
 10
475.4287047401358
 20
20.513544642077608
 30
0.0
 11
474.65616225419831
 21
20.391185932815489
 31
0.0
  0
LINE
  5
55D
  8
0
  6
CONTINUOUS
 10
476.20124722607318
 20
20.391185932815489
 30
0.0
 11
475.4287047401358
 21
20.513544642077608
 31
0.0
  0
LINE
  5
55E
  8
0
  6
CONTINUOUS
 10
474.65616225419831
 20
20.391185932815489
 30
0.0
 11
473.95924160940461
 21
20.03608712801498
 31
0.0
  0
LINE
  5
55F
  8
0
  6
CONTINUOUS
 10
476.20124722607318
 20
20.391185932815489
 30
0.0
 11
476.89816787086693
 21
20.03608712801498
 31
0.0
  0
LINE
  5
560
  8
0
  6
CONTINUOUS
 10
473.95924160940461
 20
20.03608712801498
 30
0.0
 11
473.40616225419842
 21
19.48300777280879
 31
0.0
  0
LINE
  5
561
  8
0
  6
CONTINUOUS
 10
476.89816787086693
 20
20.03608712801498
 30
0.0
 11
477.45124722607312
 21
19.48300777280879
 31
0.0
  0
LINE
  5
562
  8
0
  6
CONTINUOUS
 10
473.40616225419842
 20
19.48300777280879
 30
0.0
 11
473.05106344939787
 21
18.786087128014969
 31
0.0
  0
LINE
  5
563
  8
0
  6
CONTINUOUS
 10
477.45124722607312
 20
19.48300777280879
 30
0.0
 11
477.80634603087361
 21
18.786087128014969
 31
0.0
  0
LINE
  5
564
  8
0
  6
CONTINUOUS
 10
473.05106344939787
 20
18.786087128014969
 30
0.0
 11
472.92870474013569
 21
18.013544642077601
 31
0.0
  0
LINE
  5
565
  8
0
  6
CONTINUOUS
 10
477.80634603087361
 20
18.786087128014969
 30
0.0
 11
477.9287047401358
 21
18.013544642077601
 31
0.0
  0
LINE
  5
566
  8
0
  6
CONTINUOUS
 10
472.92870474013569
 20
18.013544642077601
 30
0.0
 11
473.05106344939787
 21
17.241002156140219
 31
0.0
  0
LINE
  5
567
  8
0
  6
CONTINUOUS
 10
477.9287047401358
 20
18.013544642077601
 30
0.0
 11
477.80634603087361
 21
17.241002156140219
 31
0.0
  0
LINE
  5
568
  8
0
  6
CONTINUOUS
 10
473.05106344939787
 20
17.241002156140219
 30
0.0
 11
473.40616225419842
 21
16.544081511346409
 31
0.0
  0
LINE
  5
569
  8
0
  6
CONTINUOUS
 10
477.80634603087361
 20
17.241002156140219
 30
0.0
 11
477.45124722607312
 21
16.544081511346409
 31
0.0
  0
LINE
  5
56A
  8
0
  6
CONTINUOUS
 10
473.40616225419842
 20
16.544081511346409
 30
0.0
 11
473.95924160940461
 21
15.991002156140221
 31
0.0
  0
LINE
  5
56B
  8
0
  6
CONTINUOUS
 10
477.45124722607312
 20
16.544081511346409
 30
0.0
 11
476.89816787086693
 21
15.991002156140221
 31
0.0
  0
LINE
  5
56C
  8
0
  6
CONTINUOUS
 10
476.20124722607318
 20
15.635903351339699
 30
0.0
 11
475.4287047401358
 21
15.513544642077591
 31
0.0
  0
LINE
  5
56D
  8
0
  6
CONTINUOUS
 10
475.4287047401358
 20
15.513544642077591
 30
0.0
 11
474.65616225419831
 21
15.635903351339699
 31
0.0
  0
LINE
  5
56E
  8
0
  6
CONTINUOUS
 10
473.95924160940461
 20
15.991002156140221
 30
0.0
 11
474.65616225419831
 21
15.635903351339699
 31
0.0
  0
LINE
  5
56F
  8
0
  6
CONTINUOUS
 10
476.89816787086693
 20
15.991002156140221
 30
0.0
 11
476.20124722607318
 21
15.635903351339699
 31
0.0
  0
ENDBLK
  5
571
  8
0
  0
BLOCK
  8
0
  2
*U31
 70
     1
 10
0.0
 20
0.0
 30
0.0
  3
*U31
  1

  0
TEXT
  5
573
  8
0
 10
646.50389849982764
 20
-72.444754334017134
 30
0.0
 40
12.5
  1
Flying Rafter
  7
ARIAL
  0
ENDBLK
  5
575
  8
0
  0
BLOCK
  8
0
  2
*U32
 70
     1
 10
0.0
 20
0.0
 30
0.0
  3
*U32
  1

  0
SOLID
  5
577
  8
0
  6
CONTINUOUS
 10
-121.8430827326212
 20
105.5366598742627
 30
0.0
 11
-122.61562521855851
 21
105.41430116500059
 31
0.0
 12
-121.07054024668381
 22
105.41430116500059
 32
0.0
 13
-121.07054024668381
 23
105.41430116500059
 33
0.0
210
0.0
220
0.0
230
1.0
  0
SOLID
  5
578
  8
0
  6
CONTINUOUS
 10
-122.61562521855851
 20
105.41430116500059
 30
0.0
 11
-123.3125458633523
 21
105.0592023602001
 31
0.0
 12
-120.37361960189
 22
105.0592023602001
 32
0.0
 13
-120.37361960189
 23
105.0592023602001
 33
0.0
210
0.0
220
0.0
230
1.0
  0
SOLID
  5
579
  8
0
  6
CONTINUOUS
 10
122.61562521855851
 20
105.41430116500059
 30
0.0
 11
121.07054024668381
 21
105.41430116500059
 31
0.0
 12
120.37361960189
 22
105.0592023602001
 32
0.0
 13
120.37361960189
 23
105.0592023602001
 33
0.0
210
0.0
220
0.0
230
-1.0
  0
SOLID
  5
57A
  8
0
  6
CONTINUOUS
 10
-123.3125458633523
 20
105.0592023602001
 30
0.0
 11
-123.86562521855851
 21
104.5061230049939
 31
0.0
 12
-119.82054024668381
 22
104.5061230049939
 32
0.0
 13
-119.82054024668381
 23
104.5061230049939
 33
0.0
210
0.0
220
0.0
230
1.0
  0
SOLID
  5
57B
  8
0
  6
CONTINUOUS
 10
123.3125458633523
 20
105.0592023602001
 30
0.0
 11
120.37361960189
 21
105.0592023602001
 31
0.0
 12
119.82054024668381
 22
104.5061230049939
 32
0.0
 13
119.82054024668381
 23
104.5061230049939
 33
0.0
210
0.0
220
0.0
230
-1.0
  0
SOLID
  5
57C
  8
0
  6
CONTINUOUS
 10
-123.86562521855851
 20
104.5061230049939
 30
0.0
 11
-124.220724023359
 21
103.8092023602001
 31
0.0
 12
-119.4654414418833
 22
103.8092023602001
 32
0.0
 13
-119.4654414418833
 23
103.8092023602001
 33
0.0
210
0.0
220
0.0
230
1.0
  0
SOLID
  5
57D
  8
0
  6
CONTINUOUS
 10
123.86562521855851
 20
104.5061230049939
 30
0.0
 11
119.82054024668381
 21
104.5061230049939
 31
0.0
 12
119.4654414418833
 22
103.8092023602001
 32
0.0
 13
119.4654414418833
 23
103.8092023602001
 33
0.0
210
0.0
220
0.0
230
-1.0
  0
SOLID
  5
57E
  8
0
  6
CONTINUOUS
 10
-124.220724023359
 20
103.8092023602001
 30
0.0
 11
-124.3430827326212
 21
103.0366598742627
 31
0.0
 12
-119.3430827326212
 22
103.0366598742627
 32
0.0
 13
-119.3430827326212
 23
103.0366598742627
 33
0.0
210
0.0
220
0.0
230
1.0
  0
SOLID
  5
57F
  8
0
  6
CONTINUOUS
 10
124.220724023359
 20
103.8092023602001
 30
0.0
 11
119.4654414418833
 21
103.8092023602001
 31
0.0
 12
119.3430827326212
 22
103.0366598742627
 32
0.0
 13
119.3430827326212
 23
103.0366598742627
 33
0.0
210
0.0
220
0.0
230
-1.0
  0
SOLID
  5
580
  8
0
  6
CONTINUOUS
 10
-124.3430827326212
 20
103.0366598742627
 30
0.0
 11
-124.220724023359
 21
102.2641173883253
 31
0.0
 12
-119.4654414418833
 22
102.2641173883253
 32
0.0
 13
-119.4654414418833
 23
102.2641173883253
 33
0.0
  0
SOLID
  5
581
  8
0
  6
CONTINUOUS
 10
124.3430827326212
 20
103.0366598742627
 30
0.0
 11
119.3430827326212
 21
103.0366598742627
 31
0.0
 12
119.4654414418833
 22
102.2641173883253
 32
0.0
 13
119.4654414418833
 23
102.2641173883253
 33
0.0
210
0.0
220
0.0
230
-1.0
  0
SOLID
  5
582
  8
0
  6
CONTINUOUS
 10
-124.220724023359
 20
102.2641173883253
 30
0.0
 11
-123.86562521855851
 21
101.5671967435315
 31
0.0
 12
-119.82054024668381
 22
101.5671967435315
 32
0.0
 13
-119.82054024668381
 23
101.5671967435315
 33
0.0
210
0.0
220
0.0
230
1.0
  0
SOLID
  5
583
  8
0
  6
CONTINUOUS
 10
124.220724023359
 20
102.2641173883253
 30
0.0
 11
119.4654414418833
 21
102.2641173883253
 31
0.0
 12
119.82054024668381
 22
101.5671967435315
 32
0.0
 13
119.82054024668381
 23
101.5671967435315
 33
0.0
210
0.0
220
0.0
230
-1.0
  0
SOLID
  5
584
  8
0
  6
CONTINUOUS
 10
-123.86562521855851
 20
101.5671967435315
 30
0.0
 11
-123.3125458633523
 21
101.0141173883253
 31
0.0
 12
-120.37361960189
 22
101.0141173883253
 32
0.0
 13
-120.37361960189
 23
101.0141173883253
 33
0.0
210
0.0
220
0.0
230
1.0
  0
SOLID
  5
585
  8
0
  6
CONTINUOUS
 10
123.86562521855851
 20
101.5671967435315
 30
0.0
 11
119.82054024668381
 21
101.5671967435315
 31
0.0
 12
120.37361960189
 22
101.0141173883253
 32
0.0
 13
120.37361960189
 23
101.0141173883253
 33
0.0
210
0.0
220
0.0
230
-1.0
  0
SOLID
  5
586
  8
0
  6
CONTINUOUS
 10
122.61562521855851
 20
100.6590185835248
 30
0.0
 11
121.07054024668381
 21
100.6590185835248
 31
0.0
 12
121.8430827326212
 22
100.5366598742627
 32
0.0
 13
121.8430827326212
 23
100.5366598742627
 33
0.0
210
0.0
220
0.0
230
-1.0
  0
SOLID
  5
587
  8
0
  6
CONTINUOUS
 10
-123.3125458633523
 20
101.0141173883253
 30
0.0
 11
-122.61562521855851
 21
100.6590185835248
 31
0.0
 12
-121.07054024668381
 22
100.6590185835248
 32
0.0
 13
-121.07054024668381
 23
100.6590185835248
 33
0.0
210
0.0
220
0.0
230
1.0
  0
SOLID
  5
588
  8
0
  6
CONTINUOUS
 10
123.3125458633523
 20
101.0141173883253
 30
0.0
 11
120.37361960189
 21
101.0141173883253
 31
0.0
 12
121.07054024668381
 22
100.6590185835248
 32
0.0
 13
121.07054024668381
 23
100.6590185835248
 33
0.0
210
0.0
220
0.0
230
-1.0
  0
LINE
  5
589
  8
0
  6
CONTINUOUS
 10
-121.8430827326212
 20
105.5366598742627
 30
0.0
 11
-122.61562521855851
 21
105.41430116500059
 31
0.0
  0
LINE
  5
58A
  8
0
  6
CONTINUOUS
 10
-121.07054024668381
 20
105.41430116500059
 30
0.0
 11
-121.8430827326212
 21
105.5366598742627
 31
0.0
  0
LINE
  5
58B
  8
0
  6
CONTINUOUS
 10
-122.61562521855851
 20
105.41430116500059
 30
0.0
 11
-123.3125458633523
 21
105.0592023602001
 31
0.0
  0
LINE
  5
58C
  8
0
  6
CONTINUOUS
 10
-121.07054024668381
 20
105.41430116500059
 30
0.0
 11
-120.37361960189
 21
105.0592023602001
 31
0.0
  0
LINE
  5
58D
  8
0
  6
CONTINUOUS
 10
-123.3125458633523
 20
105.0592023602001
 30
0.0
 11
-123.86562521855851
 21
104.5061230049939
 31
0.0
  0
LINE
  5
58E
  8
0
  6
CONTINUOUS
 10
-120.37361960189
 20
105.0592023602001
 30
0.0
 11
-119.82054024668381
 21
104.5061230049939
 31
0.0
  0
LINE
  5
58F
  8
0
  6
CONTINUOUS
 10
-123.86562521855851
 20
104.5061230049939
 30
0.0
 11
-124.220724023359
 21
103.8092023602001
 31
0.0
  0
LINE
  5
590
  8
0
  6
CONTINUOUS
 10
-119.82054024668381
 20
104.5061230049939
 30
0.0
 11
-119.4654414418833
 21
103.8092023602001
 31
0.0
  0
LINE
  5
591
  8
0
  6
CONTINUOUS
 10
-124.220724023359
 20
103.8092023602001
 30
0.0
 11
-124.3430827326212
 21
103.0366598742627
 31
0.0
  0
LINE
  5
592
  8
0
  6
CONTINUOUS
 10
-119.4654414418833
 20
103.8092023602001
 30
0.0
 11
-119.3430827326212
 21
103.0366598742627
 31
0.0
  0
LINE
  5
593
  8
0
  6
CONTINUOUS
 10
-124.3430827326212
 20
103.0366598742627
 30
0.0
 11
-124.220724023359
 21
102.2641173883253
 31
0.0
  0
LINE
  5
594
  8
0
  6
CONTINUOUS
 10
-119.3430827326212
 20
103.0366598742627
 30
0.0
 11
-119.4654414418833
 21
102.2641173883253
 31
0.0
  0
LINE
  5
595
  8
0
  6
CONTINUOUS
 10
-124.220724023359
 20
102.2641173883253
 30
0.0
 11
-123.86562521855851
 21
101.5671967435315
 31
0.0
  0
LINE
  5
596
  8
0
  6
CONTINUOUS
 10
-119.4654414418833
 20
102.2641173883253
 30
0.0
 11
-119.82054024668381
 21
101.5671967435315
 31
0.0
  0
LINE
  5
597
  8
0
  6
CONTINUOUS
 10
-123.86562521855851
 20
101.5671967435315
 30
0.0
 11
-123.3125458633523
 21
101.0141173883253
 31
0.0
  0
LINE
  5
598
  8
0
  6
CONTINUOUS
 10
-119.82054024668381
 20
101.5671967435315
 30
0.0
 11
-120.37361960189
 21
101.0141173883253
 31
0.0
  0
LINE
  5
599
  8
0
  6
CONTINUOUS
 10
-121.07054024668381
 20
100.6590185835248
 30
0.0
 11
-121.8430827326212
 21
100.5366598742627
 31
0.0
  0
LINE
  5
59A
  8
0
  6
CONTINUOUS
 10
-121.8430827326212
 20
100.5366598742627
 30
0.0
 11
-122.61562521855851
 21
100.6590185835248
 31
0.0
  0
LINE
  5
59B
  8
0
  6
CONTINUOUS
 10
-123.3125458633523
 20
101.0141173883253
 30
0.0
 11
-122.61562521855851
 21
100.6590185835248
 31
0.0
  0
LINE
  5
59C
  8
0
  6
CONTINUOUS
 10
-120.37361960189
 20
101.0141173883253
 30
0.0
 11
-121.07054024668381
 21
100.6590185835248
 31
0.0
  0
ENDBLK
  5
59E
  8
0
  0
BLOCK
  8
0
  2
*U33
 70
     1
 10
0.0
 20
0.0
 30
0.0
  3
*U33
  1

  0
TEXT
  5
5A0
  8
0
 10
-366.88161215268218
 20
74.652068522837112
 30
0.0
 40
12.5
  1
Underlay
  7
ARIAL
  0
ENDBLK
  5
5A2
  8
0
  0
BLOCK
  8
0
  2
*X34
 70
     1
 10
0.0
 20
0.0
 30
0.0
  3
*X34
  1

  0
LINE
  5
5AE
  8
0
 62
     0
 10
30.3082411351715
 20
-210.0000281523962
 30
0.0
 11
50.308241135171443
 21
-210.0000281523962
 31
0.0
  0
LINE
  5
5AF
  8
0
 62
     0
 10
30.30824113517145
 20
-195.00002815239611
 30
0.0
 11
50.308241135171379
 21
-195.00002815239611
 31
0.0
  0
LINE
  5
5B0
  8
0
 62
     0
 10
30.308241135171389
 20
-180.00002815239611
 30
0.0
 11
50.308241135171343
 21
-180.00002815239611
 31
0.0
  0
LINE
  5
5B1
  8
0
 62
     0
 10
30.308241135171329
 20
-165.00002815239611
 30
0.0
 11
50.308241135171301
 21
-165.00002815239611
 31
0.0
  0
LINE
  5
5B2
  8
0
 62
     0
 10
30.308241135171269
 20
-150.00002815239611
 30
0.0
 11
50.308241135171258
 21
-150.00002815239611
 31
0.0
  0
LINE
  5
5B3
  8
0
 62
     0
 10
30.308241135171212
 20
-135.00002815239611
 30
0.0
 11
50.308241135171208
 21
-135.00002815239611
 31
0.0
  0
LINE
  5
5B4
  8
0
 62
     0
 10
30.308241135171158
 20
-120.0000281523961
 30
0.0
 11
50.308241135171173
 21
-120.0000281523961
 31
0.0
  0
LINE
  5
5B5
  8
0
 62
     0
 10
30.308241135171102
 20
-105.0000281523961
 30
0.0
 11
50.30824113517113
 21
-105.0000281523961
 31
0.0
  0
LINE
  5
5B6
  8
0
 62
     0
 10
30.308241135171041
 20
-90.000028152396141
 30
0.0
 11
50.308241135171087
 21
-90.000028152396141
 31
0.0
  0
LINE
  5
5B7
  8
0
 62
     0
 10
30.308241135170981
 20
-75.000028152396141
 30
0.0
 11
50.308241135171038
 21
-75.000028152396141
 31
0.0
  0
LINE
  5
5B8
  8
0
 62
     0
 10
30.308241135170931
 20
-60.000028152396141
 30
0.0
 11
50.308241135170988
 21
-60.000028152396141
 31
0.0
  0
LINE
  5
5B9
  8
0
 62
     0
 10
30.30824113517086
 20
-45.000028152396133
 30
0.0
 11
50.308241135170952
 21
-45.000028152396133
 31
0.0
  0
LINE
  5
5BA
  8
0
 62
     0
 10
30.30824113517081
 20
-30.000028152396141
 30
0.0
 11
50.30824113517091
 21
-30.000028152396141
 31
0.0
  0
LINE
  5
5BB
  8
0
 62
     0
 10
30.30824113517075
 20
-15.000028152396141
 30
0.0
 11
50.308241135170867
 21
-15.000028152396141
 31
0.0
  0
ENDBLK
  5
5BD
  8
0
  0
ENDSEC
  0
SECTION
  2
ENTITIES
  0
CIRCLE
  5
1B2
  8
0
 10
-122.2911784494875
 20
118.000000000003
 30
0.0
 40
2.500000000000008
1001
REVIT
1002
{
1070
     1
1000
336884
1002
}
1002
{
1070
     5
1000
233013
1002
}
1002
{
1070
     2
1000
-2005028
1002
}
  0
INSERT
  5
1B3
  8
0
  6
CONTINUOUS
  2
*U16
 10
0.0
 20
0.0
 30
0.0
1001
REVIT
1002
{
1070
     1
1000
336884
1002
}
1002
{
1070
     5
1000
233013
1002
}
1002
{
1070
     2
1000
-2005028
1002
}
1001
ACAD
1002
{
1000
R14_HATCH_DATA
1000
1B3
1011
1.0
1021
0.0
1031
-0.0
1021
0.0
1031
0.0
1011
0.0
1021
0.0
1031
-0.0
1021
1.0
1031
0.0
1011
0.0
1021
0.0
1031
-0.0
1021
0.0
1031
1.0
1040
0.0
1010
0.0
1020
0.0
1030
1.0
1000
SOLID
1070
     1
1070
     0
1071
        1
1071
        0
1071
        1
1070
     2
1040
-122.2911784494875
1040
118.000000000003
1040
2.500000000000008
1040
0.0
1040
6.2831853071795862
1070
     1
1071
        0
1070
     0
1070
     1
1071
        1
1040
0.0
1040
0.0
1040
0.0
1002
}
  0
LINE
  5
1B4
  8
0
 10
-174.712503759475
 20
208.2595282132722
 30
0.0
 11
-224.3315905757388
 21
208.2595282132722
 31
0.0
1001
REVIT
1002
{
1070
     1
1000
336884
1002
}
1002
{
1070
     5
1000
233013
1002
}
1002
{
1070
     2
1000
-2005028
1002
}
  0
LINE
  5
1B5
  8
0
 10
-122.2911784494875
 20
118.000000000003
 30
0.0
 11
-174.712503759475
 21
208.2595282132722
 31
0.0
1001
REVIT
1002
{
1070
     1
1000
336884
1002
}
1002
{
1070
     5
1000
233013
1002
}
1002
{
1070
     2
1000
-2005028
1002
}
  0
INSERT
  5
1B7
  8
0
  2
*U17
 10
0.0
 20
0.0
 30
0.0
  0
CIRCLE
  5
1B8
  8
0
 10
437.44386097051017
 20
-6.8438215980008286
 30
0.0
 40
2.5000000000000591
1001
REVIT
1002
{
1070
     1
1000
336885
1002
}
1002
{
1070
     5
1000
233013
1002
}
1002
{
1070
     2
1000
-2005028
1002
}
  0
INSERT
  5
1B9
  8
0
  6
CONTINUOUS
  2
*U18
 10
0.0
 20
0.0
 30
0.0
1001
REVIT
1002
{
1070
     1
1000
336885
1002
}
1002
{
1070
     5
1000
233013
1002
}
1002
{
1070
     2
1000
-2005028
1002
}
1001
ACAD
1002
{
1000
R14_HATCH_DATA
1000
1B9
1011
1.0
1021
0.0
1031
-0.0
1021
0.0
1031
0.0
1011
0.0
1021
0.0
1031
-0.0
1021
1.0
1031
0.0
1011
0.0
1021
0.0
1031
-0.0
1021
0.0
1031
1.0
1040
0.0
1010
0.0
1020
0.0
1030
1.0
1000
SOLID
1070
     1
1070
     0
1071
        1
1071
        0
1071
        1
1070
     2
1040
437.44386097051017
1040
-6.8438215980008286
1040
2.5000000000000591
1040
0.0
1040
6.2831853071795862
1070
     1
1071
        0
1070
     0
1070
     1
1071
        1
1040
0.0
1040
0.0
1040
0.0
1002
}
  0
LINE
  5
1BA
  8
0
 10
485.13106164985999
 20
-130.35298288562211
 30
0.0
 11
645.56998454955578
 21
-130.35298288562211
 31
0.0
1001
REVIT
1002
{
1070
     1
1000
336885
1002
}
1002
{
1070
     5
1000
233013
1002
}
1002
{
1070
     2
1000
-2005028
1002
}
  0
LINE
  5
1BB
  8
0
 10
437.44386097051017
 20
-6.8438215980008286
 30
0.0
 11
485.13106164985999
 21
-130.35298288562211
 31
0.0
1001
REVIT
1002
{
1070
     1
1000
336885
1002
}
1002
{
1070
     5
1000
233013
1002
}
1002
{
1070
     2
1000
-2005028
1002
}
  0
INSERT
  5
1BC
  8
0
  2
*U19
 10
0.0
 20
0.0
 30
0.0
  0
CIRCLE
  5
1BD
  8
0
 10
-77.760043573123042
 20
140.759961946316
 30
0.0
 40
2.4999999999999929
1001
REVIT
1002
{
1070
     1
1000
339187
1002
}
1002
{
1070
     5
1000
515860
1002
}
1002
{
1070
     2
1000
-2005028
1002
}
  0
INSERT
  5
1BE
  8
0
  6
CONTINUOUS
  2
*U20
 10
0.0
 20
0.0
 30
0.0
1001
REVIT
1002
{
1070
     1
1000
339187
1002
}
1002
{
1070
     5
1000
515860
1002
}
1002
{
1070
     2
1000
-2005028
1002
}
1001
ACAD
1002
{
1000
R14_HATCH_DATA
1000
1BE
1011
1.0
1021
0.0
1031
-0.0
1021
0.0
1031
0.0
1011
0.0
1021
0.0
1031
-0.0
1021
1.0
1031
0.0
1011
0.0
1021
0.0
1031
-0.0
1021
0.0
1031
1.0
1040
0.0
1010
0.0
1020
0.0
1030
1.0
1000
SOLID
1070
     1
1070
     0
1071
        1
1071
        0
1071
        1
1070
     2
1040
-77.760043573123042
1040
140.759961946316
1040
2.4999999999999929
1040
0.0
1040
6.2831853071795862
1070
     1
1071
        0
1070
     0
1070
     1
1071
        1
1040
0.0
1040
0.0
1040
0.0
1002
}
  0
LINE
  5
1BF
  8
0
 10
-171.14931876917021
 20
257.80502977640072
 30
0.0
 11
-217.95502153808189
 21
257.80502977640072
 31
0.0
1001
REVIT
1002
{
1070
     1
1000
339187
1002
}
1002
{
1070
     5
1000
515860
1002
}
1002
{
1070
     2
1000
-2005028
1002
}
  0
LINE
  5
1C0
  8
0
 10
-77.760043573123042
 20
140.759961946316
 30
0.0
 11
-171.14931876917021
 21
257.80502977640072
 31
0.0
1001
REVIT
1002
{
1070
     1
1000
339187
1002
}
1002
{
1070
     5
1000
515860
1002
}
1002
{
1070
     2
1000
-2005028
1002
}
  0
INSERT
  5
1C1
  8
0
  2
*U21
 10
0.0
 20
0.0
 30
0.0
  0
CIRCLE
  5
1C2
  8
0
 10
580.13459659089915
 20
22.65663519117312
 30
0.0
 40
2.5
1001
REVIT
1002
{
1070
     1
1000
339197
1002
}
1002
{
1070
     5
1000
233013
1002
}
1002
{
1070
     2
1000
-2005028
1002
}
  0
INSERT
  5
1C3
  8
0
  6
CONTINUOUS
  2
*U22
 10
0.0
 20
0.0
 30
0.0
1001
REVIT
1002
{
1070
     1
1000
339197
1002
}
1002
{
1070
     5
1000
233013
1002
}
1002
{
1070
     2
1000
-2005028
1002
}
1001
ACAD
1002
{
1000
R14_HATCH_DATA
1000
1C3
1011
1.0
1021
0.0
1031
-0.0
1021
0.0
1031
0.0
1011
0.0
1021
0.0
1031
-0.0
1021
1.0
1031
0.0
1011
0.0
1021
0.0
1031
-0.0
1021
0.0
1031
1.0
1040
0.0
1010
0.0
1020
0.0
1030
1.0
1000
SOLID
1070
     1
1070
     0
1071
        1
1071
        0
1071
        1
1070
     2
1040
580.13459659089915
1040
22.65663519117312
1040
2.5
1040
0.0
1040
6.2831853071795862
1070
     1
1071
        0
1070
     0
1070
     1
1071
        1
1040
0.0
1040
0.0
1040
0.0
1002
}
  0
LINE
  5
1C4
  8
0
 10
580.13459659089915
 20
22.65663519117312
 30
0.0
 11
646.56998454955556
 21
22.65663519117312
 31
0.0
1001
REVIT
1002
{
1070
     1
1000
339197
1002
}
1002
{
1070
     5
1000
233013
1002
}
1002
{
1070
     2
1000
-2005028
1002
}
  0
INSERT
  5
1C5
  8
0
  2
*U23
 10
0.0
 20
0.0
 30
0.0
  0
CIRCLE
  5
1C6
  8
0
 10
555.28904286663817
 20
163.06688319402139
 30
0.0
 40
2.5000000000000071
1001
REVIT
1002
{
1070
     1
1000
340570
1002
}
1002
{
1070
     5
1000
233011
1002
}
1002
{
1070
     2
1000
-2005028
1002
}
  0
INSERT
  5
1C7
  8
0
  6
CONTINUOUS
  2
*U24
 10
0.0
 20
0.0
 30
0.0
1001
REVIT
1002
{
1070
     1
1000
340570
1002
}
1002
{
1070
     5
1000
233011
1002
}
1002
{
1070
     2
1000
-2005028
1002
}
1001
ACAD
1002
{
1000
R14_HATCH_DATA
1000
1C7
1011
1.0
1021
0.0
1031
-0.0
1021
0.0
1031
0.0
1011
0.0
1021
0.0
1031
-0.0
1021
1.0
1031
0.0
1011
0.0
1021
0.0
1031
-0.0
1021
0.0
1031
1.0
1040
0.0
1010
0.0
1020
0.0
1030
1.0
1000
SOLID
1070
     1
1070
     0
1071
        1
1071
        0
1071
        1
1070
     2
1040
555.28904286663817
1040
163.06688319402139
1040
2.5000000000000071
1040
0.0
1040
6.2831853071795862
1070
     1
1071
        0
1070
     0
1070
     1
1071
        1
1040
0.0
1040
0.0
1040
0.0
1002
}
  0
LINE
  5
1C8
  8
0
 10
594.81150602454341
 20
193.30970987567071
 30
0.0
 11
645.56998454955578
 21
193.30970987567071
 31
0.0
1001
REVIT
1002
{
1070
     1
1000
340570
1002
}
1002
{
1070
     5
1000
233011
1002
}
1002
{
1070
     2
1000
-2005028
1002
}
  0
LINE
  5
1C9
  8
0
 10
555.28904286663817
 20
163.06688319402139
 30
0.0
 11
594.81150602454341
 21
193.30970987567071
 31
0.0
1001
REVIT
1002
{
1070
     1
1000
340570
1002
}
1002
{
1070
     5
1000
233011
1002
}
1002
{
1070
     2
1000
-2005028
1002
}
  0
INSERT
  5
1CA
  8
0
  2
*U25
 10
0.0
 20
0.0
 30
0.0
  0
CIRCLE
  5
1CB
  8
0
 10
546.11383900775058
 20
170.80645178204799
 30
0.0
 40
2.5
1001
REVIT
1002
{
1070
     1
1000
529850
1002
}
1002
{
1070
     5
1000
233011
1002
}
1002
{
1070
     2
1000
-2005028
1002
}
  0
INSERT
  5
1CC
  8
0
  6
CONTINUOUS
  2
*U26
 10
0.0
 20
0.0
 30
0.0
1001
REVIT
1002
{
1070
     1
1000
529850
1002
}
1002
{
1070
     5
1000
233011
1002
}
1002
{
1070
     2
1000
-2005028
1002
}
1001
ACAD
1002
{
1000
R14_HATCH_DATA
1000
1CC
1011
1.0
1021
0.0
1031
-0.0
1021
0.0
1031
0.0
1011
0.0
1021
0.0
1031
-0.0
1021
1.0
1031
0.0
1011
0.0
1021
0.0
1031
-0.0
1021
0.0
1031
1.0
1040
0.0
1010
0.0
1020
0.0
1030
1.0
1000
SOLID
1070
     1
1070
     0
1071
        1
1071
        0
1071
        1
1070
     2
1040
546.11383900775058
1040
170.80645178204799
1040
2.5
1040
0.0
1040
6.2831853071795862
1070
     1
1071
        0
1070
     0
1070
     1
1071
        1
1040
0.0
1040
0.0
1040
0.0
1002
}
  0
LINE
  5
1CD
  8
0
 10
546.11383900775058
 20
291.09814764133381
 30
0.0
 11
645.56998454955578
 21
291.09814764133381
 31
0.0
1001
REVIT
1002
{
1070
     1
1000
529850
1002
}
1002
{
1070
     5
1000
233011
1002
}
1002
{
1070
     2
1000
-2005028
1002
}
  0
LINE
  5
1CE
  8
0
 10
546.11383900775058
 20
170.80645178204799
 30
0.0
 11
546.11383900775058
 21
291.09814764133381
 31
0.0
1001
REVIT
1002
{
1070
     1
1000
529850
1002
}
1002
{
1070
     5
1000
233011
1002
}
1002
{
1070
     2
1000
-2005028
1002
}
  0
INSERT
  5
1CF
  8
0
  2
*U27
 10
0.0
 20
0.0
 30
0.0
  0
CIRCLE
  5
1DD
  8
0
 10
-122.2911784494875
 20
22.65663519117312
 30
0.0
 40
2.5000000000000142
1001
REVIT
1002
{
1070
     1
1000
530952
1002
}
1002
{
1070
     5
1000
233013
1002
}
1002
{
1070
     2
1000
-2005028
1002
}
  0
INSERT
  5
1DE
  8
0
  6
CONTINUOUS
  2
*U28
 10
0.0
 20
0.0
 30
0.0
1001
REVIT
1002
{
1070
     1
1000
530952
1002
}
1002
{
1070
     5
1000
233013
1002
}
1002
{
1070
     2
1000
-2005028
1002
}
1001
ACAD
1002
{
1000
R14_HATCH_DATA
1000
1DE
1011
1.0
1021
0.0
1031
-0.0
1021
0.0
1031
0.0
1011
0.0
1021
0.0
1031
-0.0
1021
1.0
1031
0.0
1011
0.0
1021
0.0
1031
-0.0
1021
0.0
1031
1.0
1040
0.0
1010
0.0
1020
0.0
1030
1.0
1000
SOLID
1070
     1
1070
     0
1071
        1
1071
        0
1071
        1
1070
     2
1040
-122.2911784494875
1040
22.65663519117312
1040
2.5000000000000142
1040
0.0
1040
6.2831853071795862
1070
     1
1071
        0
1070
     0
1070
     1
1071
        1
1040
0.0
1040
0.0
1040
0.0
1002
}
  0
LINE
  5
1DF
  8
0
 10
-122.2911784494875
 20
22.65663519117312
 30
0.0
 11
-293.0710048016802
 21
22.65663519117312
 31
0.0
1001
REVIT
1002
{
1070
     1
1000
530952
1002
}
1002
{
1070
     5
1000
233013
1002
}
1002
{
1070
     2
1000
-2005028
1002
}
  0
INSERT
  5
1E0
  8
0
  2
*U29
 10
0.0
 20
0.0
 30
0.0
  0
CIRCLE
  5
1E1
  8
0
 10
475.4287047401358
 20
18.013544642077601
 30
0.0
 40
2.5000000000000129
1001
REVIT
1002
{
1070
     1
1000
530953
1002
}
1002
{
1070
     5
1000
233013
1002
}
1002
{
1070
     2
1000
-2005028
1002
}
  0
INSERT
  5
1E2
  8
0
  6
CONTINUOUS
  2
*U30
 10
0.0
 20
0.0
 30
0.0
1001
REVIT
1002
{
1070
     1
1000
530953
1002
}
1002
{
1070
     5
1000
233013
1002
}
1002
{
1070
     2
1000
-2005028
1002
}
1001
ACAD
1002
{
1000
R14_HATCH_DATA
1000
1E2
1011
1.0
1021
0.0
1031
-0.0
1021
0.0
1031
0.0
1011
0.0
1021
0.0
1031
-0.0
1021
1.0
1031
0.0
1011
0.0
1021
0.0
1031
-0.0
1021
0.0
1031
1.0
1040
0.0
1010
0.0
1020
0.0
1030
1.0
1000
SOLID
1070
     1
1070
     0
1071
        1
1071
        0
1071
        1
1070
     2
1040
475.4287047401358
1040
18.013544642077601
1040
2.5000000000000129
1040
0.0
1040
6.2831853071795862
1070
     1
1071
        0
1070
     0
1070
     1
1071
        1
1040
0.0
1040
0.0
1040
0.0
1002
}
  0
LINE
  5
1E3
  8
0
 10
505.75660633789721
 20
-66.656744276568944
 30
0.0
 11
645.56998454955578
 21
-66.656744276568944
 31
0.0
1001
REVIT
1002
{
1070
     1
1000
530953
1002
}
1002
{
1070
     5
1000
233013
1002
}
1002
{
1070
     2
1000
-2005028
1002
}
  0
LINE
  5
1E4
  8
0
 10
475.4287047401358
 20
18.013544642077601
 30
0.0
 11
505.75660633789721
 21
-66.656744276568944
 31
0.0
1001
REVIT
1002
{
1070
     1
1000
530953
1002
}
1002
{
1070
     5
1000
233013
1002
}
1002
{
1070
     2
1000
-2005028
1002
}
  0
INSERT
  5
1E5
  8
0
  2
*U31
 10
0.0
 20
0.0
 30
0.0
  0
CIRCLE
  5
1E6
  8
0
 10
-121.8430827326212
 20
103.0366598742627
 30
0.0
 40
2.4999999999999938
1001
REVIT
1002
{
1070
     1
1000
531031
1002
}
1002
{
1070
     5
1000
233013
1002
}
1002
{
1070
     2
1000
-2005028
1002
}
  0
INSERT
  5
1E7
  8
0
  6
CONTINUOUS
  2
*U32
 10
0.0
 20
0.0
 30
0.0
1001
REVIT
1002
{
1070
     1
1000
531031
1002
}
1002
{
1070
     5
1000
233013
1002
}
1002
{
1070
     2
1000
-2005028
1002
}
1001
ACAD
1002
{
1000
R14_HATCH_DATA
1000
1E7
1011
1.0
1021
0.0
1031
-0.0
1021
0.0
1031
0.0
1011
0.0
1021
0.0
1031
-0.0
1021
1.0
1031
0.0
1011
0.0
1021
0.0
1031
-0.0
1021
0.0
1031
1.0
1040
0.0
1010
0.0
1020
0.0
1030
1.0
1000
SOLID
1070
     1
1070
     0
1071
        1
1071
        0
1071
        1
1070
     2
1040
-121.8430827326212
1040
103.0366598742627
1040
2.4999999999999938
1040
0.0
1040
6.2831853071795862
1070
     1
1071
        0
1070
     0
1070
     1
1071
        1
1040
0.0
1040
0.0
1040
0.0
1002
}
  0
LINE
  5
1E8
  8
0
 10
-161.74499364845511
 20
80.440078580285302
 30
0.0
 11
-296.38682070126168
 21
80.440078580285302
 31
0.0
1001
REVIT
1002
{
1070
     1
1000
531031
1002
}
1002
{
1070
     5
1000
233013
1002
}
1002
{
1070
     2
1000
-2005028
1002
}
  0
LINE
  5
1E9
  8
0
 10
-121.8430827326212
 20
103.0366598742627
 30
0.0
 11
-161.74499364845511
 21
80.440078580285302
 31
0.0
1001
REVIT
1002
{
1070
     1
1000
531031
1002
}
1002
{
1070
     5
1000
233013
1002
}
1002
{
1070
     2
1000
-2005028
1002
}
  0
INSERT
  5
1EA
  8
0
  2
*U33
 10
0.0
 20
0.0
 30
0.0
  0
LINE
  5
250
  8
0
 10
-220.17162953024689
 20
-28.408250613458009
 30
0.0
 11
-220.17162953024669
 21
68.037756244941889
 31
0.0
  0
LINE
  5
251
  8
0
 10
-220.17162953024649
 20
171.59174938654201
 30
0.0
 11
-220.17162953024669
 21
75.145742528142094
 31
0.0
  0
LINE
  5
252
  8
0
 10
-220.17162953024689
 20
-28.408250613458009
 30
0.0
 11
-220.17162953024669
 21
68.037756244941889
 31
0.0
  0
LINE
  5
253
  8
0
 10
-220.17162953024669
 20
68.037756244941889
 30
0.0
 11
-209.8640103693659
 21
69.855267609872655
 31
0.0
  0
LINE
  5
254
  8
0
 10
-209.86401036936579
 20
69.855267609872655
 30
0.0
 11
-230.47924869112759
 21
73.328231163211328
 31
0.0
  0
LINE
  5
255
  8
0
 10
-230.47924869112759
 20
73.328231163211328
 30
0.0
 11
-220.17162953024669
 21
75.145742528142094
 31
0.0
  0
LINE
  5
256
  8
0
 10
-220.17162953024669
 20
75.145742528142094
 30
0.0
 11
-220.17162953024649
 21
171.59174938654201
 31
0.0
  0
LINE
  5
257
  8
0
 10
70.000000000000171
 20
-218.41902815239609
 30
0.0
 11
-26.446006858399731
 21
-218.41902815239609
 31
0.0
  0
LINE
  5
258
  8
0
 10
-129.9999999999998
 20
-218.41902815239609
 30
0.0
 11
-33.553993141599932
 21
-218.41902815239609
 31
0.0
  0
LINE
  5
259
  8
0
 10
70.000000000000171
 20
-218.41902815239609
 30
0.0
 11
-26.446006858399731
 21
-218.41902815239609
 31
0.0
  0
LINE
  5
25A
  8
0
 10
-26.446006858399731
 20
-218.41902815239609
 30
0.0
 11
-28.263518223330522
 21
-208.1114089915153
 31
0.0
  0
LINE
  5
25B
  8
0
 10
-28.263518223330522
 20
-208.11140899151519
 30
0.0
 11
-31.736481776669141
 21
-228.726647313277
 31
0.0
  0
LINE
  5
25C
  8
0
 10
-31.736481776669141
 20
-228.726647313277
 30
0.0
 11
-33.553993141599932
 21
-218.41902815239609
 31
0.0
  0
LINE
  5
25D
  8
0
 10
-33.553993141599932
 20
-218.41902815239609
 30
0.0
 11
-129.9999999999998
 21
-218.41902815239609
 31
0.0
  0
ARC
  5
25E
  8
0
 10
48.000000000001137
 20
73.000000000000455
 30
0.0
 40
1.9999999999999969
 50
0.0
 51
90.000000000000185
1001
REVIT
1002
{
1070
     3
1000
224526
1002
}
  0
ARC
  5
25F
  8
0
 10
2.0000000000011968
 20
73.000000000000526
 30
0.0
 40
2.0
 50
89.999999999999801
 51
179.9999999999996
1001
REVIT
1002
{
1070
     3
1000
224526
1002
}
  0
ARC
  5
260
  8
0
 10
2.000000000001207
 20
2.0000000000004898
 30
0.0
 40
1.999999999999994
 50
180.0
 51
269.99999999999977
1001
REVIT
1002
{
1070
     3
1000
224526
1002
}
  0
ARC
  5
261
  8
0
 10
48.000000000001208
 20
2.0000000000004832
 30
0.0
 40
1.9999999999999949
 50
269.9999999999996
 51
0.0
1001
REVIT
1002
{
1070
     3
1000
224526
1002
}
  0
LINE
  5
262
  8
0
 10
48.000000000001137
 20
75.000000000000526
 30
0.0
 11
2.000000000001207
 21
75.000000000000526
 31
0.0
1001
REVIT
1002
{
1070
     3
1000
224526
1002
}
  0
LINE
  5
263
  8
0
 10
0.0000000000011973
 20
73.00000000000054
 30
0.0
 11
0.0000000000011973
 21
2.0000000000004969
 31
0.0
1001
REVIT
1002
{
1070
     3
1000
224526
1002
}
  0
LINE
  5
264
  8
0
 10
2.0000000000011928
 20
0.0000000000004832
 30
0.0
 11
48.000000000001208
 21
0.0000000000004832
 31
0.0
1001
REVIT
1002
{
1070
     3
1000
224526
1002
}
  0
LINE
  5
265
  8
0
 10
50.000000000001201
 20
2.0000000000004832
 30
0.0
 11
50.000000000001201
 21
73.000000000000455
 31
0.0
1001
REVIT
1002
{
1070
     3
1000
224526
1002
}
  0
LINE
  5
266
  8
0
 10
2.0000000000010369
 20
73.000000000000711
 30
0.0
 11
48.000000000001243
 21
2.0000000000005538
 31
0.0
  0
LINE
  5
267
  8
0
 10
48.000000000001243
 20
73.000000000000711
 30
0.0
 11
2.000000000001239
 21
2.0000000000004832
 31
0.0
  0
LINE
  5
268
  8
0
  6
DASH
 10
2.5000000000000742
 20
-2.072339171135444
 30
0.0
 11
2.4999999999996572
 21
-214.84228192367729
 31
0.0
1001
REVIT
1002
{
1070
     3
1000
217411
1002
}
  0
INSERT
  5
269
  8
0
  6
CONTINUOUS
  2
*X34
 10
0.0
 20
0.0
 30
0.0
1001
ACAD
1000
HATCH
1002
{
1070
    19
1000
FP_1
1040
1.0
1040
0.0
1000
R14_HATCH_DATA
1000
269
1011
1.0
1021
0.0
1031
-0.0
1021
0.0
1031
0.0
1011
0.0
1021
0.0
1031
-0.0
1021
1.0
1031
0.0
1011
0.0
1021
0.0
1031
-0.0
1021
0.0
1031
1.0
1040
0.0
1010
0.0
1020
0.0
1030
1.0
1000
FP_1
1070
     0
1070
     0
1071
        1
1071
        0
1071
        4
1070
     1
1040
50.30824113517145
1040
-218.41902815239641
1040
50.308241135170839
1040
-8.9999999999999716
1070
     1
1040
50.308241135170839
1040
-8.9999999999999716
1040
30.308241135170721
1040
-9.0000000000001137
1070
     1
1040
30.308241135170729
1040
-9.0000000000001137
1040
30.308241135171539
1040
-218.41902815239641
1070
     1
1040
30.308241135171539
1040
-218.41902815239641
1040
50.30824113517145
1040
-218.41902815239641
1071
        0
1070
     0
1070
     2
1040
0.0
1040
1.0
1070
     0
1070
     1
1040
0.0
1040
0.0002411351715637
1040
-0.0000281523961405
1040
0.0
1040
15.0
1070
     0
1071
        1
1040
40.308241135171563
1040
-218.41902815239609
1040
0.0
1002
}
  0
LINE
  5
26A
  8
0
 10
50.30824113517059
 20
-9.0000000000000568
 30
0.0
 11
30.30824113517059
 21
-9.0000000000001137
 31
0.0
1001
REVIT
1002
{
1070
     3
1000
224526
1002
}
  0
LINE
  5
26B
  8
0
 10
30.30824113517059
 20
-9.0000000000001137
 30
0.0
 11
30.308241135171279
 21
-218.41902815239621
 31
0.0
1001
REVIT
1002
{
1070
     3
1000
224526
1002
}
  0
LINE
  5
26C
  8
0
 10
50.308241135171279
 20
-218.41902815239609
 30
0.0
 11
50.30824113517059
 21
-9.0000000000000568
 31
0.0
1001
REVIT
1002
{
1070
     3
1000
224526
1002
}
  0
LINE
  5
26D
  8
0
 10
0.0000000000000995
 20
-218.41902815239661
 30
0.0
 11
0.0000000000004263
 21
-51.000000000000057
 31
0.0
1001
REVIT
1002
{
1070
     3
1000
206265
1002
}
  0
LINE
  5
26E
  8
0
 10
-99.999999999999744
 20
-50.999999999999872
 30
0.0
 11
-100.0
 21
-218.41902815239641
 31
0.0
1001
REVIT
1002
{
1070
     3
1000
206265
1002
}
  0
ARC
  5
26F
  8
0
 10
497.99999999999949
 20
97.999999999997911
 30
0.0
 40
1.9999999999999969
 50
0.0
 51
90.0
1001
REVIT
1002
{
1070
     3
1000
224526
1002
}
  0
ARC
  5
270
  8
0
 10
451.99999999999949
 20
97.999999999997982
 30
0.0
 40
2.0
 50
90.0
 51
179.9999999999996
1001
REVIT
1002
{
1070
     3
1000
224526
1002
}
  0
ARC
  5
271
  8
0
 10
451.99999999999949
 20
1.999999999997953
 30
0.0
 40
1.999999999999996
 50
179.9999999999996
 51
270.0
1001
REVIT
1002
{
1070
     3
1000
224526
1002
}
  0
ARC
  5
272
  8
0
 10
497.99999999999949
 20
1.9999999999979461
 30
0.0
 40
2.0000000000000009
 50
270.0
 51
0.0
1001
REVIT
1002
{
1070
     3
1000
224526
1002
}
  0
LINE
  5
273
  8
0
 10
497.99999999999949
 20
99.999999999997996
 30
0.0
 11
451.99999999999949
 21
99.999999999997996
 31
0.0
1001
REVIT
1002
{
1070
     3
1000
224526
1002
}
  0
LINE
  5
274
  8
0
 10
449.99999999999949
 20
97.999999999997982
 30
0.0
 11
449.99999999999949
 21
1.999999999997953
 31
0.0
1001
REVIT
1002
{
1070
     3
1000
224526
1002
}
  0
LINE
  5
275
  8
0
 10
451.99999999999949
 20
-0.0000000000020606
 30
0.0
 11
497.99999999999949
 21
-0.0000000000020606
 31
0.0
1001
REVIT
1002
{
1070
     3
1000
224526
1002
}
  0
LINE
  5
276
  8
0
 10
499.99999999999949
 20
1.9999999999979461
 30
0.0
 11
499.99999999999949
 21
97.999999999997911
 31
0.0
1001
REVIT
1002
{
1070
     3
1000
224526
1002
}
  0
LINE
  5
277
  8
0
 10
451.99999999999937
 20
97.999999999998153
 30
0.0
 11
497.99999999999949
 21
1.9999999999980169
 31
0.0
  0
LINE
  5
278
  8
0
 10
497.99999999999949
 20
97.999999999998153
 30
0.0
 11
451.9999999999996
 21
1.999999999997953
 31
0.0
  0
LINE
  5
279
  8
0
 10
450.0
 20
100.0000000000004
 30
0.0
 11
-220.17162953024669
 21
100.0000000000004
 31
0.0
1001
REVIT
1002
{
1070
     3
1000
206265
1002
}
  0
LINE
  5
27A
  8
0
 10
-220.17162953024669
 20
0.0000000000003055
 30
0.0
 11
0.0000000000012506
 21
0.0000000000003055
 31
0.0
1001
REVIT
1002
{
1070
     3
1000
206265
1002
}
  0
LINE
  5
27B
  8
0
 10
50.000000000001272
 20
0.0000000000003055
 30
0.0
 11
450.0
 21
0.0000000000003055
 31
0.0
1001
REVIT
1002
{
1070
     3
1000
206265
1002
}
  0
ARC
  5
27C
  8
0
 10
-2.0000000000000071
 20
-3.0000000000000488
 30
0.0
 40
1.9999999999999969
 50
0.0000000000002036
 51
90.0
1001
REVIT
1002
{
1070
     3
1000
224526
1002
}
  0
ARC
  5
27D
  8
0
 10
-97.999999999999943
 20
-2.9999999999999818
 30
0.0
 40
1.999999999999996
 50
90.0
 51
179.9999999999998
1001
REVIT
1002
{
1070
     3
1000
224526
1002
}
  0
ARC
  5
27E
  8
0
 10
-97.999999999999943
 20
-49.0
 30
0.0
 40
1.999999999999992
 50
179.9999999999998
 51
269.9999999999996
1001
REVIT
1002
{
1070
     3
1000
224526
1002
}
  0
ARC
  5
27F
  8
0
 10
-1.9999999999999429
 20
-49.000000000000021
 30
0.0
 40
2.0000000000000071
 50
269.9999999999996
 51
0.0
1001
REVIT
1002
{
1070
     3
1000
224526
1002
}
  0
LINE
  5
280
  8
0
 10
-2.0000000000000071
 20
-0.9999999999999786
 30
0.0
 11
-97.999999999999943
 21
-0.9999999999999786
 31
0.0
1001
REVIT
1002
{
1070
     3
1000
224526
1002
}
  0
LINE
  5
281
  8
0
 10
-99.999999999999943
 20
-2.9999999999999711
 30
0.0
 11
-99.999999999999943
 21
-49.0
 31
0.0
1001
REVIT
1002
{
1070
     3
1000
224526
1002
}
  0
LINE
  5
282
  8
0
 10
0.0000000000000639
 20
-49.000000000000021
 30
0.0
 11
0.0000000000000639
 21
-3.0000000000000488
 31
0.0
1001
REVIT
1002
{
1070
     3
1000
224526
1002
}
  0
LINE
  5
283
  8
0
 10
-98.000000000000114
 20
-2.9999999999998042
 30
0.0
 11
-1.9999999999999141
 21
-48.999999999999943
 31
0.0
  0
LINE
  5
284
  8
0
 10
-1.9999999999999141
 20
-2.9999999999998042
 30
0.0
 11
-97.999999999999901
 21
-49.000000000000007
 31
0.0
  0
LINE
  5
285
  8
0
 10
500.9999999999996
 20
72.142403021452054
 30
0.0
 11
500.9999999999996
 21
10.131384302513609
 31
0.0
1001
REVIT
1002
{
1070
     3
1000
211597
1002
}
  0
LINE
  5
286
  8
0
 10
500.9999999999996
 20
10.131384302513609
 30
0.0
 11
549.1137839181805
 21
10.131384302513609
 31
0.0
1001
REVIT
1002
{
1070
     3
1000
211597
1002
}
  0
LINE
  5
287
  8
0
 10
549.1137839181805
 20
10.131384302513609
 30
0.0
 11
552.96570841205516
 21
10.131384302513609
 31
0.0
1001
REVIT
1002
{
1070
     3
1000
211597
1002
}
  0
ARC
  5
288
  8
0
 10
552.71227190689535
 20
0.1345963214743335
 30
0.0
 40
9.9999999999999645
 50
0.0000000000004071
 51
88.547760297267274
1001
REVIT
1002
{
1070
     3
1000
211597
1002
}
  0
LINE
  5
289
  8
0
 10
562.71227190689535
 20
0.1345963214743335
 30
0.0
 11
562.71227190689535
 21
-4.8575969785479449
 31
0.0
1001
REVIT
1002
{
1070
     3
1000
211597
1002
}
  0
ARC
  5
28A
  8
0
 10
556.71227190689524
 20
-4.8575969785479449
 30
0.0
 40
6.0000000000000133
 50
270.0
 51
0.0000000000004071
1001
REVIT
1002
{
1070
     3
1000
211597
1002
}
  0
LINE
  5
28B
  8
0
 10
556.71227190689524
 20
-10.85759697854796
 30
0.0
 11
554.0699845495559
 21
-10.85759697854796
 31
0.0
1001
REVIT
1002
{
1070
     3
1000
211597
1002
}
  0
LINE
  5
28C
  8
0
 10
554.0699845495559
 20
-10.85759697854796
 30
0.0
 11
554.0699845495559
 21
-15.842626674189921
 31
0.0
1001
REVIT
1002
{
1070
     3
1000
211597
1002
}
  0
LINE
  5
28D
  8
0
 10
554.0699845495559
 20
-15.842626674189921
 30
0.0
 11
578.06998454955226
 21
-15.842626674189921
 31
0.0
1001
REVIT
1002
{
1070
     3
1000
211597
1002
}
  0
LINE
  5
28E
  8
0
 10
578.06998454955226
 20
-15.842626674189921
 30
0.0
 11
578.06998454955226
 21
12.15680453924957
 31
0.0
1001
REVIT
1002
{
1070
     3
1000
211597
1002
}
  0
LINE
  5
28F
  8
0
 10
578.06998454955226
 20
12.15680453924957
 30
0.0
 11
576.64755341505156
 21
13.492332762206569
 31
0.0
1001
REVIT
1002
{
1070
     3
1000
211597
1002
}
  0
ARC
  5
290
  8
0
 10
580.06998454955317
 20
17.137461721459459
 30
0.0
 40
4.9999999999990576
 50
180.0
 51
226.80478480758291
1001
REVIT
1002
{
1070
     3
1000
211597
1002
}
  0
LINE
  5
291
  8
0
 10
575.0699845495559
 20
17.137461721459449
 30
0.0
 11
575.0699845495559
 21
54.828946201063687
 31
0.0
1001
REVIT
1002
{
1070
     3
1000
211597
1002
}
  0
ARC
  5
292
  8
0
 10
580.06998454955817
 20
54.828946201063687
 30
0.0
 40
5.00000000000216
 50
134.99999999998241
 51
180.0000000000004
1001
REVIT
1002
{
1070
     3
1000
211597
1002
}
  0
LINE
  5
293
  8
0
 10
576.53445064362495
 20
58.364480106999032
 30
0.0
 11
578.06998454955419
 21
59.90001401292735
 31
0.0
1001
REVIT
1002
{
1070
     3
1000
211597
1002
}
  0
LINE
  5
294
  8
0
 10
578.06998454955419
 20
59.90001401292735
 30
0.0
 11
578.06998454955419
 21
87.414732638690992
 31
0.0
1001
REVIT
1002
{
1070
     3
1000
211597
1002
}
  0
LINE
  5
295
  8
0
 10
578.06998454955419
 20
87.414732638690992
 30
0.0
 11
576.53445064362063
 21
88.950266544626444
 31
0.0
1001
REVIT
1002
{
1070
     3
1000
211597
1002
}
  0
ARC
  5
296
  8
0
 10
580.06998454955817
 20
92.485800450559964
 30
0.0
 40
5.0000000000040687
 50
180.0
 51
224.9999999999666
1001
REVIT
1002
{
1070
     3
1000
211597
1002
}
  0
LINE
  5
297
  8
0
 10
575.06998454955419
 20
92.485800450559964
 30
0.0
 11
575.06998454955419
 21
130.17728493015599
 31
0.0
1001
REVIT
1002
{
1070
     3
1000
211597
1002
}
  0
ARC
  5
298
  8
0
 10
580.06998454955703
 20
130.17728493015599
 30
0.0
 40
5.0000000000027924
 50
133.1952151922157
 51
180.0000000000004
1001
REVIT
1002
{
1070
     3
1000
211597
1002
}
  0
LINE
  5
299
  8
0
 10
576.64755341506554
 20
133.8224138894237
 30
0.0
 11
578.06998454955601
 21
135.1579421123615
 31
0.0
1001
REVIT
1002
{
1070
     3
1000
211597
1002
}
  0
LINE
  5
29A
  8
0
 10
578.06998454955601
 20
135.1579421123615
 30
0.0
 11
578.06998454955601
 21
178.36925156405241
 31
0.0
1001
REVIT
1002
{
1070
     3
1000
211597
1002
}
  0
LINE
  5
29B
  8
0
 10
578.06998454955601
 20
178.36925156405241
 30
0.0
 11
559.71227190689524
 21
178.36925156405241
 31
0.0
1001
REVIT
1002
{
1070
     3
1000
211597
1002
}
  0
LINE
  5
29C
  8
0
 10
559.71227190689524
 20
178.36925156405241
 30
0.0
 11
559.71227190689524
 21
82.124477561715935
 31
0.0
1001
REVIT
1002
{
1070
     3
1000
211597
1002
}
  0
ARC
  5
29D
  8
0
 10
549.71227190689524
 20
82.124477561715935
 30
0.0
 40
10.000000000000091
 50
266.56886601558381
 51
0.0000000000004071
1001
REVIT
1002
{
1070
     3
1000
211597
1002
}
  0
LINE
  5
29E
  8
0
 10
549.11378391819585
 20
72.142403021452054
 30
0.0
 11
500.9999999999996
 21
72.142403021452054
 31
0.0
1001
REVIT
1002
{
1070
     3
1000
211597
1002
}
  0
LINE
  5
29F
  8
0
 10
559.71227190689524
 20
82.124477561715935
 30
0.0
 11
559.71227190689524
 21
178.36925156405241
 31
0.0
1001
REVIT
1002
{
1070
     3
1000
211597
1002
}
  0
LINE
  5
2A0
  8
0
 10
553.06998454955624
 20
-18.854425477147981
 30
0.0
 11
578.99611730229856
 21
-18.854425477147981
 31
0.0
1001
REVIT
1002
{
1070
     3
1000
224528
1002
}
  0
ARC
  5
2A1
  8
0
 10
579.06998454955612
 20
-16.84262667418994
 30
0.0
 40
1.9999999999999569
 50
270.0
 51
0.0
1001
REVIT
1002
{
1070
     3
1000
224528
1002
}
  0
ARC
  5
2A2
  8
0
 10
553.06998454955624
 20
-16.842626674189741
 30
0.0
 40
2.0000000000001878
 50
179.9999999999996
 51
270.0
1001
REVIT
1002
{
1070
     3
1000
224528
1002
}
  0
ARC
  5
2A3
  8
0
 10
553.06998454955419
 20
-9.8575969785487487
 30
0.0
 40
1.9999999999998861
 50
90.0
 51
179.9999999999996
1001
REVIT
1002
{
1070
     3
1000
224528
1002
}
  0
LINE
  5
2A4
  8
0
 10
551.06998454955408
 20
-9.8575969785487416
 30
0.0
 11
551.06998454955408
 21
-16.842626674189731
 31
0.0
1001
REVIT
1002
{
1070
     3
1000
224528
1002
}
  0
LINE
  5
2A5
  8
0
 10
549.89431482615828
 20
1.1365845953950711
 30
0.0
 11
557.83727876679143
 21
-2.0765253208618328
 31
0.0
1001
REVIT
1002
{
1070
     3
1000
224528
1002
}
  0
LINE
  5
2A6
  8
0
 10
553.06998454955419
 20
-7.8575969785488624
 30
0.0
 11
556.71227190689376
 21
-7.8575969785488624
 31
0.0
1001
REVIT
1002
{
1070
     3
1000
224528
1002
}
  0
ARC
  5
2A7
  8
0
 10
556.71227190689376
 20
-4.8575969785477886
 30
0.0
 40
3.0000000000001519
 50
270.0
 51
67.975545835069511
1001
REVIT
1002
{
1070
     3
1000
224528
1002
}
  0
ARC
  5
2A8
  8
0
 10
550.43322231670277
 20
179.369251564053
 30
0.0
 40
2.00000000000027
 50
90.0
 51
171.42235759494051
1001
REVIT
1002
{
1070
     3
1000
224528
1002
}
  0
ARC
  5
2A9
  8
0
 10
579.0699845495559
 20
179.36925156405141
 30
0.0
 40
2.000000000000028
 50
0.0
 51
90.0
1001
REVIT
1002
{
1070
     3
1000
224528
1002
}
  0
ARC
  5
2AA
  8
0
 10
579.06998454955385
 20
134.7251538946802
 30
0.0
 40
2.0000000000002531
 50
313.19521519227283
 51
0.0
1001
REVIT
1002
{
1070
     3
1000
224528
1002
}
  0
ARC
  5
2AB
  8
0
 10
580.06998454955442
 20
130.17728493015869
 30
0.0
 40
2.0000000000001559
 50
133.19521519227311
 51
180.0
1001
REVIT
1002
{
1070
     3
1000
224528
1002
}
  0
ARC
  5
2AC
  8
0
 10
580.06998454955465
 20
92.485800450558216
 30
0.0
 40
2.0000000000003268
 50
179.9999999999992
 51
224.9999999999994
1001
REVIT
1002
{
1070
     3
1000
224528
1002
}
  0
ARC
  5
2AD
  8
0
 10
579.0699845495518
 20
87.828946201064525
 30
0.0
 40
2.0000000000006248
 50
0.0
 51
44.999999999999709
1001
REVIT
1002
{
1070
     3
1000
224528
1002
}
  0
ARC
  5
2AE
  8
0
 10
579.06998454955487
 20
59.485800450555111
 30
0.0
 40
1.9999999999994531
 50
315.0
 51
0.0
1001
REVIT
1002
{
1070
     3
1000
224528
1002
}
  0
ARC
  5
2AF
  8
0
 10
580.06998454955635
 20
54.828946201064632
 30
0.0
 40
2.000000000000397
 50
135.0
 51
180.0
1001
REVIT
1002
{
1070
     3
1000
224528
1002
}
  0
ARC
  5
2B0
  8
0
 10
580.06998454955419
 20
17.137461721461499
 30
0.0
 40
2.0000000000000582
 50
180.0
 51
226.8047848075783
1001
REVIT
1002
{
1070
     3
1000
224528
1002
}
  0
ARC
  5
2B1
  8
0
 10
579.06998454955385
 20
12.589592756931451
 30
0.0
 40
2.000000000000369
 50
359.9999999999996
 51
46.804784807578301
1001
REVIT
1002
{
1070
     3
1000
224528
1002
}
  0
LINE
  5
2B2
  8
0
 10
550.43322231670277
 20
181.36925156405329
 30
0.0
 11
579.0699845495559
 21
181.3692515640532
 31
0.0
1001
REVIT
1002
{
1070
     3
1000
224528
1002
}
  0
LINE
  5
2B3
  8
0
 10
581.06998454955601
 20
179.36925156405141
 30
0.0
 11
581.06998454955601
 21
134.7251538946802
 31
0.0
1001
REVIT
1002
{
1070
     3
1000
224528
1002
}
  0
LINE
  5
2B4
  8
0
 10
580.43895700335145
 20
133.2671023109751
 30
0.0
 11
578.70101209575705
 21
131.63533651386371
 31
0.0
1001
REVIT
1002
{
1070
     3
1000
224528
1002
}
  0
LINE
  5
2B5
  8
0
 10
578.06998454955419
 20
130.17728493015869
 30
0.0
 11
578.06998454955419
 21
92.485800450558216
 31
0.0
1001
REVIT
1002
{
1070
     3
1000
224528
1002
}
  0
LINE
  5
2B6
  8
0
 10
578.65577098718131
 20
91.071586888184882
 30
0.0
 11
580.48419811192673
 21
89.243159763439465
 31
0.0
1001
REVIT
1002
{
1070
     3
1000
224528
1002
}
  0
LINE
  5
2B7
  8
0
 10
581.06998454955226
 20
87.828946201064525
 30
0.0
 11
581.06998454955226
 21
59.485800450555111
 31
0.0
1001
REVIT
1002
{
1070
     3
1000
224528
1002
}
  0
LINE
  5
2B8
  8
0
 10
580.48419811192753
 20
58.071586888182431
 30
0.0
 11
578.65577098718313
 21
56.243159763438008
 31
0.0
1001
REVIT
1002
{
1070
     3
1000
224528
1002
}
  0
LINE
  5
2B9
  8
0
 10
578.06998454955601
 20
54.828946201064632
 30
0.0
 11
578.06998454955601
 21
17.137461721461499
 31
0.0
1001
REVIT
1002
{
1070
     3
1000
224528
1002
}
  0
LINE
  5
2BA
  8
0
 10
578.70101209575307
 20
15.67941013776012
 30
0.0
 11
580.4389570033552
 21
14.047644340632999
 31
0.0
1001
REVIT
1002
{
1070
     3
1000
224528
1002
}
  0
LINE
  5
2BB
  8
0
 10
581.06998454955431
 20
12.58959275693144
 30
0.0
 11
581.06998454955408
 21
-16.84262667418994
 31
0.0
1001
REVIT
1002
{
1070
     3
1000
224528
1002
}
  0
LINE
  5
2BC
  8
0
 10
545.4372442999678
 20
159.65684105367109
 30
0.0
 11
548.45559300370326
 21
179.6675505757288
 31
0.0
1001
REVIT
1002
{
1070
     3
1000
224528
1002
}
  0
LINE
  5
2BD
  8
0
 10
555.43833460193991
 20
173.4370989881032
 30
0.0
 11
555.43833460193991
 21
138.5000000000004
 31
0.0
1001
REVIT
1002
{
1070
     3
1000
224528
1002
}
  0
LINE
  5
2BE
  8
0
 10
555.43833460193991
 20
138.5000000000004
 30
0.0
 11
553.4383346019398
 21
133.5000000000004
 31
0.0
1001
REVIT
1002
{
1070
     3
1000
224528
1002
}
  0
LINE
  5
2BF
  8
0
 10
553.4383346019398
 20
133.5000000000004
 30
0.0
 11
545.4383346019398
 21
133.5000000000004
 31
0.0
1001
REVIT
1002
{
1070
     3
1000
224528
1002
}
  0
LINE
  5
2C0
  8
0
 10
545.4383346019398
 20
133.5000000000004
 30
0.0
 11
543.43833460193991
 21
138.5000000000004
 31
0.0
1001
REVIT
1002
{
1070
     3
1000
224528
1002
}
  0
LINE
  5
2C1
  8
0
 10
543.43833460193991
 20
138.5000000000004
 30
0.0
 11
535.43833460193991
 21
138.5000000000004
 31
0.0
1001
REVIT
1002
{
1070
     3
1000
224528
1002
}
  0
LINE
  5
2C2
  8
0
 10
535.43833460193991
 20
138.5000000000004
 30
0.0
 11
533.43833460193991
 21
133.5000000000004
 31
0.0
1001
REVIT
1002
{
1070
     3
1000
224528
1002
}
  0
LINE
  5
2C3
  8
0
 10
533.43833460193991
 20
133.5000000000004
 30
0.0
 11
525.43833460193991
 21
133.5000000000004
 31
0.0
1001
REVIT
1002
{
1070
     3
1000
224528
1002
}
  0
LINE
  5
2C4
  8
0
 10
525.43833460193991
 20
133.5000000000004
 30
0.0
 11
523.43833460193991
 21
138.5000000000004
 31
0.0
1001
REVIT
1002
{
1070
     3
1000
224528
1002
}
  0
LINE
  5
2C5
  8
0
 10
523.43833460193991
 20
138.5000000000004
 30
0.0
 11
515.43833460193991
 21
138.5000000000004
 31
0.0
1001
REVIT
1002
{
1070
     3
1000
224528
1002
}
  0
LINE
  5
2C6
  8
0
 10
515.43833460193991
 20
138.5000000000004
 30
0.0
 11
513.43833460193991
 21
133.5000000000004
 31
0.0
1001
REVIT
1002
{
1070
     3
1000
224528
1002
}
  0
LINE
  5
2C7
  8
0
 10
513.43833460193991
 20
133.5000000000004
 30
0.0
 11
505.43833460193991
 21
133.5000000000004
 31
0.0
1001
REVIT
1002
{
1070
     3
1000
224528
1002
}
  0
LINE
  5
2C8
  8
0
 10
505.43833460193991
 20
133.5000000000004
 30
0.0
 11
503.4383346019398
 21
138.5000000000004
 31
0.0
1001
REVIT
1002
{
1070
     3
1000
224528
1002
}
  0
LINE
  5
2C9
  8
0
 10
503.4383346019398
 20
138.5000000000004
 30
0.0
 11
495.4383346019398
 21
138.5000000000004
 31
0.0
1001
REVIT
1002
{
1070
     3
1000
224528
1002
}
  0
LINE
  5
2CA
  8
0
 10
495.4383346019398
 20
138.5000000000004
 30
0.0
 11
493.43833460193991
 21
133.5000000000004
 31
0.0
1001
REVIT
1002
{
1070
     3
1000
224528
1002
}
  0
LINE
  5
2CB
  8
0
 10
493.43833460193991
 20
133.5000000000004
 30
0.0
 11
485.43833460193991
 21
133.5000000000004
 31
0.0
1001
REVIT
1002
{
1070
     3
1000
224528
1002
}
  0
LINE
  5
2CC
  8
0
 10
485.43833460193991
 20
133.5000000000004
 30
0.0
 11
483.43833460193991
 21
138.5000000000004
 31
0.0
1001
REVIT
1002
{
1070
     3
1000
224528
1002
}
  0
LINE
  5
2CD
  8
0
 10
483.43833460193991
 20
138.5000000000004
 30
0.0
 11
475.43833460193991
 21
138.5000000000004
 31
0.0
1001
REVIT
1002
{
1070
     3
1000
224528
1002
}
  0
LINE
  5
2CE
  8
0
 10
475.43833460193991
 20
138.5000000000004
 30
0.0
 11
473.43833460193991
 21
133.50000000000031
 31
0.0
1001
REVIT
1002
{
1070
     3
1000
224528
1002
}
  0
LINE
  5
2CF
  8
0
 10
473.43833460193991
 20
133.50000000000031
 30
0.0
 11
465.43833460193991
 21
133.50000000000031
 31
0.0
1001
REVIT
1002
{
1070
     3
1000
224528
1002
}
  0
LINE
  5
2D0
  8
0
 10
465.43833460193991
 20
133.50000000000031
 30
0.0
 11
463.43833460193991
 21
138.5000000000004
 31
0.0
1001
REVIT
1002
{
1070
     3
1000
224528
1002
}
  0
LINE
  5
2D1
  8
0
 10
463.43833460193991
 20
138.5000000000004
 30
0.0
 11
454.42573365709262
 21
138.5000000000004
 31
0.0
1001
REVIT
1002
{
1070
     3
1000
224528
1002
}
  0
ARC
  5
2D2
  8
0
 10
452.92573365709262
 20
138.5000000000004
 30
0.0
 40
1.499999999999996
 50
180.0
 51
0.0
1001
REVIT
1002
{
1070
     3
1000
224528
1002
}
  0
LINE
  5
2D3
  8
0
 10
451.42573365709262
 20
138.5000000000004
 30
0.0
 11
442.42573365709262
 21
138.5000000000004
 31
0.0
1001
REVIT
1002
{
1070
     3
1000
224528
1002
}
  0
ARC
  5
2D4
  8
0
 10
440.92573365709262
 20
138.5000000000004
 30
0.0
 40
1.500000000000012
 50
180.0
 51
0.0
1001
REVIT
1002
{
1070
     3
1000
224528
1002
}
  0
LINE
  5
2D5
  8
0
 10
439.42573365709251
 20
138.5000000000004
 30
0.0
 11
430.42573365709262
 21
138.5000000000004
 31
0.0
1001
REVIT
1002
{
1070
     3
1000
224528
1002
}
  0
ARC
  5
2D6
  8
0
 10
428.92573365709251
 20
138.5000000000004
 30
0.0
 40
1.4999999999999849
 50
180.0
 51
0.0
1001
REVIT
1002
{
1070
     3
1000
224528
1002
}
  0
LINE
  5
2D7
  8
0
 10
427.42573365709262
 20
138.5000000000004
 30
0.0
 11
418.42573365709262
 21
138.5000000000004
 31
0.0
1001
REVIT
1002
{
1070
     3
1000
224528
1002
}
  0
ARC
  5
2D8
  8
0
 10
416.92573365709262
 20
138.5000000000004
 30
0.0
 40
1.5000000000000031
 50
180.0
 51
0.0
1001
REVIT
1002
{
1070
     3
1000
224528
1002
}
  0
LINE
  5
2D9
  8
0
 10
415.42573365709262
 20
138.5000000000004
 30
0.0
 11
406.42573365709262
 21
138.5000000000004
 31
0.0
1001
REVIT
1002
{
1070
     3
1000
224528
1002
}
  0
ARC
  5
2DA
  8
0
 10
404.92573365709262
 20
138.5000000000004
 30
0.0
 40
1.4999999999999889
 50
180.0
 51
0.0
1001
REVIT
1002
{
1070
     3
1000
224528
1002
}
  0
LINE
  5
2DB
  8
0
 10
403.42573365709262
 20
138.5000000000004
 30
0.0
 11
394.42573365709262
 21
138.5000000000004
 31
0.0
1001
REVIT
1002
{
1070
     3
1000
224528
1002
}
  0
ARC
  5
2DC
  8
0
 10
392.92573365709262
 20
138.5000000000004
 30
0.0
 40
1.499999999999998
 50
180.0
 51
0.0
1001
REVIT
1002
{
1070
     3
1000
224528
1002
}
  0
LINE
  5
2DD
  8
0
 10
391.42573365709262
 20
138.5000000000004
 30
0.0
 11
382.42573365709262
 21
138.5000000000004
 31
0.0
1001
REVIT
1002
{
1070
     3
1000
224528
1002
}
  0
ARC
  5
2DE
  8
0
 10
380.92573365709262
 20
138.5000000000004
 30
0.0
 40
1.5000000000000031
 50
180.0
 51
0.0
1001
REVIT
1002
{
1070
     3
1000
224528
1002
}
  0
LINE
  5
2DF
  8
0
 10
379.42573365709262
 20
138.5000000000004
 30
0.0
 11
370.43833460193991
 21
138.5000000000004
 31
0.0
1001
REVIT
1002
{
1070
     3
1000
224528
1002
}
  0
LINE
  5
2E0
  8
0
 10
370.43833460193991
 20
138.5000000000004
 30
0.0
 11
368.43833460193991
 21
133.50000000000031
 31
0.0
1001
REVIT
1002
{
1070
     3
1000
224528
1002
}
  0
LINE
  5
2E1
  8
0
 10
368.43833460193991
 20
133.50000000000031
 30
0.0
 11
359.43833460193991
 21
133.50000000000031
 31
0.0
1001
REVIT
1002
{
1070
     3
1000
224528
1002
}
  0
ARC
  5
2E2
  8
0
 10
357.93833460193991
 20
133.50000000000031
 30
0.0
 40
1.5
 50
0.0
 51
180.0
1001
REVIT
1002
{
1070
     3
1000
224528
1002
}
  0
LINE
  5
2E3
  8
0
 10
356.43833460193991
 20
133.50000000000031
 30
0.0
 11
347.43833460193991
 21
133.50000000000031
 31
0.0
1001
REVIT
1002
{
1070
     3
1000
224528
1002
}
  0
ARC
  5
2E4
  8
0
 10
345.93833460193991
 20
133.50000000000031
 30
0.0
 40
1.5
 50
0.0
 51
180.0
1001
REVIT
1002
{
1070
     3
1000
224528
1002
}
  0
LINE
  5
2E5
  8
0
 10
344.43833460193991
 20
133.50000000000031
 30
0.0
 11
335.43833460193991
 21
133.50000000000031
 31
0.0
1001
REVIT
1002
{
1070
     3
1000
224528
1002
}
  0
ARC
  5
2E6
  8
0
 10
333.93833460193991
 20
133.50000000000031
 30
0.0
 40
1.5
 50
0.0
 51
180.0
1001
REVIT
1002
{
1070
     3
1000
224528
1002
}
  0
LINE
  5
2E7
  8
0
 10
332.43833460193991
 20
133.50000000000031
 30
0.0
 11
323.43833460193991
 21
133.50000000000031
 31
0.0
1001
REVIT
1002
{
1070
     3
1000
224528
1002
}
  0
ARC
  5
2E8
  8
0
 10
321.93833460193991
 20
133.50000000000031
 30
0.0
 40
1.5
 50
0.0
 51
180.0
1001
REVIT
1002
{
1070
     3
1000
224528
1002
}
  0
LINE
  5
2E9
  8
0
 10
320.43833460193991
 20
133.50000000000031
 30
0.0
 11
311.43833460193991
 21
133.50000000000031
 31
0.0
1001
REVIT
1002
{
1070
     3
1000
224528
1002
}
  0
ARC
  5
2EA
  8
0
 10
309.93833460193991
 20
133.50000000000031
 30
0.0
 40
1.5
 50
0.0
 51
180.0
1001
REVIT
1002
{
1070
     3
1000
224528
1002
}
  0
LINE
  5
2EB
  8
0
 10
308.43833460193991
 20
133.50000000000031
 30
0.0
 11
299.43833460193991
 21
133.50000000000031
 31
0.0
1001
REVIT
1002
{
1070
     3
1000
224528
1002
}
  0
ARC
  5
2EC
  8
0
 10
297.93833460193991
 20
133.50000000000031
 30
0.0
 40
1.5
 50
0.0
 51
180.0
1001
REVIT
1002
{
1070
     3
1000
224528
1002
}
  0
LINE
  5
2ED
  8
0
 10
296.43833460193991
 20
133.50000000000031
 30
0.0
 11
287.43833460193991
 21
133.50000000000031
 31
0.0
1001
REVIT
1002
{
1070
     3
1000
224528
1002
}
  0
ARC
  5
2EE
  8
0
 10
285.93833460193991
 20
133.50000000000031
 30
0.0
 40
1.5
 50
0.0
 51
180.0
1001
REVIT
1002
{
1070
     3
1000
224528
1002
}
  0
LINE
  5
2EF
  8
0
 10
284.43833460193991
 20
133.50000000000031
 30
0.0
 11
275.42573365709262
 21
133.50000000000031
 31
0.0
1001
REVIT
1002
{
1070
     3
1000
224528
1002
}
  0
ARC
  5
2F0
  8
0
 10
273.92573365709262
 20
133.50000000000031
 30
0.0
 40
1.5
 50
0.0
 51
180.0
1001
REVIT
1002
{
1070
     3
1000
224528
1002
}
  0
LINE
  5
2F1
  8
0
 10
272.42573365709262
 20
133.50000000000031
 30
0.0
 11
263.42573365709262
 21
133.50000000000031
 31
0.0
1001
REVIT
1002
{
1070
     3
1000
224528
1002
}
  0
ARC
  5
2F2
  8
0
 10
261.92573365709262
 20
133.50000000000031
 30
0.0
 40
1.5
 50
0.0
 51
180.0
1001
REVIT
1002
{
1070
     3
1000
224528
1002
}
  0
LINE
  5
2F3
  8
0
 10
260.42573365709262
 20
133.50000000000031
 30
0.0
 11
251.42573365709259
 21
133.50000000000031
 31
0.0
1001
REVIT
1002
{
1070
     3
1000
224528
1002
}
  0
ARC
  5
2F4
  8
0
 10
249.92573365709259
 20
133.50000000000031
 30
0.0
 40
1.5
 50
0.0
 51
180.0
1001
REVIT
1002
{
1070
     3
1000
224528
1002
}
  0
LINE
  5
2F5
  8
0
 10
248.42573365709259
 20
133.50000000000031
 30
0.0
 11
239.42573365709259
 21
133.50000000000031
 31
0.0
1001
REVIT
1002
{
1070
     3
1000
224528
1002
}
  0
ARC
  5
2F6
  8
0
 10
237.92573365709259
 20
133.50000000000031
 30
0.0
 40
1.5
 50
0.0
 51
180.0
1001
REVIT
1002
{
1070
     3
1000
224528
1002
}
  0
LINE
  5
2F7
  8
0
 10
236.42573365709259
 20
133.50000000000031
 30
0.0
 11
227.4131327122453
 21
133.50000000000031
 31
0.0
1001
REVIT
1002
{
1070
     3
1000
224528
1002
}
  0
LINE
  5
2F8
  8
0
 10
227.4131327122453
 20
133.50000000000031
 30
0.0
 11
225.4131327122453
 21
138.5000000000004
 31
0.0
1001
REVIT
1002
{
1070
     3
1000
224528
1002
}
  0
LINE
  5
2F9
  8
0
 10
225.4131327122453
 20
138.5000000000004
 30
0.0
 11
216.40053176739801
 21
138.5000000000004
 31
0.0
1001
REVIT
1002
{
1070
     3
1000
224528
1002
}
  0
ARC
  5
2FA
  8
0
 10
214.90053176739801
 20
138.5000000000004
 30
0.0
 40
1.5000000000000031
 50
180.0
 51
0.0
1001
REVIT
1002
{
1070
     3
1000
224528
1002
}
  0
LINE
  5
2FB
  8
0
 10
213.40053176739809
 20
138.5000000000004
 30
0.0
 11
204.40053176739801
 21
138.5000000000004
 31
0.0
1001
REVIT
1002
{
1070
     3
1000
224528
1002
}
  0
ARC
  5
2FC
  8
0
 10
202.90053176739801
 20
138.5000000000004
 30
0.0
 40
1.5000000000000031
 50
180.0
 51
0.0
1001
REVIT
1002
{
1070
     3
1000
224528
1002
}
  0
LINE
  5
2FD
  8
0
 10
201.40053176739801
 20
138.5000000000004
 30
0.0
 11
192.40053176739801
 21
138.5000000000004
 31
0.0
1001
REVIT
1002
{
1070
     3
1000
224528
1002
}
  0
ARC
  5
2FE
  8
0
 10
190.90053176739801
 20
138.5000000000004
 30
0.0
 40
1.5000000000000031
 50
180.0
 51
0.0
1001
REVIT
1002
{
1070
     3
1000
224528
1002
}
  0
LINE
  5
2FF
  8
0
 10
189.40053176739801
 20
138.5000000000004
 30
0.0
 11
180.40053176739801
 21
138.5000000000004
 31
0.0
1001
REVIT
1002
{
1070
     3
1000
224528
1002
}
  0
ARC
  5
300
  8
0
 10
178.90053176739801
 20
138.5000000000004
 30
0.0
 40
1.5000000000000031
 50
180.0
 51
0.0
1001
REVIT
1002
{
1070
     3
1000
224528
1002
}
  0
LINE
  5
301
  8
0
 10
177.40053176739801
 20
138.5000000000004
 30
0.0
 11
168.38793082255069
 21
138.5000000000004
 31
0.0
1001
REVIT
1002
{
1070
     3
1000
224528
1002
}
  0
ARC
  5
302
  8
0
 10
166.88793082255069
 20
138.5000000000004
 30
0.0
 40
1.5000000000000031
 50
180.0
 51
0.0
1001
REVIT
1002
{
1070
     3
1000
224528
1002
}
  0
LINE
  5
303
  8
0
 10
165.38793082255069
 20
138.5000000000004
 30
0.0
 11
156.38793082255069
 21
138.5000000000004
 31
0.0
1001
REVIT
1002
{
1070
     3
1000
224528
1002
}
  0
ARC
  5
304
  8
0
 10
154.88793082255069
 20
138.5000000000004
 30
0.0
 40
1.5000000000000031
 50
180.0
 51
0.0
1001
REVIT
1002
{
1070
     3
1000
224528
1002
}
  0
LINE
  5
305
  8
0
 10
153.38793082255069
 20
138.5000000000004
 30
0.0
 11
144.38793082255069
 21
138.5000000000004
 31
0.0
1001
REVIT
1002
{
1070
     3
1000
224528
1002
}
  0
ARC
  5
306
  8
0
 10
142.88793082255069
 20
138.5000000000004
 30
0.0
 40
1.5000000000000031
 50
180.0
 51
0.0
1001
REVIT
1002
{
1070
     3
1000
224528
1002
}
  0
LINE
  5
307
  8
0
 10
141.38793082255069
 20
138.5000000000004
 30
0.0
 11
132.38793082255069
 21
138.5000000000004
 31
0.0
1001
REVIT
1002
{
1070
     3
1000
224528
1002
}
  0
ARC
  5
308
  8
0
 10
130.88793082255069
 20
138.5000000000004
 30
0.0
 40
1.5000000000000031
 50
180.0
 51
0.0
1001
REVIT
1002
{
1070
     3
1000
224528
1002
}
  0
LINE
  5
309
  8
0
 10
129.38793082255069
 20
138.5000000000004
 30
0.0
 11
120.3879308225507
 21
138.5000000000004
 31
0.0
1001
REVIT
1002
{
1070
     3
1000
224528
1002
}
  0
ARC
  5
30A
  8
0
 10
118.8879308225507
 20
138.5000000000004
 30
0.0
 40
1.5000000000000031
 50
180.0
 51
0.0
1001
REVIT
1002
{
1070
     3
1000
224528
1002
}
  0
LINE
  5
30B
  8
0
 10
117.3879308225507
 20
138.5000000000004
 30
0.0
 11
108.3879308225507
 21
138.5000000000004
 31
0.0
1001
REVIT
1002
{
1070
     3
1000
224528
1002
}
  0
ARC
  5
30C
  8
0
 10
106.8879308225507
 20
138.5000000000004
 30
0.0
 40
1.5000000000000031
 50
180.0
 51
0.0
1001
REVIT
1002
{
1070
     3
1000
224528
1002
}
  0
LINE
  5
30D
  8
0
 10
105.3879308225507
 20
138.5000000000004
 30
0.0
 11
96.387930822550743
 21
138.5000000000004
 31
0.0
1001
REVIT
1002
{
1070
     3
1000
224528
1002
}
  0
ARC
  5
30E
  8
0
 10
94.887930822550743
 20
138.5000000000004
 30
0.0
 40
1.5000000000000031
 50
180.0
 51
0.0
1001
REVIT
1002
{
1070
     3
1000
224528
1002
}
  0
LINE
  5
30F
  8
0
 10
93.387930822550743
 20
138.5000000000004
 30
0.0
 11
84.387930822550743
 21
138.5000000000004
 31
0.0
1001
REVIT
1002
{
1070
     3
1000
224528
1002
}
  0
LINE
  5
310
  8
0
 10
84.387930822550743
 20
138.5000000000004
 30
0.0
 11
82.387930822550743
 21
133.50000000000031
 31
0.0
1001
REVIT
1002
{
1070
     3
1000
224528
1002
}
  0
LINE
  5
311
  8
0
 10
82.387930822550743
 20
133.50000000000031
 30
0.0
 11
73.400531767397979
 21
133.50000000000031
 31
0.0
1001
REVIT
1002
{
1070
     3
1000
224528
1002
}
  0
ARC
  5
312
  8
0
 10
71.900531767397979
 20
133.50000000000031
 30
0.0
 40
1.5
 50
0.0
 51
180.0
1001
REVIT
1002
{
1070
     3
1000
224528
1002
}
  0
LINE
  5
313
  8
0
 10
70.400531767397979
 20
133.50000000000031
 30
0.0
 11
61.400531767398043
 21
133.50000000000031
 31
0.0
1001
REVIT
1002
{
1070
     3
1000
224528
1002
}
  0
ARC
  5
314
  8
0
 10
59.900531767398029
 20
133.50000000000031
 30
0.0
 40
1.5
 50
0.0
 51
180.0
1001
REVIT
1002
{
1070
     3
1000
224528
1002
}
  0
LINE
  5
315
  8
0
 10
58.400531767398043
 20
133.50000000000031
 30
0.0
 11
49.400531767398029
 21
133.50000000000031
 31
0.0
1001
REVIT
1002
{
1070
     3
1000
224528
1002
}
  0
ARC
  5
316
  8
0
 10
47.900531767398029
 20
133.50000000000031
 30
0.0
 40
1.5
 50
0.0
 51
180.0
1001
REVIT
1002
{
1070
     3
1000
224528
1002
}
  0
LINE
  5
317
  8
0
 10
46.400531767398043
 20
133.50000000000031
 30
0.0
 11
37.400531767397979
 21
133.50000000000031
 31
0.0
1001
REVIT
1002
{
1070
     3
1000
224528
1002
}
  0
ARC
  5
318
  8
0
 10
35.900531767397979
 20
133.50000000000031
 30
0.0
 40
1.5
 50
0.0
 51
180.0
1001
REVIT
1002
{
1070
     3
1000
224528
1002
}
  0
LINE
  5
319
  8
0
 10
34.400531767397979
 20
133.50000000000031
 30
0.0
 11
25.400531767397979
 21
133.50000000000031
 31
0.0
1001
REVIT
1002
{
1070
     3
1000
224528
1002
}
  0
ARC
  5
31A
  8
0
 10
23.900531767397979
 20
133.50000000000031
 30
0.0
 40
1.5
 50
0.0
 51
180.0
1001
REVIT
1002
{
1070
     3
1000
224528
1002
}
  0
LINE
  5
31B
  8
0
 10
22.400531767397979
 20
133.50000000000031
 30
0.0
 11
13.400531767397981
 21
133.50000000000031
 31
0.0
1001
REVIT
1002
{
1070
     3
1000
224528
1002
}
  0
ARC
  5
31C
  8
0
 10
11.900531767397981
 20
133.50000000000031
 30
0.0
 40
1.5
 50
0.0
 51
180.0
1001
REVIT
1002
{
1070
     3
1000
224528
1002
}
  0
LINE
  5
31D
  8
0
 10
10.400531767397981
 20
133.50000000000031
 30
0.0
 11
1.400531767397978
 21
133.50000000000031
 31
0.0
1001
REVIT
1002
{
1070
     3
1000
224528
1002
}
  0
ARC
  5
31E
  8
0
 10
-0.0994682326020211
 20
133.50000000000031
 30
0.0
 40
1.5
 50
0.0
 51
180.0
1001
REVIT
1002
{
1070
     3
1000
224528
1002
}
  0
LINE
  5
31F
  8
0
 10
-1.5994682326020211
 20
133.50000000000031
 30
0.0
 11
-10.61206917744925
 21
133.50000000000031
 31
0.0
1001
REVIT
1002
{
1070
     3
1000
224528
1002
}
  0
LINE
  5
320
  8
0
 10
-10.61206917744925
 20
133.50000000000031
 30
0.0
 11
-12.58686728775478
 21
138.5000000000004
 31
0.0
1001
REVIT
1002
{
1070
     3
1000
224528
1002
}
  0
LINE
  5
321
  8
0
 10
-12.58686728775478
 20
138.5000000000004
 30
0.0
 11
-21.586867287754782
 21
138.5000000000004
 31
0.0
1001
REVIT
1002
{
1070
     3
1000
224528
1002
}
  0
ARC
  5
322
  8
0
 10
-23.086867287754782
 20
138.5000000000004
 30
0.0
 40
1.5000000000000031
 50
180.0
 51
0.0
1001
REVIT
1002
{
1070
     3
1000
224528
1002
}
  0
LINE
  5
323
  8
0
 10
-24.586867287754789
 20
138.5000000000004
 30
0.0
 11
-33.586867287754792
 21
138.5000000000004
 31
0.0
1001
REVIT
1002
{
1070
     3
1000
224528
1002
}
  0
ARC
  5
324
  8
0
 10
-35.086867287754792
 20
138.5000000000004
 30
0.0
 40
1.5000000000000031
 50
180.0
 51
0.0
1001
REVIT
1002
{
1070
     3
1000
224528
1002
}
  0
LINE
  5
325
  8
0
 10
-36.586867287754778
 20
138.5000000000004
 30
0.0
 11
-45.586867287754778
 21
138.5000000000004
 31
0.0
1001
REVIT
1002
{
1070
     3
1000
224528
1002
}
  0
ARC
  5
326
  8
0
 10
-47.086867287754778
 20
138.5000000000004
 30
0.0
 40
1.5000000000000031
 50
180.0
 51
0.0
1001
REVIT
1002
{
1070
     3
1000
224528
1002
}
  0
LINE
  5
327
  8
0
 10
-48.586867287754778
 20
138.5000000000004
 30
0.0
 11
-57.586867287754792
 21
138.5000000000004
 31
0.0
1001
REVIT
1002
{
1070
     3
1000
224528
1002
}
  0
ARC
  5
328
  8
0
 10
-59.086867287754778
 20
138.5000000000004
 30
0.0
 40
1.5
 50
180.0
 51
0.0
1001
REVIT
1002
{
1070
     3
1000
224528
1002
}
  0
LINE
  5
329
  8
0
 10
-60.586867287754671
 20
138.5000000000004
 30
0.0
 11
-69.586867287754785
 21
138.5000000000004
 31
0.0
1001
REVIT
1002
{
1070
     3
1000
224528
1002
}
  0
ARC
  5
32A
  8
0
 10
-71.086867287754899
 20
138.5000000000004
 30
0.0
 40
1.5000000000001139
 50
180.0
 51
0.0
1001
REVIT
1002
{
1070
     3
1000
224528
1002
}
  0
LINE
  5
32B
  8
0
 10
-72.586867287754899
 20
138.5000000000004
 30
0.0
 11
-81.586867287754785
 21
138.5000000000004
 31
0.0
1001
REVIT
1002
{
1070
     3
1000
224528
1002
}
  0
ARC
  5
32C
  8
0
 10
-83.086867287754785
 20
138.5000000000004
 30
0.0
 40
1.5000000000000651
 50
180.0
 51
0.0
1001
REVIT
1002
{
1070
     3
1000
224528
1002
}
  0
LINE
  5
32D
  8
0
 10
-84.586867287754885
 20
138.5000000000004
 30
0.0
 11
-93.586867287754785
 21
138.5000000000004
 31
0.0
1001
REVIT
1002
{
1070
     3
1000
224528
1002
}
  0
ARC
  5
32E
  8
0
 10
-95.086867287754785
 20
138.5000000000004
 30
0.0
 40
1.5000000000000651
 50
180.0
 51
0.0
1001
REVIT
1002
{
1070
     3
1000
224528
1002
}
  0
LINE
  5
32F
  8
0
 10
-96.586867287754899
 20
138.5000000000004
 30
0.0
 11
-105.59946823260201
 21
138.5000000000004
 31
0.0
1001
REVIT
1002
{
1070
     3
1000
224528
1002
}
  0
ARC
  5
330
  8
0
 10
-107.09946823260201
 20
138.5000000000004
 30
0.0
 40
1.5000000000000651
 50
180.0
 51
0.0
1001
REVIT
1002
{
1070
     3
1000
224528
1002
}
  0
LINE
  5
331
  8
0
 10
-108.59946823260211
 20
138.5000000000004
 30
0.0
 11
-117.59946823260211
 21
138.5000000000004
 31
0.0
1001
REVIT
1002
{
1070
     3
1000
224528
1002
}
  0
ARC
  5
332
  8
0
 10
-119.09946823260201
 20
138.5000000000004
 30
0.0
 40
1.4999999999999301
 50
180.0
 51
0.0
1001
REVIT
1002
{
1070
     3
1000
224528
1002
}
  0
LINE
  5
333
  8
0
 10
-120.59946823260189
 20
138.5000000000004
 30
0.0
 11
-129.59946823260199
 21
138.5000000000004
 31
0.0
1001
REVIT
1002
{
1070
     3
1000
224528
1002
}
  0
ARC
  5
334
  8
0
 10
-131.09946823260199
 20
138.5000000000004
 30
0.0
 40
1.5
 50
180.0
 51
0.0
1001
REVIT
1002
{
1070
     3
1000
224528
1002
}
  0
LINE
  5
335
  8
0
 10
-132.59946823260191
 20
138.5000000000004
 30
0.0
 11
-141.59946823260199
 21
138.5000000000004
 31
0.0
1001
REVIT
1002
{
1070
     3
1000
224528
1002
}
  0
ARC
  5
336
  8
0
 10
-143.09946823260199
 20
138.5000000000004
 30
0.0
 40
1.5
 50
180.0
 51
0.0
1001
REVIT
1002
{
1070
     3
1000
224528
1002
}
  0
LINE
  5
337
  8
0
 10
-144.59946823260191
 20
138.5000000000004
 30
0.0
 11
-153.6120691774494
 21
138.5000000000004
 31
0.0
1001
REVIT
1002
{
1070
     3
1000
224528
1002
}
  0
LINE
  5
338
  8
0
 10
-153.6120691774494
 20
138.5000000000004
 30
0.0
 11
-155.61206917744909
 21
133.50000000000111
 31
0.0
1001
REVIT
1002
{
1070
     3
1000
224528
1002
}
  0
LINE
  5
339
  8
0
 10
-155.61206917744909
 20
133.50000000000111
 30
0.0
 11
-164.59946823260199
 21
133.50000000000111
 31
0.0
1001
REVIT
1002
{
1070
     3
1000
224528
1002
}
  0
ARC
  5
33A
  8
0
 10
-166.09946823260191
 20
133.50000000000111
 30
0.0
 40
1.4999999999998861
 50
0.0
 51
180.0
1001
REVIT
1002
{
1070
     3
1000
224528
1002
}
  0
LINE
  5
33B
  8
0
 10
-167.59946823260179
 20
133.50000000000111
 30
0.0
 11
-176.59946823260191
 21
133.50000000000111
 31
0.0
1001
REVIT
1002
{
1070
     3
1000
224528
1002
}
  0
ARC
  5
33C
  8
0
 10
-178.09946823260191
 20
133.50000000000111
 30
0.0
 40
1.5
 50
0.0
 51
180.0
1001
REVIT
1002
{
1070
     3
1000
224528
1002
}
  0
LINE
  5
33D
  8
0
 10
-179.59946823260179
 20
133.50000000000111
 30
0.0
 11
-188.59946823260191
 21
133.50000000000111
 31
0.0
1001
REVIT
1002
{
1070
     3
1000
224528
1002
}
  0
ARC
  5
33E
  8
0
 10
-190.09946823260191
 20
133.50000000000111
 30
0.0
 40
1.5
 50
0.0
 51
180.0
1001
REVIT
1002
{
1070
     3
1000
224528
1002
}
  0
LINE
  5
33F
  8
0
 10
-191.59946823260179
 20
133.50000000000111
 30
0.0
 11
-200.59946823260191
 21
133.50000000000111
 31
0.0
1001
REVIT
1002
{
1070
     3
1000
224528
1002
}
  0
ARC
  5
340
  8
0
 10
-202.09946823260179
 20
133.50000000000111
 30
0.0
 40
1.4999999999998861
 50
0.0
 51
180.0
1001
REVIT
1002
{
1070
     3
1000
224528
1002
}
  0
LINE
  5
341
  8
0
 10
-203.59946823260179
 20
133.50000000000111
 30
0.0
 11
-212.59946823260191
 21
133.50000000000111
 31
0.0
1001
REVIT
1002
{
1070
     3
1000
224528
1002
}
  0
ARC
  5
342
  8
0
 10
-214.09946823260179
 20
133.50000000000111
 30
0.0
 40
1.4999999999998861
 50
0.0
 51
180.0
1001
REVIT
1002
{
1070
     3
1000
224528
1002
}
  0
LINE
  5
343
  8
0
 10
-215.59946823260179
 20
133.50000000000111
 30
0.0
 11
-220.09946823260179
 21
133.50000000000111
 31
0.0
1001
REVIT
1002
{
1070
     3
1000
224528
1002
}
  0
LINE
  5
344
  8
0
 10
557.46958460193991
 20
173.4370989881032
 30
0.0
 11
557.46958460193991
 21
168.5000000000004
 31
0.0
1001
REVIT
1002
{
1070
     3
1000
224528
1002
}
  0
ARC
  5
345
  8
0
 10
556.45395960193991
 20
173.4370989881032
 30
0.0
 40
1.0156250000000071
 50
0.0
 51
180.0
1001
REVIT
1002
{
1070
     3
1000
224528
1002
}
  0
LINE
  5
346
  8
0
  6
DASH
 10
555.4383346019398
 20
102.5000000000003
 30
0.0
 11
-220.17162953024669
 21
102.5000000000003
 31
0.0
1001
REVIT
1002
{
1070
     3
1000
217411
1002
}
  0
LINE
  5
347
  8
0
  6
DASH
 10
555.43833460193991
 20
130.5000000000004
 30
0.0
 11
555.4383346019398
 21
102.5000000000004
 31
0.0
1001
REVIT
1002
{
1070
     3
1000
217411
1002
}
  0
LINE
  5
348
  8
0
 10
549.61884502440466
 20
-7.0000000000004361
 30
0.0
 11
549.61884502440466
 21
-1.00000000000027
 31
0.0
1001
REVIT
1002
{
1070
     3
1000
211597
1002
}
  0
LINE
  5
349
  8
0
 10
549.61884502440466
 20
-1.00000000000027
 30
0.0
 11
5.3082411351715564
 21
-1.00000000000027
 31
0.0
1001
REVIT
1002
{
1070
     3
1000
211597
1002
}
  0
LINE
  5
34A
  8
0
 10
5.3082411351715564
 20
-1.00000000000027
 30
0.0
 11
5.3082411351715564
 21
-7.0000000000004361
 31
0.0
1001
REVIT
1002
{
1070
     3
1000
211597
1002
}
  0
LINE
  5
34B
  8
0
 10
5.3082411351715564
 20
-7.0000000000004361
 30
0.0
 11
549.61884502440466
 21
-7.0000000000004361
 31
0.0
1001
REVIT
1002
{
1070
     3
1000
211597
1002
}
  0
LINE
  5
34C
  8
0
 10
552.43833460194026
 20
105.5000000000029
 30
0.0
 11
552.43833460194026
 21
130.5000000000031
 31
0.0
1001
REVIT
1002
{
1070
     3
1000
211597
1002
}
  0
LINE
  5
34D
  8
0
 10
552.43833460194026
 20
130.5000000000031
 30
0.0
 11
-220.17162953024669
 21
130.5000000000031
 31
0.0
1001
REVIT
1002
{
1070
     3
1000
211597
1002
}
  0
LINE
  5
34E
  8
0
 10
-220.17162953024669
 20
105.5000000000029
 30
0.0
 11
552.43833460194026
 21
105.5000000000029
 31
0.0
1001
REVIT
1002
{
1070
     3
1000
211597
1002
}
  0
VIEWPORT
  5
23F
 67
     1
  8
0
 10
128.5
 20
97.5
 30
0.0
 40
625.60341753343243
 41
222.18000000000001
 68
     1
 69
     1
1001
ACAD
1000
MVIEW
1002
{
1070
    16
1010
0.0
1020
0.0
1030
0.0
1010
0.0
1020
0.0
1030
1.0
1040
0.0
1040
222.18000000000001
1040
128.5
1040
97.5
1040
50.0
1040
0.0
1040
0.0
1070
     0
1070
   100
1070
     1
1070
     1
1070
     0
1070
     0
1070
     0
1070
     0
1040
0.0
1040
0.0
1040
0.0
1040
10.0
1040
10.0
1040
10.0
1040
10.0
1070
     0
1002
{
1002
}
1002
}
  0
VIEWPORT
  5
243
 67
     1
  8
0
 10
128.5
 20
97.5
 30
0.0
 40
205.59999999999999
 41
156.0
 68
     2
 69
     2
1001
ACAD
1000
MVIEW
1002
{
1070
    16
1010
0.0
1020
0.0
1030
0.0
1010
0.0
1020
0.0
1030
1.0
1040
0.0
1040
988.08740315449825
1040
276.26950158487028
1040
46.300398251758217
1040
50.0
1040
0.0
1040
0.0
1070
     0
1070
  1000
1070
     1
1070
     1
1070
     0
1070
     0
1070
     0
1070
     0
1040
0.0
1040
0.0
1040
0.0
1040
1.0
1040
1.0
1040
0.0
1040
0.0
1070
     0
1002
{
1002
}
1002
}
  0
ENDSEC
  0
EOF
