  0
SECTION
  2
HEADER
  9
$ACADVER
  1
AC1009
  9
$INSBASE
 10
0.0
 20
0.0
 30
0.0
  9
$EXTMIN
 10
-730.38094868238966
 20
-243.28154087428661
 30
0.0
  9
$EXTMAX
 10
309.86016373156849
 20
467.07633926360461
 30
0.0
  9
$LIMMIN
 10
0.0
 20
0.0
  9
$LIMMAX
 10
12.0
 20
9.0
  9
$ORTHOMODE
 70
     0
  9
$REGENMODE
 70
     1
  9
$FILLMODE
 70
     1
  9
$QTEXTMODE
 70
     0
  9
$MIRRTEXT
 70
     0
  9
$DRAGMODE
 70
     2
  9
$LTSCALE
 40
1.0
  9
$OSMODE
 70
     0
  9
$ATTMODE
 70
     1
  9
$TEXTSIZE
 40
0.2
  9
$TRACEWID
 40
0.05
  9
$TEXTSTYLE
  7
STANDARD
  9
$CLAYER
  8
0
  9
$CELTYPE
  6
BYLAYER
  9
$CECOLOR
 62
   256
  9
$DIMSCALE
 40
1.0
  9
$DIMASZ
 40
0.18
  9
$DIMEXO
 40
0.0625
  9
$DIMDLI
 40
0.38
  9
$DIMRND
 40
0.0
  9
$DIMDLE
 40
0.0
  9
$DIMEXE
 40
0.18
  9
$DIMTP
 40
0.0
  9
$DIMTM
 40
0.0
  9
$DIMTXT
 40
0.18
  9
$DIMCEN
 40
0.09
  9
$DIMTSZ
 40
0.0
  9
$DIMTOL
 70
     0
  9
$DIMLIM
 70
     0
  9
$DIMTIH
 70
     1
  9
$DIMTOH
 70
     1
  9
$DIMSE1
 70
     0
  9
$DIMSE2
 70
     0
  9
$DIMTAD
 70
     0
  9
$DIMZIN
 70
     0
  9
$DIMBLK
  1

  9
$DIMASO
 70
     1
  9
$DIMSHO
 70
     1
  9
$DIMPOST
  1

  9
$DIMAPOST
  1

  9
$DIMALT
 70
     0
  9
$DIMALTD
 70
     2
  9
$DIMALTF
 40
25.399999999999999
  9
$DIMLFAC
 40
1.0
  9
$DIMTOFL
 70
     0
  9
$DIMTVP
 40
0.0
  9
$DIMTIX
 70
     0
  9
$DIMSOXD
 70
     0
  9
$DIMSAH
 70
     0
  9
$DIMBLK1
  1

  9
$DIMBLK2
  1

  9
$DIMSTYLE
  2
STANDARD
  9
$DIMCLRD
 70
     0
  9
$DIMCLRE
 70
     0
  9
$DIMCLRT
 70
     0
  9
$DIMTFAC
 40
1.0
  9
$DIMGAP
 40
0.09
  9
$LUNITS
 70
     2
  9
$LUPREC
 70
     4
  9
$SKETCHINC
 40
0.1
  9
$FILLETRAD
 40
0.0
  9
$AUNITS
 70
     0
  9
$AUPREC
 70
     0
  9
$MENU
  1
.
  9
$ELEVATION
 40
0.0
  9
$PELEVATION
 40
0.0
  9
$THICKNESS
 40
0.0
  9
$LIMCHECK
 70
     0
  9
$BLIPMODE
 70
     0
  9
$CHAMFERA
 40
0.0
  9
$CHAMFERB
 40
0.0
  9
$SKPOLY
 70
     0
  9
$TDCREATE
 40
2458206.6261805561
  9
$TDUPDATE
 40
2458206.6490463661
  9
$TDINDWG
 40
0.0001058449
  9
$TDUSRTIMER
 40
0.0001058449
  9
$USRTIMER
 70
     1
  9
$ANGBASE
 50
0.0
  9
$ANGDIR
 70
     0
  9
$PDMODE
 70
     0
  9
$PDSIZE
 40
0.0
  9
$PLINEWID
 40
0.0
  9
$COORDS
 70
     2
  9
$SPLFRAME
 70
     0
  9
$SPLINETYPE
 70
     6
  9
$SPLINESEGS
 70
     8
  9
$ATTDIA
 70
     1
  9
$ATTREQ
 70
     0
  9
$HANDLING
 70
     1
  9
$HANDSEED
  5
792
  9
$SURFTAB1
 70
     6
  9
$SURFTAB2
 70
     6
  9
$SURFTYPE
 70
     6
  9
$SURFU
 70
     6
  9
$SURFV
 70
     6
  9
$UCSNAME
  2

  9
$UCSORG
 10
0.0
 20
0.0
 30
0.0
  9
$UCSXDIR
 10
1.0
 20
0.0
 30
0.0
  9
$UCSYDIR
 10
0.0
 20
1.0
 30
0.0
  9
$PUCSNAME
  2

  9
$PUCSORG
 10
0.0
 20
0.0
 30
0.0
  9
$PUCSXDIR
 10
1.0
 20
0.0
 30
0.0
  9
$PUCSYDIR
 10
0.0
 20
1.0
 30
0.0
  9
$USERI1
 70
     0
  9
$USERI2
 70
     0
  9
$USERI3
 70
     0
  9
$USERI4
 70
     0
  9
$USERI5
 70
     0
  9
$USERR1
 40
0.0
  9
$USERR2
 40
0.0
  9
$USERR3
 40
0.0
  9
$USERR4
 40
0.0
  9
$USERR5
 40
0.0
  9
$WORLDVIEW
 70
     1
  9
$SHADEDGE
 70
     3
  9
$SHADEDIF
 70
    70
  9
$TILEMODE
 70
     1
  9
$MAXACTVP
 70
    64
  9
$PLIMCHECK
 70
     0
  9
$PEXTMIN
 10
25.699999999999989
 20
19.5
 30
0.0
  9
$PEXTMAX
 10
231.30000000000001
 20
175.5
 30
0.0
  9
$PLIMMIN
 10
-20.0
 20
-7.5
  9
$PLIMMAX
 10
277.0
 20
202.5
  9
$UNITMODE
 70
     0
  9
$VISRETAIN
 70
     1
  9
$PLINEGEN
 70
     0
  9
$PSLTSCALE
 70
     1
  0
ENDSEC
  0
SECTION
  2
TABLES
  0
TABLE
  2
VPORT
 70
     1
  0
VPORT
  2
*ACTIVE
 70
     0
 10
0.0
 20
0.0
 11
1.0
 21
1.0
 12
263.52306108861131
 22
111.8973991946589
 13
0.0
 23
0.0
 14
1.0
 24
1.0
 15
0.0
 25
0.0
 16
0.0
 26
0.0
 36
1.0
 17
0.0
 27
0.0
 37
0.0
 40
710.35788013789136
 41
2.7949852507374628
 42
50.0
 43
0.0
 44
0.0
 50
0.0
 51
0.0
 71
     0
 72
  1000
 73
     1
 74
     1
 75
     0
 76
     0
 77
     0
 78
     0
  0
ENDTAB
  0
TABLE
  2
LTYPE
 70
     2
  0
LTYPE
  2
CONTINUOUS
 70
     0
  3
Solid line
 72
    65
 73
     0
 40
0.0
  0
LTYPE
  2
DASH
 70
     0
  3

 72
    65
 73
     2
 40
6.3499999999999996
 49
3.1749999999999998
 49
-3.1749999999999998
  0
ENDTAB
  0
TABLE
  2
LAYER
 70
     8
  0
LAYER
  2
0
 70
     0
 62
     7
  6
CONTINUOUS
  0
ENDTAB
  0
TABLE
  2
STYLE
 70
     8
  0
STYLE
  2
STANDARD
 70
     0
 40
0.0
 41
1.0
 50
0.0
 71
     0
 42
0.2
  3
txt
  4

  0
STYLE
  2
ARIAL
 70
     0
 40
12.5
 41
1.0
 50
0.0
 71
     0
 42
0.2
  3
txt
  4

  0
ENDTAB
  0
TABLE
  2
VIEW
 70
     1
  0
ENDTAB
  0
TABLE
  2
UCS
 70
     0
  0
ENDTAB
  0
TABLE
  2
APPID
 70
     6
  0
APPID
  2
ACAD
 70
     0
  0
APPID
  2
ACADANNOTATIVE
 70
     0
  0
APPID
  2
REVIT
 70
     0
  0
APPID
  2
ACAD_PSEXT
 70
     0
  0
APPID
  2
ACAD_NAV_VCDISPLAY
 70
     0
  0
APPID
  2
ACAD_MLEADERVER
 70
     0
  0
ENDTAB
  0
TABLE
  2
DIMSTYLE
 70
     2
  0
DIMSTYLE
  2
STANDARD
 70
     0
  3

  4

  5

  6

  7

 40
1.0
 41
0.18
 42
0.0625
 43
0.38
 44
0.18
 45
0.0
 46
0.0
 47
0.0
 48
0.0
140
0.18
141
0.09
142
0.0
143
25.399999999999999
144
1.0
145
0.0
146
1.0
147
0.09
 71
     0
 72
     0
 73
     1
 74
     1
 75
     0
 76
     0
 77
     0
 78
     0
170
     0
171
     2
172
     0
173
     0
174
     0
175
     0
176
     0
177
     0
178
     0
  0
ENDTAB
  0
ENDSEC
  0
SECTION
  2
BLOCKS
  0
BLOCK
  8
0
  2
$MODEL_SPACE
 70
     0
 10
0.0
 20
0.0
 30
0.0
  3
$MODEL_SPACE
  1

  0
ENDBLK
  5
72
  8
0
  0
BLOCK
 67
     1
  8
0
  2
$PAPER_SPACE
 70
     0
 10
0.0
 20
0.0
 30
0.0
  3
$PAPER_SPACE
  1

  0
ENDBLK
  5
76
 67
     1
  8
0
  0
BLOCK
  8
0
  2
*U21
 70
     1
 10
0.0
 20
0.0
 30
0.0
  3
*U21
  1

  0
TEXT
  5
443
  8
0
 62
     7
 10
-729.7425403687447
 20
-189.4645259443655
 30
0.0
 40
12.5
  1
* Similar design detail for metal fascia systems
  7
ARIAL
  0
ENDBLK
  5
445
  8
0
  0
BLOCK
  8
0
  2
*U22
 70
     1
 10
0.0
 20
0.0
 30
0.0
  3
*U22
  1

  0
TEXT
  5
447
  8
0
 62
     7
 10
-729.7425403687447
 20
-189.4645259443655
 30
0.0
 40
12.5
  1
* Similar design detail for metal fascia systems
  7
ARIAL
  0
ENDBLK
  5
449
  8
0
  0
BLOCK
  8
0
  2
*U23
 70
     1
 10
0.0
 20
0.0
 30
0.0
  3
*U23
  1

  0
SOLID
  5
44B
  8
0
  6
CONTINUOUS
 10
-362.2035489329167
 20
160.30165809160931
 30
0.0
 11
-363.16025751382938
 21
160.11135692288761
 31
0.0
 12
-361.24684035200403
 22
160.11135692288761
 32
0.0
 13
-361.24684035200403
 23
160.11135692288761
 33
0.0
210
0.0
220
0.0
230
1.0
  0
SOLID
  5
44C
  8
0
  6
CONTINUOUS
 10
-363.16025751382938
 20
160.11135692288761
 30
0.0
 11
-363.97131588588297
 21
159.56942504457569
 31
0.0
 12
-360.43578197995038
 22
159.56942504457569
 32
0.0
 13
-360.43578197995038
 23
159.56942504457569
 33
0.0
210
0.0
220
0.0
230
1.0
  0
SOLID
  5
44D
  8
0
  6
CONTINUOUS
 10
363.16025751382938
 20
160.11135692288761
 30
0.0
 11
361.24684035200403
 21
160.11135692288761
 31
0.0
 12
360.43578197995038
 22
159.56942504457569
 32
0.0
 13
360.43578197995038
 23
159.56942504457569
 33
0.0
210
0.0
220
0.0
230
-1.0
  0
SOLID
  5
44E
  8
0
  6
CONTINUOUS
 10
-363.97131588588297
 20
159.56942504457569
 30
0.0
 11
-364.51324776419489
 21
158.7583666725221
 31
0.0
 12
-359.89385010163852
 22
158.7583666725221
 32
0.0
 13
-359.89385010163852
 23
158.7583666725221
 33
0.0
  0
SOLID
  5
44F
  8
0
  6
CONTINUOUS
 10
363.97131588588297
 20
159.56942504457569
 30
0.0
 11
360.43578197995038
 21
159.56942504457569
 31
0.0
 12
359.89385010163852
 22
158.7583666725221
 32
0.0
 13
359.89385010163852
 23
158.7583666725221
 33
0.0
210
0.0
220
0.0
230
-1.0
  0
SOLID
  5
450
  8
0
  6
CONTINUOUS
 10
-364.51324776419489
 20
158.7583666725221
 30
0.0
 11
-364.7035489329167
 21
157.80165809160931
 31
0.0
 12
-359.7035489329167
 22
157.80165809160931
 32
0.0
 13
-359.7035489329167
 23
157.80165809160931
 33
0.0
210
0.0
220
0.0
230
1.0
  0
SOLID
  5
451
  8
0
  6
CONTINUOUS
 10
364.51324776419489
 20
158.7583666725221
 30
0.0
 11
359.89385010163852
 21
158.7583666725221
 31
0.0
 12
359.7035489329167
 22
157.80165809160931
 32
0.0
 13
359.7035489329167
 23
157.80165809160931
 33
0.0
210
0.0
220
0.0
230
-1.0
  0
SOLID
  5
452
  8
0
  6
CONTINUOUS
 10
-364.7035489329167
 20
157.80165809160931
 30
0.0
 11
-364.51324776419489
 21
156.84494951069669
 31
0.0
 12
-359.89385010163852
 22
156.84494951069669
 32
0.0
 13
-359.89385010163852
 23
156.84494951069669
 33
0.0
  0
SOLID
  5
453
  8
0
  6
CONTINUOUS
 10
364.7035489329167
 20
157.80165809160931
 30
0.0
 11
359.7035489329167
 21
157.80165809160931
 31
0.0
 12
359.89385010163852
 22
156.84494951069669
 32
0.0
 13
359.89385010163852
 23
156.84494951069669
 33
0.0
210
0.0
220
0.0
230
-1.0
  0
SOLID
  5
454
  8
0
  6
CONTINUOUS
 10
-364.51324776419489
 20
156.84494951069669
 30
0.0
 11
-363.97131588588297
 21
156.03389113864301
 31
0.0
 12
-360.43578197995038
 22
156.03389113864301
 32
0.0
 13
-360.43578197995038
 23
156.03389113864301
 33
0.0
210
0.0
220
0.0
230
1.0
  0
SOLID
  5
455
  8
0
  6
CONTINUOUS
 10
364.51324776419489
 20
156.84494951069669
 30
0.0
 11
359.89385010163852
 21
156.84494951069669
 31
0.0
 12
360.43578197995038
 22
156.03389113864301
 32
0.0
 13
360.43578197995038
 23
156.03389113864301
 33
0.0
210
0.0
220
0.0
230
-1.0
  0
SOLID
  5
456
  8
0
  6
CONTINUOUS
 10
363.16025751382938
 20
155.4919592603311
 30
0.0
 11
361.2468403520042
 21
155.4919592603311
 31
0.0
 12
362.2035489329167
 22
155.3016580916094
 32
0.0
 13
362.2035489329167
 23
155.3016580916094
 33
0.0
210
0.0
220
0.0
230
-1.0
  0
SOLID
  5
457
  8
0
  6
CONTINUOUS
 10
-363.97131588588297
 20
156.03389113864301
 30
0.0
 11
-363.16025751382938
 21
155.4919592603311
 31
0.0
 12
-361.24684035200403
 22
155.4919592603311
 32
0.0
 13
-361.24684035200403
 23
155.4919592603311
 33
0.0
  0
SOLID
  5
458
  8
0
  6
CONTINUOUS
 10
363.97131588588297
 20
156.03389113864301
 30
0.0
 11
360.43578197995038
 21
156.03389113864301
 31
0.0
 12
361.24684035200403
 22
155.4919592603311
 32
0.0
 13
361.24684035200403
 23
155.4919592603311
 33
0.0
210
0.0
220
0.0
230
-1.0
  0
LINE
  5
459
  8
0
  6
CONTINUOUS
 10
-362.2035489329167
 20
160.30165809160931
 30
0.0
 11
-363.16025751382938
 21
160.11135692288761
 31
0.0
  0
LINE
  5
45A
  8
0
  6
CONTINUOUS
 10
-361.24684035200403
 20
160.11135692288761
 30
0.0
 11
-362.2035489329167
 21
160.30165809160931
 31
0.0
  0
LINE
  5
45B
  8
0
  6
CONTINUOUS
 10
-363.16025751382938
 20
160.11135692288761
 30
0.0
 11
-363.97131588588297
 21
159.56942504457569
 31
0.0
  0
LINE
  5
45C
  8
0
  6
CONTINUOUS
 10
-361.24684035200403
 20
160.11135692288761
 30
0.0
 11
-360.43578197995038
 21
159.56942504457569
 31
0.0
  0
LINE
  5
45D
  8
0
  6
CONTINUOUS
 10
-363.97131588588297
 20
159.56942504457569
 30
0.0
 11
-364.51324776419489
 21
158.7583666725221
 31
0.0
  0
LINE
  5
45E
  8
0
  6
CONTINUOUS
 10
-360.43578197995038
 20
159.56942504457569
 30
0.0
 11
-359.89385010163852
 21
158.7583666725221
 31
0.0
  0
LINE
  5
45F
  8
0
  6
CONTINUOUS
 10
-364.51324776419489
 20
158.7583666725221
 30
0.0
 11
-364.7035489329167
 21
157.80165809160931
 31
0.0
  0
LINE
  5
460
  8
0
  6
CONTINUOUS
 10
-359.89385010163852
 20
158.7583666725221
 30
0.0
 11
-359.7035489329167
 21
157.80165809160931
 31
0.0
  0
LINE
  5
461
  8
0
  6
CONTINUOUS
 10
-364.7035489329167
 20
157.80165809160931
 30
0.0
 11
-364.51324776419489
 21
156.84494951069669
 31
0.0
  0
LINE
  5
462
  8
0
  6
CONTINUOUS
 10
-359.7035489329167
 20
157.80165809160931
 30
0.0
 11
-359.89385010163852
 21
156.84494951069669
 31
0.0
  0
LINE
  5
463
  8
0
  6
CONTINUOUS
 10
-364.51324776419489
 20
156.84494951069669
 30
0.0
 11
-363.97131588588297
 21
156.03389113864301
 31
0.0
  0
LINE
  5
464
  8
0
  6
CONTINUOUS
 10
-359.89385010163852
 20
156.84494951069669
 30
0.0
 11
-360.43578197995038
 21
156.03389113864301
 31
0.0
  0
LINE
  5
465
  8
0
  6
CONTINUOUS
 10
-361.2468403520042
 20
155.4919592603311
 30
0.0
 11
-362.2035489329167
 21
155.3016580916094
 31
0.0
  0
LINE
  5
466
  8
0
  6
CONTINUOUS
 10
-362.2035489329167
 20
155.3016580916094
 30
0.0
 11
-363.16025751382938
 21
155.4919592603311
 31
0.0
  0
LINE
  5
467
  8
0
  6
CONTINUOUS
 10
-363.97131588588297
 20
156.03389113864301
 30
0.0
 11
-363.16025751382938
 21
155.4919592603311
 31
0.0
  0
LINE
  5
468
  8
0
  6
CONTINUOUS
 10
-360.43578197995038
 20
156.03389113864301
 30
0.0
 11
-361.24684035200403
 21
155.4919592603311
 31
0.0
  0
ENDBLK
  5
46A
  8
0
  0
BLOCK
  8
0
  2
*U24
 70
     1
 10
0.0
 20
0.0
 30
0.0
  3
*U24
  1

  0
TEXT
  5
46C
  8
0
 10
-715.68534840953851
 20
295.61426595898803
 30
0.0
 40
12.5
  1
Galvanised nail with
  7
ARIAL
  0
TEXT
  5
46D
  8
0
 10
-715.90704008757393
 20
275.9938928828924
 30
0.0
 40
12.5
  1
neoprene washer
  7
ARIAL
  0
ENDBLK
  5
46F
  8
0
  0
BLOCK
  8
0
  2
*U25
 70
     1
 10
0.0
 20
0.0
 30
0.0
  3
*U25
  1

  0
SOLID
  5
471
  8
0
  6
CONTINUOUS
 10
-489.30972406980283
 20
28.825906998766509
 30
0.0
 11
-490.26643265071561
 21
28.635605830044732
 31
0.0
 12
-488.35301548889021
 22
28.635605830044732
 32
0.0
 13
-488.35301548889021
 23
28.635605830044732
 33
0.0
210
0.0
220
0.0
230
1.0
  0
SOLID
  5
472
  8
0
  6
CONTINUOUS
 10
-490.26643265071561
 20
28.635605830044732
 30
0.0
 11
-491.07749102276921
 21
28.093673951732889
 31
0.0
 12
-487.5419571168365
 22
28.093673951732889
 32
0.0
 13
-487.5419571168365
 23
28.093673951732889
 33
0.0
210
0.0
220
0.0
230
1.0
  0
SOLID
  5
473
  8
0
  6
CONTINUOUS
 10
490.26643265071561
 20
28.635605830044732
 30
0.0
 11
488.35301548889021
 21
28.635605830044732
 31
0.0
 12
487.5419571168365
 22
28.093673951732889
 32
0.0
 13
487.5419571168365
 23
28.093673951732889
 33
0.0
210
0.0
220
0.0
230
-1.0
  0
SOLID
  5
474
  8
0
  6
CONTINUOUS
 10
-491.07749102276921
 20
28.093673951732889
 30
0.0
 11
-491.61942290108112
 21
27.28261557967927
 31
0.0
 12
-487.0000252385247
 22
27.28261557967927
 32
0.0
 13
-487.0000252385247
 23
27.28261557967927
 33
0.0
210
0.0
220
0.0
230
1.0
  0
SOLID
  5
475
  8
0
  6
CONTINUOUS
 10
491.07749102276921
 20
28.093673951732889
 30
0.0
 11
487.5419571168365
 21
28.093673951732889
 31
0.0
 12
487.0000252385247
 22
27.28261557967927
 32
0.0
 13
487.0000252385247
 23
27.28261557967927
 33
0.0
210
0.0
220
0.0
230
-1.0
  0
SOLID
  5
476
  8
0
  6
CONTINUOUS
 10
-491.61942290108112
 20
27.28261557967927
 30
0.0
 11
-491.80972406980283
 21
26.32590699876657
 31
0.0
 12
-486.80972406980288
 22
26.32590699876657
 32
0.0
 13
-486.80972406980288
 23
26.32590699876657
 33
0.0
210
0.0
220
0.0
230
1.0
  0
SOLID
  5
477
  8
0
  6
CONTINUOUS
 10
491.61942290108112
 20
27.28261557967927
 30
0.0
 11
487.0000252385247
 21
27.28261557967927
 31
0.0
 12
486.80972406980288
 22
26.32590699876657
 32
0.0
 13
486.80972406980288
 23
26.32590699876657
 33
0.0
210
0.0
220
0.0
230
-1.0
  0
SOLID
  5
478
  8
0
  6
CONTINUOUS
 10
-491.80972406980283
 20
26.32590699876657
 30
0.0
 11
-491.61942290108112
 21
25.369198417853859
 31
0.0
 12
-487.0000252385247
 22
25.369198417853859
 32
0.0
 13
-487.0000252385247
 23
25.369198417853859
 33
0.0
210
0.0
220
0.0
230
1.0
  0
SOLID
  5
479
  8
0
  6
CONTINUOUS
 10
491.80972406980283
 20
26.32590699876657
 30
0.0
 11
486.80972406980288
 21
26.32590699876657
 31
0.0
 12
487.0000252385247
 22
25.369198417853859
 32
0.0
 13
487.0000252385247
 23
25.369198417853859
 33
0.0
210
0.0
220
0.0
230
-1.0
  0
SOLID
  5
47A
  8
0
  6
CONTINUOUS
 10
-491.61942290108112
 20
25.369198417853859
 30
0.0
 11
-491.07749102276921
 21
24.55814004580024
 31
0.0
 12
-487.5419571168365
 22
24.55814004580024
 32
0.0
 13
-487.5419571168365
 23
24.55814004580024
 33
0.0
210
0.0
220
0.0
230
1.0
  0
SOLID
  5
47B
  8
0
  6
CONTINUOUS
 10
491.61942290108112
 20
25.369198417853859
 30
0.0
 11
487.0000252385247
 21
25.369198417853859
 31
0.0
 12
487.5419571168365
 22
24.55814004580024
 32
0.0
 13
487.5419571168365
 23
24.55814004580024
 33
0.0
210
0.0
220
0.0
230
-1.0
  0
SOLID
  5
47C
  8
0
  6
CONTINUOUS
 10
490.26643265071561
 20
24.016208167488401
 30
0.0
 11
488.35301548889021
 21
24.016208167488401
 31
0.0
 12
489.30972406980283
 22
23.825906998766619
 32
0.0
 13
489.30972406980283
 23
23.825906998766619
 33
0.0
210
0.0
220
0.0
230
-1.0
  0
SOLID
  5
47D
  8
0
  6
CONTINUOUS
 10
-491.07749102276921
 20
24.55814004580024
 30
0.0
 11
-490.26643265071561
 21
24.016208167488401
 31
0.0
 12
-488.35301548889021
 22
24.016208167488401
 32
0.0
 13
-488.35301548889021
 23
24.016208167488401
 33
0.0
  0
SOLID
  5
47E
  8
0
  6
CONTINUOUS
 10
491.07749102276921
 20
24.55814004580024
 30
0.0
 11
487.5419571168365
 21
24.55814004580024
 31
0.0
 12
488.35301548889021
 22
24.016208167488401
 32
0.0
 13
488.35301548889021
 23
24.016208167488401
 33
0.0
210
0.0
220
0.0
230
-1.0
  0
LINE
  5
47F
  8
0
  6
CONTINUOUS
 10
-489.30972406980283
 20
28.825906998766509
 30
0.0
 11
-490.26643265071561
 21
28.635605830044732
 31
0.0
  0
LINE
  5
480
  8
0
  6
CONTINUOUS
 10
-488.35301548889021
 20
28.635605830044732
 30
0.0
 11
-489.30972406980283
 21
28.825906998766509
 31
0.0
  0
LINE
  5
481
  8
0
  6
CONTINUOUS
 10
-490.26643265071561
 20
28.635605830044732
 30
0.0
 11
-491.07749102276921
 21
28.093673951732889
 31
0.0
  0
LINE
  5
482
  8
0
  6
CONTINUOUS
 10
-488.35301548889021
 20
28.635605830044732
 30
0.0
 11
-487.5419571168365
 21
28.093673951732889
 31
0.0
  0
LINE
  5
483
  8
0
  6
CONTINUOUS
 10
-491.07749102276921
 20
28.093673951732889
 30
0.0
 11
-491.61942290108112
 21
27.28261557967927
 31
0.0
  0
LINE
  5
484
  8
0
  6
CONTINUOUS
 10
-487.5419571168365
 20
28.093673951732889
 30
0.0
 11
-487.0000252385247
 21
27.28261557967927
 31
0.0
  0
LINE
  5
485
  8
0
  6
CONTINUOUS
 10
-491.61942290108112
 20
27.28261557967927
 30
0.0
 11
-491.80972406980283
 21
26.32590699876657
 31
0.0
  0
LINE
  5
486
  8
0
  6
CONTINUOUS
 10
-487.0000252385247
 20
27.28261557967927
 30
0.0
 11
-486.80972406980288
 21
26.32590699876657
 31
0.0
  0
LINE
  5
487
  8
0
  6
CONTINUOUS
 10
-491.80972406980283
 20
26.32590699876657
 30
0.0
 11
-491.61942290108112
 21
25.369198417853859
 31
0.0
  0
LINE
  5
488
  8
0
  6
CONTINUOUS
 10
-486.80972406980288
 20
26.32590699876657
 30
0.0
 11
-487.0000252385247
 21
25.369198417853859
 31
0.0
  0
LINE
  5
489
  8
0
  6
CONTINUOUS
 10
-491.61942290108112
 20
25.369198417853859
 30
0.0
 11
-491.07749102276921
 21
24.55814004580024
 31
0.0
  0
LINE
  5
48A
  8
0
  6
CONTINUOUS
 10
-487.0000252385247
 20
25.369198417853859
 30
0.0
 11
-487.5419571168365
 21
24.55814004580024
 31
0.0
  0
LINE
  5
48B
  8
0
  6
CONTINUOUS
 10
-488.35301548889021
 20
24.016208167488401
 30
0.0
 11
-489.30972406980283
 21
23.825906998766619
 31
0.0
  0
LINE
  5
48C
  8
0
  6
CONTINUOUS
 10
-489.30972406980283
 20
23.825906998766619
 30
0.0
 11
-490.26643265071561
 21
24.016208167488401
 31
0.0
  0
LINE
  5
48D
  8
0
  6
CONTINUOUS
 10
-491.07749102276921
 20
24.55814004580024
 30
0.0
 11
-490.26643265071561
 21
24.016208167488401
 31
0.0
  0
LINE
  5
48E
  8
0
  6
CONTINUOUS
 10
-487.5419571168365
 20
24.55814004580024
 30
0.0
 11
-488.35301548889021
 21
24.016208167488401
 31
0.0
  0
ENDBLK
  5
490
  8
0
  0
BLOCK
  8
0
  2
*U26
 70
     1
 10
0.0
 20
0.0
 30
0.0
  3
*U26
  1

  0
TEXT
  5
492
  8
0
 10
-728.04039615851525
 20
-8.2533168344162942
 30
0.0
 40
12.5
  1
Selected fascia* & gutter
  7
ARIAL
  0
TEXT
  5
493
  8
0
 10
-728.31324745455879
 20
-27.873689910511871
 30
0.0
 40
12.5
  1
(Fascia board height not to
  7
ARIAL
  0
TEXT
  5
494
  8
0
 10
-727.89544390749211
 20
-47.494062986607432
 30
0.0
 40
12.5
  1
exceed plywood height)
  7
ARIAL
  0
ENDBLK
  5
496
  8
0
  0
BLOCK
  8
0
  2
*U27
 70
     1
 10
0.0
 20
0.0
 30
0.0
  3
*U27
  1

  0
SOLID
  5
498
  8
0
  6
CONTINUOUS
 10
-409.36626717916442
 20
-35.124725471943002
 30
0.0
 11
-410.3229757600771
 21
-35.315026640664783
 31
0.0
 12
-408.40955859825169
 22
-35.315026640664783
 32
0.0
 13
-408.40955859825169
 23
-35.315026640664783
 33
0.0
  0
SOLID
  5
499
  8
0
  6
CONTINUOUS
 10
-410.3229757600771
 20
-35.315026640664783
 30
0.0
 11
-411.13403413213081
 21
-35.856958518976633
 31
0.0
 12
-407.59850022619798
 22
-35.856958518976633
 32
0.0
 13
-407.59850022619798
 23
-35.856958518976633
 33
0.0
210
0.0
220
0.0
230
1.0
  0
SOLID
  5
49A
  8
0
  6
CONTINUOUS
 10
410.3229757600771
 20
-35.315026640664783
 30
0.0
 11
408.40955859825169
 21
-35.315026640664783
 31
0.0
 12
407.59850022619798
 22
-35.856958518976633
 32
0.0
 13
407.59850022619798
 23
-35.856958518976633
 33
0.0
210
0.0
220
0.0
230
-1.0
  0
SOLID
  5
49B
  8
0
  6
CONTINUOUS
 10
-411.13403413213081
 20
-35.856958518976633
 30
0.0
 11
-411.67596601044261
 21
-36.668016891030277
 31
0.0
 12
-407.05656834788618
 22
-36.668016891030277
 32
0.0
 13
-407.05656834788618
 23
-36.668016891030277
 33
0.0
  0
SOLID
  5
49C
  8
0
  6
CONTINUOUS
 10
411.13403413213081
 20
-35.856958518976633
 30
0.0
 11
407.59850022619798
 21
-35.856958518976633
 31
0.0
 12
407.05656834788618
 22
-36.668016891030277
 32
0.0
 13
407.05656834788618
 23
-36.668016891030277
 33
0.0
210
0.0
220
0.0
230
-1.0
  0
SOLID
  5
49D
  8
0
  6
CONTINUOUS
 10
-411.67596601044261
 20
-36.668016891030277
 30
0.0
 11
-411.86626717916442
 21
-37.624725471943002
 31
0.0
 12
-406.86626717916442
 22
-37.624725471943002
 32
0.0
 13
-406.86626717916442
 23
-37.624725471943002
 33
0.0
210
0.0
220
0.0
230
1.0
  0
SOLID
  5
49E
  8
0
  6
CONTINUOUS
 10
411.67596601044261
 20
-36.668016891030277
 30
0.0
 11
407.05656834788618
 21
-36.668016891030277
 31
0.0
 12
406.86626717916442
 22
-37.624725471943002
 32
0.0
 13
406.86626717916442
 23
-37.624725471943002
 33
0.0
210
0.0
220
0.0
230
-1.0
  0
SOLID
  5
49F
  8
0
  6
CONTINUOUS
 10
-411.86626717916442
 20
-37.624725471943002
 30
0.0
 11
-411.67596601044261
 21
-38.581434052855727
 31
0.0
 12
-407.05656834788618
 22
-38.581434052855727
 32
0.0
 13
-407.05656834788618
 23
-38.581434052855727
 33
0.0
210
0.0
220
0.0
230
1.0
  0
SOLID
  5
4A0
  8
0
  6
CONTINUOUS
 10
411.86626717916442
 20
-37.624725471943002
 30
0.0
 11
406.86626717916442
 21
-37.624725471943002
 31
0.0
 12
407.05656834788618
 22
-38.581434052855727
 32
0.0
 13
407.05656834788618
 23
-38.581434052855727
 33
0.0
210
0.0
220
0.0
230
-1.0
  0
SOLID
  5
4A1
  8
0
  6
CONTINUOUS
 10
-411.67596601044261
 20
-38.581434052855727
 30
0.0
 11
-411.13403413213081
 21
-39.392492424909371
 31
0.0
 12
-407.59850022619798
 22
-39.392492424909371
 32
0.0
 13
-407.59850022619798
 23
-39.392492424909371
 33
0.0
210
0.0
220
0.0
230
1.0
  0
SOLID
  5
4A2
  8
0
  6
CONTINUOUS
 10
411.67596601044261
 20
-38.581434052855727
 30
0.0
 11
407.05656834788618
 21
-38.581434052855727
 31
0.0
 12
407.59850022619798
 22
-39.392492424909371
 32
0.0
 13
407.59850022619798
 23
-39.392492424909371
 33
0.0
210
0.0
220
0.0
230
-1.0
  0
SOLID
  5
4A3
  8
0
  6
CONTINUOUS
 10
410.3229757600771
 20
-39.93442430322122
 30
0.0
 11
408.40955859825169
 21
-39.93442430322122
 31
0.0
 12
409.36626717916442
 22
-40.124725471943002
 32
0.0
 13
409.36626717916442
 23
-40.124725471943002
 33
0.0
210
0.0
220
0.0
230
-1.0
  0
SOLID
  5
4A4
  8
0
  6
CONTINUOUS
 10
-411.13403413213081
 20
-39.392492424909371
 30
0.0
 11
-410.3229757600771
 21
-39.93442430322122
 31
0.0
 12
-408.40955859825169
 22
-39.93442430322122
 32
0.0
 13
-408.40955859825169
 23
-39.93442430322122
 33
0.0
210
0.0
220
0.0
230
1.0
  0
SOLID
  5
4A5
  8
0
  6
CONTINUOUS
 10
411.13403413213081
 20
-39.392492424909371
 30
0.0
 11
407.59850022619798
 21
-39.392492424909371
 31
0.0
 12
408.40955859825169
 22
-39.93442430322122
 32
0.0
 13
408.40955859825169
 23
-39.93442430322122
 33
0.0
210
0.0
220
0.0
230
-1.0
  0
LINE
  5
4A6
  8
0
  6
CONTINUOUS
 10
-409.36626717916442
 20
-35.124725471943002
 30
0.0
 11
-410.3229757600771
 21
-35.315026640664783
 31
0.0
  0
LINE
  5
4A7
  8
0
  6
CONTINUOUS
 10
-408.40955859825169
 20
-35.315026640664783
 30
0.0
 11
-409.36626717916442
 21
-35.124725471943002
 31
0.0
  0
LINE
  5
4A8
  8
0
  6
CONTINUOUS
 10
-410.3229757600771
 20
-35.315026640664783
 30
0.0
 11
-411.13403413213081
 21
-35.856958518976633
 31
0.0
  0
LINE
  5
4A9
  8
0
  6
CONTINUOUS
 10
-408.40955859825169
 20
-35.315026640664783
 30
0.0
 11
-407.59850022619798
 21
-35.856958518976633
 31
0.0
  0
LINE
  5
4AA
  8
0
  6
CONTINUOUS
 10
-411.13403413213081
 20
-35.856958518976633
 30
0.0
 11
-411.67596601044261
 21
-36.668016891030277
 31
0.0
  0
LINE
  5
4AB
  8
0
  6
CONTINUOUS
 10
-407.59850022619798
 20
-35.856958518976633
 30
0.0
 11
-407.05656834788618
 21
-36.668016891030277
 31
0.0
  0
LINE
  5
4AC
  8
0
  6
CONTINUOUS
 10
-411.67596601044261
 20
-36.668016891030277
 30
0.0
 11
-411.86626717916442
 21
-37.624725471943002
 31
0.0
  0
LINE
  5
4AD
  8
0
  6
CONTINUOUS
 10
-407.05656834788618
 20
-36.668016891030277
 30
0.0
 11
-406.86626717916442
 21
-37.624725471943002
 31
0.0
  0
LINE
  5
4AE
  8
0
  6
CONTINUOUS
 10
-411.86626717916442
 20
-37.624725471943002
 30
0.0
 11
-411.67596601044261
 21
-38.581434052855727
 31
0.0
  0
LINE
  5
4AF
  8
0
  6
CONTINUOUS
 10
-406.86626717916442
 20
-37.624725471943002
 30
0.0
 11
-407.05656834788618
 21
-38.581434052855727
 31
0.0
  0
LINE
  5
4B0
  8
0
  6
CONTINUOUS
 10
-411.67596601044261
 20
-38.581434052855727
 30
0.0
 11
-411.13403413213081
 21
-39.392492424909371
 31
0.0
  0
LINE
  5
4B1
  8
0
  6
CONTINUOUS
 10
-407.05656834788618
 20
-38.581434052855727
 30
0.0
 11
-407.59850022619798
 21
-39.392492424909371
 31
0.0
  0
LINE
  5
4B2
  8
0
  6
CONTINUOUS
 10
-408.40955859825169
 20
-39.93442430322122
 30
0.0
 11
-409.36626717916442
 21
-40.124725471943002
 31
0.0
  0
LINE
  5
4B3
  8
0
  6
CONTINUOUS
 10
-409.36626717916442
 20
-40.124725471943002
 30
0.0
 11
-410.3229757600771
 21
-39.93442430322122
 31
0.0
  0
LINE
  5
4B4
  8
0
  6
CONTINUOUS
 10
-411.13403413213081
 20
-39.392492424909371
 30
0.0
 11
-410.3229757600771
 21
-39.93442430322122
 31
0.0
  0
LINE
  5
4B5
  8
0
  6
CONTINUOUS
 10
-407.59850022619798
 20
-39.392492424909371
 30
0.0
 11
-408.40955859825169
 21
-39.93442430322122
 31
0.0
  0
ENDBLK
  5
4B7
  8
0
  0
BLOCK
  8
0
  2
*U28
 70
     1
 10
0.0
 20
0.0
 30
0.0
  3
*U28
  1

  0
TEXT
  5
4B9
  8
0
 10
-728.68841798661902
 20
-132.00495137422851
 30
0.0
 40
12.5
  1
Fascia board
  7
ARIAL
  0
ENDBLK
  5
4BB
  8
0
  0
BLOCK
  8
0
  2
*U29
 70
     1
 10
0.0
 20
0.0
 30
0.0
  3
*U29
  1

  0
SOLID
  5
4BD
  8
0
  6
CONTINUOUS
 10
157.28209747038551
 20
343.6988381543855
 30
0.0
 11
156.3253888894728
 21
343.5085369856638
 31
0.0
 12
158.23880605129821
 22
343.5085369856638
 32
0.0
 13
158.23880605129821
 23
343.5085369856638
 33
0.0
210
0.0
220
0.0
230
1.0
  0
SOLID
  5
4BE
  8
0
  6
CONTINUOUS
 10
156.3253888894728
 20
343.5085369856638
 30
0.0
 11
155.51433051741921
 21
342.96660510735188
 31
0.0
 12
159.04986442335189
 22
342.96660510735188
 32
0.0
 13
159.04986442335189
 23
342.96660510735188
 33
0.0
210
0.0
220
0.0
230
1.0
  0
SOLID
  5
4BF
  8
0
  6
CONTINUOUS
 10
-156.3253888894728
 20
343.5085369856638
 30
0.0
 11
-158.23880605129821
 21
343.5085369856638
 31
0.0
 12
-159.04986442335189
 22
342.96660510735188
 32
0.0
 13
-159.04986442335189
 23
342.96660510735188
 33
0.0
210
0.0
220
0.0
230
-1.0
  0
SOLID
  5
4C0
  8
0
  6
CONTINUOUS
 10
155.51433051741921
 20
342.96660510735188
 30
0.0
 11
154.9723986391073
 21
342.15554673529829
 31
0.0
 12
159.59179630166369
 22
342.15554673529829
 32
0.0
 13
159.59179630166369
 23
342.15554673529829
 33
0.0
210
0.0
220
0.0
230
1.0
  0
SOLID
  5
4C1
  8
0
  6
CONTINUOUS
 10
-155.51433051741921
 20
342.96660510735188
 30
0.0
 11
-159.04986442335189
 21
342.96660510735188
 31
0.0
 12
-159.59179630166369
 22
342.15554673529829
 32
0.0
 13
-159.59179630166369
 23
342.15554673529829
 33
0.0
210
0.0
220
0.0
230
-1.0
  0
SOLID
  5
4C2
  8
0
  6
CONTINUOUS
 10
154.9723986391073
 20
342.15554673529829
 30
0.0
 11
154.78209747038551
 21
341.19883815438561
 31
0.0
 12
159.78209747038551
 22
341.19883815438561
 32
0.0
 13
159.78209747038551
 23
341.19883815438561
 33
0.0
210
0.0
220
0.0
230
1.0
  0
SOLID
  5
4C3
  8
0
  6
CONTINUOUS
 10
-154.9723986391073
 20
342.15554673529829
 30
0.0
 11
-159.59179630166369
 21
342.15554673529829
 31
0.0
 12
-159.78209747038551
 22
341.19883815438561
 32
0.0
 13
-159.78209747038551
 23
341.19883815438561
 33
0.0
210
0.0
220
0.0
230
-1.0
  0
SOLID
  5
4C4
  8
0
  6
CONTINUOUS
 10
154.78209747038551
 20
341.19883815438561
 30
0.0
 11
154.9723986391073
 21
340.24212957347282
 31
0.0
 12
159.59179630166369
 22
340.24212957347282
 32
0.0
 13
159.59179630166369
 23
340.24212957347282
 33
0.0
  0
SOLID
  5
4C5
  8
0
  6
CONTINUOUS
 10
-154.78209747038551
 20
341.19883815438561
 30
0.0
 11
-159.78209747038551
 21
341.19883815438561
 31
0.0
 12
-159.59179630166369
 22
340.24212957347282
 32
0.0
 13
-159.59179630166369
 23
340.24212957347282
 33
0.0
210
0.0
220
0.0
230
-1.0
  0
SOLID
  5
4C6
  8
0
  6
CONTINUOUS
 10
154.9723986391073
 20
340.24212957347282
 30
0.0
 11
155.51433051741921
 21
339.43107120141917
 31
0.0
 12
159.04986442335189
 22
339.43107120141917
 32
0.0
 13
159.04986442335189
 23
339.43107120141917
 33
0.0
210
0.0
220
0.0
230
1.0
  0
SOLID
  5
4C7
  8
0
  6
CONTINUOUS
 10
-154.9723986391073
 20
340.24212957347282
 30
0.0
 11
-159.59179630166369
 21
340.24212957347282
 31
0.0
 12
-159.04986442335189
 22
339.43107120141917
 32
0.0
 13
-159.04986442335189
 23
339.43107120141917
 33
0.0
210
0.0
220
0.0
230
-1.0
  0
SOLID
  5
4C8
  8
0
  6
CONTINUOUS
 10
-156.3253888894728
 20
338.88913932310732
 30
0.0
 11
-158.23880605129821
 21
338.88913932310732
 31
0.0
 12
-157.28209747038551
 22
338.69883815438561
 32
0.0
 13
-157.28209747038551
 23
338.69883815438561
 33
0.0
210
0.0
220
0.0
230
-1.0
  0
SOLID
  5
4C9
  8
0
  6
CONTINUOUS
 10
155.51433051741921
 20
339.43107120141917
 30
0.0
 11
156.3253888894728
 21
338.88913932310732
 31
0.0
 12
158.23880605129821
 22
338.88913932310732
 32
0.0
 13
158.23880605129821
 23
338.88913932310732
 33
0.0
  0
SOLID
  5
4CA
  8
0
  6
CONTINUOUS
 10
-155.51433051741921
 20
339.43107120141917
 30
0.0
 11
-159.04986442335189
 21
339.43107120141917
 31
0.0
 12
-158.23880605129821
 22
338.88913932310732
 32
0.0
 13
-158.23880605129821
 23
338.88913932310732
 33
0.0
210
0.0
220
0.0
230
-1.0
  0
LINE
  5
4CB
  8
0
  6
CONTINUOUS
 10
157.28209747038551
 20
343.6988381543855
 30
0.0
 11
156.3253888894728
 21
343.5085369856638
 31
0.0
  0
LINE
  5
4CC
  8
0
  6
CONTINUOUS
 10
158.23880605129821
 20
343.5085369856638
 30
0.0
 11
157.28209747038551
 21
343.6988381543855
 31
0.0
  0
LINE
  5
4CD
  8
0
  6
CONTINUOUS
 10
156.3253888894728
 20
343.5085369856638
 30
0.0
 11
155.51433051741921
 21
342.96660510735188
 31
0.0
  0
LINE
  5
4CE
  8
0
  6
CONTINUOUS
 10
158.23880605129821
 20
343.5085369856638
 30
0.0
 11
159.04986442335189
 21
342.96660510735188
 31
0.0
  0
LINE
  5
4CF
  8
0
  6
CONTINUOUS
 10
155.51433051741921
 20
342.96660510735188
 30
0.0
 11
154.9723986391073
 21
342.15554673529829
 31
0.0
  0
LINE
  5
4D0
  8
0
  6
CONTINUOUS
 10
159.04986442335189
 20
342.96660510735188
 30
0.0
 11
159.59179630166369
 21
342.15554673529829
 31
0.0
  0
LINE
  5
4D1
  8
0
  6
CONTINUOUS
 10
154.9723986391073
 20
342.15554673529829
 30
0.0
 11
154.78209747038551
 21
341.19883815438561
 31
0.0
  0
LINE
  5
4D2
  8
0
  6
CONTINUOUS
 10
159.59179630166369
 20
342.15554673529829
 30
0.0
 11
159.78209747038551
 21
341.19883815438561
 31
0.0
  0
LINE
  5
4D3
  8
0
  6
CONTINUOUS
 10
154.78209747038551
 20
341.19883815438561
 30
0.0
 11
154.9723986391073
 21
340.24212957347282
 31
0.0
  0
LINE
  5
4D4
  8
0
  6
CONTINUOUS
 10
159.78209747038551
 20
341.19883815438561
 30
0.0
 11
159.59179630166369
 21
340.24212957347282
 31
0.0
  0
LINE
  5
4D5
  8
0
  6
CONTINUOUS
 10
154.9723986391073
 20
340.24212957347282
 30
0.0
 11
155.51433051741921
 21
339.43107120141917
 31
0.0
  0
LINE
  5
4D6
  8
0
  6
CONTINUOUS
 10
159.59179630166369
 20
340.24212957347282
 30
0.0
 11
159.04986442335189
 21
339.43107120141917
 31
0.0
  0
LINE
  5
4D7
  8
0
  6
CONTINUOUS
 10
158.23880605129821
 20
338.88913932310732
 30
0.0
 11
157.28209747038551
 21
338.69883815438561
 31
0.0
  0
LINE
  5
4D8
  8
0
  6
CONTINUOUS
 10
157.28209747038551
 20
338.69883815438561
 30
0.0
 11
156.3253888894728
 21
338.88913932310732
 31
0.0
  0
LINE
  5
4D9
  8
0
  6
CONTINUOUS
 10
155.51433051741921
 20
339.43107120141917
 30
0.0
 11
156.3253888894728
 21
338.88913932310732
 31
0.0
  0
LINE
  5
4DA
  8
0
  6
CONTINUOUS
 10
159.04986442335189
 20
339.43107120141917
 30
0.0
 11
158.23880605129821
 21
338.88913932310732
 31
0.0
  0
ENDBLK
  5
4DC
  8
0
  0
BLOCK
  8
0
  2
*U30
 70
     1
 10
0.0
 20
0.0
 30
0.0
  3
*U30
  1

  0
TEXT
  5
4DE
  8
0
 10
-26.126317872073951
 20
388.07052380837678
 30
0.0
 40
12.5
  1
CF Shingle Panel
  7
ARIAL
  0
ENDBLK
  5
4E0
  8
0
  0
BLOCK
  8
0
  2
*U31
 70
     1
 10
0.0
 20
0.0
 30
0.0
  3
*U31
  1

  0
SOLID
  5
4E2
  8
0
  6
CONTINUOUS
 10
90.332413679843498
 20
262.71190890082482
 30
0.0
 11
89.375705098930766
 21
262.52160773210301
 31
0.0
 12
91.28912226075623
 22
262.52160773210301
 32
0.0
 13
91.28912226075623
 23
262.52160773210301
 33
0.0
210
0.0
220
0.0
230
1.0
  0
SOLID
  5
4E3
  8
0
  6
CONTINUOUS
 10
89.375705098930766
 20
262.52160773210301
 30
0.0
 11
88.564646726877115
 21
261.97967585379121
 31
0.0
 12
92.100180632809895
 22
261.97967585379121
 32
0.0
 13
92.100180632809895
 23
261.97967585379121
 33
0.0
210
0.0
220
0.0
230
1.0
  0
SOLID
  5
4E4
  8
0
  6
CONTINUOUS
 10
-89.375705098930766
 20
262.52160773210301
 30
0.0
 11
-91.28912226075623
 21
262.52160773210301
 31
0.0
 12
-92.100180632809895
 22
261.97967585379121
 32
0.0
 13
-92.100180632809895
 23
261.97967585379121
 33
0.0
210
0.0
220
0.0
230
-1.0
  0
SOLID
  5
4E5
  8
0
  6
CONTINUOUS
 10
88.564646726877115
 20
261.97967585379121
 30
0.0
 11
88.022714848565272
 21
261.1686174817375
 31
0.0
 12
92.642112511121724
 22
261.1686174817375
 32
0.0
 13
92.642112511121724
 23
261.1686174817375
 33
0.0
210
0.0
220
0.0
230
1.0
  0
SOLID
  5
4E6
  8
0
  6
CONTINUOUS
 10
-88.564646726877115
 20
261.97967585379121
 30
0.0
 11
-92.100180632809895
 21
261.97967585379121
 31
0.0
 12
-92.642112511121724
 22
261.1686174817375
 32
0.0
 13
-92.642112511121724
 23
261.1686174817375
 33
0.0
210
0.0
220
0.0
230
-1.0
  0
SOLID
  5
4E7
  8
0
  6
CONTINUOUS
 10
88.022714848565272
 20
261.1686174817375
 30
0.0
 11
87.832413679843484
 21
260.21190890082471
 31
0.0
 12
92.832413679843498
 22
260.21190890082471
 32
0.0
 13
92.832413679843498
 23
260.21190890082471
 33
0.0
210
0.0
220
0.0
230
1.0
  0
SOLID
  5
4E8
  8
0
  6
CONTINUOUS
 10
-88.022714848565272
 20
261.1686174817375
 30
0.0
 11
-92.642112511121724
 21
261.1686174817375
 31
0.0
 12
-92.832413679843498
 22
260.21190890082471
 32
0.0
 13
-92.832413679843498
 23
260.21190890082471
 33
0.0
210
0.0
220
0.0
230
-1.0
  0
SOLID
  5
4E9
  8
0
  6
CONTINUOUS
 10
87.832413679843484
 20
260.21190890082471
 30
0.0
 11
88.022714848565272
 21
259.25520031991198
 31
0.0
 12
92.642112511121724
 22
259.25520031991198
 32
0.0
 13
92.642112511121724
 23
259.25520031991198
 33
0.0
  0
SOLID
  5
4EA
  8
0
  6
CONTINUOUS
 10
-87.832413679843484
 20
260.21190890082471
 30
0.0
 11
-92.832413679843498
 21
260.21190890082471
 31
0.0
 12
-92.642112511121724
 22
259.25520031991198
 32
0.0
 13
-92.642112511121724
 23
259.25520031991198
 33
0.0
210
0.0
220
0.0
230
-1.0
  0
SOLID
  5
4EB
  8
0
  6
CONTINUOUS
 10
88.022714848565272
 20
259.25520031991198
 30
0.0
 11
88.564646726877115
 21
258.44414194785838
 31
0.0
 12
92.100180632809895
 22
258.44414194785838
 32
0.0
 13
92.100180632809895
 23
258.44414194785838
 33
0.0
210
0.0
220
0.0
230
1.0
  0
SOLID
  5
4EC
  8
0
  6
CONTINUOUS
 10
-88.022714848565272
 20
259.25520031991198
 30
0.0
 11
-92.642112511121724
 21
259.25520031991198
 31
0.0
 12
-92.100180632809895
 22
258.44414194785838
 32
0.0
 13
-92.100180632809895
 23
258.44414194785838
 33
0.0
210
0.0
220
0.0
230
-1.0
  0
SOLID
  5
4ED
  8
0
  6
CONTINUOUS
 10
-89.375705098930766
 20
257.90221006954653
 30
0.0
 11
-91.28912226075623
 21
257.90221006954653
 31
0.0
 12
-90.332413679843498
 22
257.71190890082482
 32
0.0
 13
-90.332413679843498
 23
257.71190890082482
 33
0.0
210
0.0
220
0.0
230
-1.0
  0
SOLID
  5
4EE
  8
0
  6
CONTINUOUS
 10
88.564646726877115
 20
258.44414194785838
 30
0.0
 11
89.375705098930766
 21
257.90221006954653
 31
0.0
 12
91.28912226075623
 22
257.90221006954653
 32
0.0
 13
91.28912226075623
 23
257.90221006954653
 33
0.0
210
0.0
220
0.0
230
1.0
  0
SOLID
  5
4EF
  8
0
  6
CONTINUOUS
 10
-88.564646726877115
 20
258.44414194785838
 30
0.0
 11
-92.100180632809895
 21
258.44414194785838
 31
0.0
 12
-91.28912226075623
 22
257.90221006954653
 32
0.0
 13
-91.28912226075623
 23
257.90221006954653
 33
0.0
210
0.0
220
0.0
230
-1.0
  0
LINE
  5
4F0
  8
0
  6
CONTINUOUS
 10
90.332413679843498
 20
262.71190890082482
 30
0.0
 11
89.375705098930766
 21
262.52160773210301
 31
0.0
  0
LINE
  5
4F1
  8
0
  6
CONTINUOUS
 10
91.28912226075623
 20
262.52160773210301
 30
0.0
 11
90.332413679843498
 21
262.71190890082482
 31
0.0
  0
LINE
  5
4F2
  8
0
  6
CONTINUOUS
 10
89.375705098930766
 20
262.52160773210301
 30
0.0
 11
88.564646726877115
 21
261.97967585379121
 31
0.0
  0
LINE
  5
4F3
  8
0
  6
CONTINUOUS
 10
91.28912226075623
 20
262.52160773210301
 30
0.0
 11
92.100180632809895
 21
261.97967585379121
 31
0.0
  0
LINE
  5
4F4
  8
0
  6
CONTINUOUS
 10
88.564646726877115
 20
261.97967585379121
 30
0.0
 11
88.022714848565272
 21
261.1686174817375
 31
0.0
  0
LINE
  5
4F5
  8
0
  6
CONTINUOUS
 10
92.100180632809895
 20
261.97967585379121
 30
0.0
 11
92.642112511121724
 21
261.1686174817375
 31
0.0
  0
LINE
  5
4F6
  8
0
  6
CONTINUOUS
 10
88.022714848565272
 20
261.1686174817375
 30
0.0
 11
87.832413679843484
 21
260.21190890082471
 31
0.0
  0
LINE
  5
4F7
  8
0
  6
CONTINUOUS
 10
92.642112511121724
 20
261.1686174817375
 30
0.0
 11
92.832413679843498
 21
260.21190890082471
 31
0.0
  0
LINE
  5
4F8
  8
0
  6
CONTINUOUS
 10
87.832413679843484
 20
260.21190890082471
 30
0.0
 11
88.022714848565272
 21
259.25520031991198
 31
0.0
  0
LINE
  5
4F9
  8
0
  6
CONTINUOUS
 10
92.832413679843498
 20
260.21190890082471
 30
0.0
 11
92.642112511121724
 21
259.25520031991198
 31
0.0
  0
LINE
  5
4FA
  8
0
  6
CONTINUOUS
 10
88.022714848565272
 20
259.25520031991198
 30
0.0
 11
88.564646726877115
 21
258.44414194785838
 31
0.0
  0
LINE
  5
4FB
  8
0
  6
CONTINUOUS
 10
92.642112511121724
 20
259.25520031991198
 30
0.0
 11
92.100180632809895
 21
258.44414194785838
 31
0.0
  0
LINE
  5
4FC
  8
0
  6
CONTINUOUS
 10
91.28912226075623
 20
257.90221006954653
 30
0.0
 11
90.332413679843498
 21
257.71190890082482
 31
0.0
  0
LINE
  5
4FD
  8
0
  6
CONTINUOUS
 10
90.332413679843498
 20
257.71190890082482
 30
0.0
 11
89.375705098930766
 21
257.90221006954653
 31
0.0
  0
LINE
  5
4FE
  8
0
  6
CONTINUOUS
 10
88.564646726877115
 20
258.44414194785838
 30
0.0
 11
89.375705098930766
 21
257.90221006954653
 31
0.0
  0
LINE
  5
4FF
  8
0
  6
CONTINUOUS
 10
92.100180632809895
 20
258.44414194785838
 30
0.0
 11
91.28912226075623
 21
257.90221006954653
 31
0.0
  0
ENDBLK
  5
501
  8
0
  0
BLOCK
  8
0
  2
*U32
 70
     1
 10
0.0
 20
0.0
 30
0.0
  3
*U32
  1

  0
TEXT
  5
503
  8
0
 10
-26.629387449154439
 20
344.84434359077341
 30
0.0
 40
12.5
  1
Rafter
  7
ARIAL
  0
ENDBLK
  5
505
  8
0
  0
BLOCK
  8
0
  2
*U33
 70
     1
 10
0.0
 20
0.0
 30
0.0
  3
*U33
  1

  0
SOLID
  5
507
  8
0
  6
CONTINUOUS
 10
-297.47633949514523
 20
161.87200384827199
 30
0.0
 11
-298.4330480760579
 21
161.68170267955031
 31
0.0
 12
-296.51963091423238
 22
161.68170267955031
 32
0.0
 13
-296.51963091423238
 23
161.68170267955031
 33
0.0
210
0.0
220
0.0
230
1.0
  0
SOLID
  5
508
  8
0
  6
CONTINUOUS
 10
-298.4330480760579
 20
161.68170267955031
 30
0.0
 11
-299.24410644811149
 21
161.1397708012384
 31
0.0
 12
-295.7085725421789
 22
161.1397708012384
 32
0.0
 13
-295.7085725421789
 23
161.1397708012384
 33
0.0
210
0.0
220
0.0
230
1.0
  0
SOLID
  5
509
  8
0
  6
CONTINUOUS
 10
298.4330480760579
 20
161.68170267955031
 30
0.0
 11
296.51963091423238
 21
161.68170267955031
 31
0.0
 12
295.7085725421789
 22
161.1397708012384
 32
0.0
 13
295.7085725421789
 23
161.1397708012384
 33
0.0
210
0.0
220
0.0
230
-1.0
  0
SOLID
  5
50A
  8
0
  6
CONTINUOUS
 10
-299.24410644811149
 20
161.1397708012384
 30
0.0
 11
-299.7860383264233
 21
160.3287124291848
 31
0.0
 12
-295.16664066386699
 22
160.3287124291848
 32
0.0
 13
-295.16664066386699
 23
160.3287124291848
 33
0.0
210
0.0
220
0.0
230
1.0
  0
SOLID
  5
50B
  8
0
  6
CONTINUOUS
 10
299.24410644811149
 20
161.1397708012384
 30
0.0
 11
295.7085725421789
 21
161.1397708012384
 31
0.0
 12
295.16664066386699
 22
160.3287124291848
 32
0.0
 13
295.16664066386699
 23
160.3287124291848
 33
0.0
210
0.0
220
0.0
230
-1.0
  0
SOLID
  5
50C
  8
0
  6
CONTINUOUS
 10
-299.7860383264233
 20
160.3287124291848
 30
0.0
 11
-299.97633949514511
 21
159.3720038482721
 31
0.0
 12
-294.97633949514523
 22
159.3720038482721
 32
0.0
 13
-294.97633949514523
 23
159.3720038482721
 33
0.0
210
0.0
220
0.0
230
1.0
  0
SOLID
  5
50D
  8
0
  6
CONTINUOUS
 10
299.7860383264233
 20
160.3287124291848
 30
0.0
 11
295.16664066386699
 21
160.3287124291848
 31
0.0
 12
294.97633949514523
 22
159.3720038482721
 32
0.0
 13
294.97633949514523
 23
159.3720038482721
 33
0.0
210
0.0
220
0.0
230
-1.0
  0
SOLID
  5
50E
  8
0
  6
CONTINUOUS
 10
-299.97633949514511
 20
159.3720038482721
 30
0.0
 11
-299.7860383264233
 21
158.4152952673594
 31
0.0
 12
-295.16664066386699
 22
158.4152952673594
 32
0.0
 13
-295.16664066386699
 23
158.4152952673594
 33
0.0
210
0.0
220
0.0
230
1.0
  0
SOLID
  5
50F
  8
0
  6
CONTINUOUS
 10
299.97633949514511
 20
159.3720038482721
 30
0.0
 11
294.97633949514523
 21
159.3720038482721
 31
0.0
 12
295.16664066386699
 22
158.4152952673594
 32
0.0
 13
295.16664066386699
 23
158.4152952673594
 33
0.0
210
0.0
220
0.0
230
-1.0
  0
SOLID
  5
510
  8
0
  6
CONTINUOUS
 10
-299.7860383264233
 20
158.4152952673594
 30
0.0
 11
-299.24410644811149
 21
157.6042368953058
 31
0.0
 12
-295.7085725421789
 22
157.6042368953058
 32
0.0
 13
-295.7085725421789
 23
157.6042368953058
 33
0.0
210
0.0
220
0.0
230
1.0
  0
SOLID
  5
511
  8
0
  6
CONTINUOUS
 10
299.7860383264233
 20
158.4152952673594
 30
0.0
 11
295.16664066386699
 21
158.4152952673594
 31
0.0
 12
295.7085725421789
 22
157.6042368953058
 32
0.0
 13
295.7085725421789
 23
157.6042368953058
 33
0.0
210
0.0
220
0.0
230
-1.0
  0
SOLID
  5
512
  8
0
  6
CONTINUOUS
 10
298.4330480760579
 20
157.06230501699389
 30
0.0
 11
296.51963091423238
 21
157.06230501699389
 31
0.0
 12
297.47633949514523
 22
156.8720038482721
 32
0.0
 13
297.47633949514523
 23
156.8720038482721
 33
0.0
210
0.0
220
0.0
230
-1.0
  0
SOLID
  5
513
  8
0
  6
CONTINUOUS
 10
-299.24410644811149
 20
157.6042368953058
 30
0.0
 11
-298.4330480760579
 21
157.06230501699389
 31
0.0
 12
-296.51963091423238
 22
157.06230501699389
 32
0.0
 13
-296.51963091423238
 23
157.06230501699389
 33
0.0
210
0.0
220
0.0
230
1.0
  0
SOLID
  5
514
  8
0
  6
CONTINUOUS
 10
299.24410644811149
 20
157.6042368953058
 30
0.0
 11
295.7085725421789
 21
157.6042368953058
 31
0.0
 12
296.51963091423238
 22
157.06230501699389
 32
0.0
 13
296.51963091423238
 23
157.06230501699389
 33
0.0
210
0.0
220
0.0
230
-1.0
  0
LINE
  5
515
  8
0
  6
CONTINUOUS
 10
-297.47633949514523
 20
161.87200384827199
 30
0.0
 11
-298.4330480760579
 21
161.68170267955031
 31
0.0
  0
LINE
  5
516
  8
0
  6
CONTINUOUS
 10
-296.51963091423238
 20
161.68170267955031
 30
0.0
 11
-297.47633949514523
 21
161.87200384827199
 31
0.0
  0
LINE
  5
517
  8
0
  6
CONTINUOUS
 10
-298.4330480760579
 20
161.68170267955031
 30
0.0
 11
-299.24410644811149
 21
161.1397708012384
 31
0.0
  0
LINE
  5
518
  8
0
  6
CONTINUOUS
 10
-296.51963091423238
 20
161.68170267955031
 30
0.0
 11
-295.7085725421789
 21
161.1397708012384
 31
0.0
  0
LINE
  5
519
  8
0
  6
CONTINUOUS
 10
-299.24410644811149
 20
161.1397708012384
 30
0.0
 11
-299.7860383264233
 21
160.3287124291848
 31
0.0
  0
LINE
  5
51A
  8
0
  6
CONTINUOUS
 10
-295.7085725421789
 20
161.1397708012384
 30
0.0
 11
-295.16664066386699
 21
160.3287124291848
 31
0.0
  0
LINE
  5
51B
  8
0
  6
CONTINUOUS
 10
-299.7860383264233
 20
160.3287124291848
 30
0.0
 11
-299.97633949514511
 21
159.3720038482721
 31
0.0
  0
LINE
  5
51C
  8
0
  6
CONTINUOUS
 10
-295.16664066386699
 20
160.3287124291848
 30
0.0
 11
-294.97633949514523
 21
159.3720038482721
 31
0.0
  0
LINE
  5
51D
  8
0
  6
CONTINUOUS
 10
-299.97633949514511
 20
159.3720038482721
 30
0.0
 11
-299.7860383264233
 21
158.4152952673594
 31
0.0
  0
LINE
  5
51E
  8
0
  6
CONTINUOUS
 10
-294.97633949514523
 20
159.3720038482721
 30
0.0
 11
-295.16664066386699
 21
158.4152952673594
 31
0.0
  0
LINE
  5
51F
  8
0
  6
CONTINUOUS
 10
-299.7860383264233
 20
158.4152952673594
 30
0.0
 11
-299.24410644811149
 21
157.6042368953058
 31
0.0
  0
LINE
  5
520
  8
0
  6
CONTINUOUS
 10
-295.16664066386699
 20
158.4152952673594
 30
0.0
 11
-295.7085725421789
 21
157.6042368953058
 31
0.0
  0
LINE
  5
521
  8
0
  6
CONTINUOUS
 10
-296.51963091423238
 20
157.06230501699389
 30
0.0
 11
-297.47633949514523
 21
156.8720038482721
 31
0.0
  0
LINE
  5
522
  8
0
  6
CONTINUOUS
 10
-297.47633949514523
 20
156.8720038482721
 30
0.0
 11
-298.4330480760579
 21
157.06230501699389
 31
0.0
  0
LINE
  5
523
  8
0
  6
CONTINUOUS
 10
-299.24410644811149
 20
157.6042368953058
 30
0.0
 11
-298.4330480760579
 21
157.06230501699389
 31
0.0
  0
LINE
  5
524
  8
0
  6
CONTINUOUS
 10
-295.7085725421789
 20
157.6042368953058
 30
0.0
 11
-296.51963091423238
 21
157.06230501699389
 31
0.0
  0
ENDBLK
  5
526
  8
0
  0
BLOCK
  8
0
  2
*U34
 70
     1
 10
0.0
 20
0.0
 30
0.0
  3
*U34
  1

  0
TEXT
  5
528
  8
0
 10
-715.94049616062773
 20
339.44183921015122
 30
0.0
 40
12.5
  1
Plywood underlay 15mm
  7
ARIAL
  0
TEXT
  5
529
  8
0
 10
-714.90025059446134
 20
319.8214661340557
 30
0.0
 40
12.5
  1
thickness minimum
  7
ARIAL
  0
ENDBLK
  5
52B
  8
0
  0
BLOCK
  8
0
  2
*U35
 70
     1
 10
0.0
 20
0.0
 30
0.0
  3
*U35
  1

  0
SOLID
  5
52D
  8
0
  6
CONTINUOUS
 10
-241.57025492641191
 20
192.0820792749042
 30
0.0
 11
-242.52696350732461
 21
191.89177810618239
 31
0.0
 12
-240.6135463454992
 22
191.89177810618239
 32
0.0
 13
-240.6135463454992
 23
191.89177810618239
 33
0.0
210
0.0
220
0.0
230
1.0
  0
SOLID
  5
52E
  8
0
  6
CONTINUOUS
 10
-242.52696350732461
 20
191.89177810618239
 30
0.0
 11
-243.33802187937829
 21
191.3498462278705
 31
0.0
 12
-239.80248797344549
 22
191.3498462278705
 32
0.0
 13
-239.80248797344549
 23
191.3498462278705
 33
0.0
210
0.0
220
0.0
230
1.0
  0
SOLID
  5
52F
  8
0
  6
CONTINUOUS
 10
242.52696350732461
 20
191.89177810618239
 30
0.0
 11
240.6135463454992
 21
191.89177810618239
 31
0.0
 12
239.80248797344549
 22
191.3498462278705
 32
0.0
 13
239.80248797344549
 23
191.3498462278705
 33
0.0
210
0.0
220
0.0
230
-1.0
  0
SOLID
  5
530
  8
0
  6
CONTINUOUS
 10
-243.33802187937829
 20
191.3498462278705
 30
0.0
 11
-243.87995375769009
 21
190.53878785581691
 31
0.0
 12
-239.26055609513369
 22
190.53878785581691
 32
0.0
 13
-239.26055609513369
 23
190.53878785581691
 33
0.0
210
0.0
220
0.0
230
1.0
  0
SOLID
  5
531
  8
0
  6
CONTINUOUS
 10
243.33802187937829
 20
191.3498462278705
 30
0.0
 11
239.80248797344549
 21
191.3498462278705
 31
0.0
 12
239.26055609513369
 22
190.53878785581691
 32
0.0
 13
239.26055609513369
 23
190.53878785581691
 33
0.0
210
0.0
220
0.0
230
-1.0
  0
SOLID
  5
532
  8
0
  6
CONTINUOUS
 10
-243.87995375769009
 20
190.53878785581691
 30
0.0
 11
-244.07025492641191
 21
189.5820792749042
 31
0.0
 12
-239.07025492641191
 22
189.5820792749042
 32
0.0
 13
-239.07025492641191
 23
189.5820792749042
 33
0.0
210
0.0
220
0.0
230
1.0
  0
SOLID
  5
533
  8
0
  6
CONTINUOUS
 10
243.87995375769009
 20
190.53878785581691
 30
0.0
 11
239.26055609513369
 21
190.53878785581691
 31
0.0
 12
239.07025492641191
 22
189.5820792749042
 32
0.0
 13
239.07025492641191
 23
189.5820792749042
 33
0.0
210
0.0
220
0.0
230
-1.0
  0
SOLID
  5
534
  8
0
  6
CONTINUOUS
 10
-244.07025492641191
 20
189.5820792749042
 30
0.0
 11
-243.87995375769009
 21
188.62537069399141
 31
0.0
 12
-239.26055609513369
 22
188.62537069399141
 32
0.0
 13
-239.26055609513369
 23
188.62537069399141
 33
0.0
  0
SOLID
  5
535
  8
0
  6
CONTINUOUS
 10
244.07025492641191
 20
189.5820792749042
 30
0.0
 11
239.07025492641191
 21
189.5820792749042
 31
0.0
 12
239.26055609513369
 22
188.62537069399141
 32
0.0
 13
239.26055609513369
 23
188.62537069399141
 33
0.0
210
0.0
220
0.0
230
-1.0
  0
SOLID
  5
536
  8
0
  6
CONTINUOUS
 10
-243.87995375769009
 20
188.62537069399141
 30
0.0
 11
-243.33802187937829
 21
187.81431232193779
 31
0.0
 12
-239.80248797344549
 22
187.81431232193779
 32
0.0
 13
-239.80248797344549
 23
187.81431232193779
 33
0.0
210
0.0
220
0.0
230
1.0
  0
SOLID
  5
537
  8
0
  6
CONTINUOUS
 10
243.87995375769009
 20
188.62537069399141
 30
0.0
 11
239.26055609513369
 21
188.62537069399141
 31
0.0
 12
239.80248797344549
 22
187.81431232193779
 32
0.0
 13
239.80248797344549
 23
187.81431232193779
 33
0.0
210
0.0
220
0.0
230
-1.0
  0
SOLID
  5
538
  8
0
  6
CONTINUOUS
 10
242.52696350732461
 20
187.27238044362591
 30
0.0
 11
240.6135463454992
 21
187.27238044362591
 31
0.0
 12
241.57025492641191
 22
187.08207927490409
 32
0.0
 13
241.57025492641191
 23
187.08207927490409
 33
0.0
210
0.0
220
0.0
230
-1.0
  0
SOLID
  5
539
  8
0
  6
CONTINUOUS
 10
-243.33802187937829
 20
187.81431232193779
 30
0.0
 11
-242.52696350732461
 21
187.27238044362591
 31
0.0
 12
-240.6135463454992
 22
187.27238044362591
 32
0.0
 13
-240.6135463454992
 23
187.27238044362591
 33
0.0
210
0.0
220
0.0
230
1.0
  0
SOLID
  5
53A
  8
0
  6
CONTINUOUS
 10
243.33802187937829
 20
187.81431232193779
 30
0.0
 11
239.80248797344549
 21
187.81431232193779
 31
0.0
 12
240.6135463454992
 22
187.27238044362591
 32
0.0
 13
240.6135463454992
 23
187.27238044362591
 33
0.0
210
0.0
220
0.0
230
-1.0
  0
LINE
  5
53B
  8
0
  6
CONTINUOUS
 10
-241.57025492641191
 20
192.0820792749042
 30
0.0
 11
-242.52696350732461
 21
191.89177810618239
 31
0.0
  0
LINE
  5
53C
  8
0
  6
CONTINUOUS
 10
-240.6135463454992
 20
191.89177810618239
 30
0.0
 11
-241.57025492641191
 21
192.0820792749042
 31
0.0
  0
LINE
  5
53D
  8
0
  6
CONTINUOUS
 10
-242.52696350732461
 20
191.89177810618239
 30
0.0
 11
-243.33802187937829
 21
191.3498462278705
 31
0.0
  0
LINE
  5
53E
  8
0
  6
CONTINUOUS
 10
-240.6135463454992
 20
191.89177810618239
 30
0.0
 11
-239.80248797344549
 21
191.3498462278705
 31
0.0
  0
LINE
  5
53F
  8
0
  6
CONTINUOUS
 10
-243.33802187937829
 20
191.3498462278705
 30
0.0
 11
-243.87995375769009
 21
190.53878785581691
 31
0.0
  0
LINE
  5
540
  8
0
  6
CONTINUOUS
 10
-239.80248797344549
 20
191.3498462278705
 30
0.0
 11
-239.26055609513369
 21
190.53878785581691
 31
0.0
  0
LINE
  5
541
  8
0
  6
CONTINUOUS
 10
-243.87995375769009
 20
190.53878785581691
 30
0.0
 11
-244.07025492641191
 21
189.5820792749042
 31
0.0
  0
LINE
  5
542
  8
0
  6
CONTINUOUS
 10
-239.26055609513369
 20
190.53878785581691
 30
0.0
 11
-239.07025492641191
 21
189.5820792749042
 31
0.0
  0
LINE
  5
543
  8
0
  6
CONTINUOUS
 10
-244.07025492641191
 20
189.5820792749042
 30
0.0
 11
-243.87995375769009
 21
188.62537069399141
 31
0.0
  0
LINE
  5
544
  8
0
  6
CONTINUOUS
 10
-239.07025492641191
 20
189.5820792749042
 30
0.0
 11
-239.26055609513369
 21
188.62537069399141
 31
0.0
  0
LINE
  5
545
  8
0
  6
CONTINUOUS
 10
-243.87995375769009
 20
188.62537069399141
 30
0.0
 11
-243.33802187937829
 21
187.81431232193779
 31
0.0
  0
LINE
  5
546
  8
0
  6
CONTINUOUS
 10
-239.26055609513369
 20
188.62537069399141
 30
0.0
 11
-239.80248797344549
 21
187.81431232193779
 31
0.0
  0
LINE
  5
547
  8
0
  6
CONTINUOUS
 10
-240.6135463454992
 20
187.27238044362591
 30
0.0
 11
-241.57025492641191
 21
187.08207927490409
 31
0.0
  0
LINE
  5
548
  8
0
  6
CONTINUOUS
 10
-241.57025492641191
 20
187.08207927490409
 30
0.0
 11
-242.52696350732461
 21
187.27238044362591
 31
0.0
  0
LINE
  5
549
  8
0
  6
CONTINUOUS
 10
-243.33802187937829
 20
187.81431232193779
 30
0.0
 11
-242.52696350732461
 21
187.27238044362591
 31
0.0
  0
LINE
  5
54A
  8
0
  6
CONTINUOUS
 10
-239.80248797344549
 20
187.81431232193779
 30
0.0
 11
-240.6135463454992
 21
187.27238044362591
 31
0.0
  0
ENDBLK
  5
54C
  8
0
  0
BLOCK
  8
0
  2
*U36
 70
     1
 10
0.0
 20
0.0
 30
0.0
  3
*U36
  1

  0
TEXT
  5
54E
  8
0
 10
-715.96607596963179
 20
369.25445526852008
 30
0.0
 40
12.5
  1
Underlay
  7
ARIAL
  0
ENDBLK
  5
550
  8
0
  0
BLOCK
  8
0
  2
*U37
 70
     1
 10
0.0
 20
0.0
 30
0.0
  3
*U37
  1

  0
SOLID
  5
552
  8
0
  6
CONTINUOUS
 10
-426.65902097509399
 20
71.39310540188238
 30
0.0
 11
-427.61572955600673
 21
71.202804233160592
 31
0.0
 12
-425.70231239418132
 22
71.202804233160592
 32
0.0
 13
-425.70231239418132
 23
71.202804233160592
 33
0.0
210
0.0
220
0.0
230
1.0
  0
SOLID
  5
553
  8
0
  6
CONTINUOUS
 10
-427.61572955600673
 20
71.202804233160592
 30
0.0
 11
-428.42678792806038
 21
70.660872354848749
 31
0.0
 12
-424.89125402212761
 22
70.660872354848749
 32
0.0
 13
-424.89125402212761
 23
70.660872354848749
 33
0.0
210
0.0
220
0.0
230
1.0
  0
SOLID
  5
554
  8
0
  6
CONTINUOUS
 10
427.61572955600673
 20
71.202804233160592
 30
0.0
 11
425.70231239418132
 21
71.202804233160592
 31
0.0
 12
424.89125402212761
 22
70.660872354848749
 32
0.0
 13
424.89125402212761
 23
70.660872354848749
 33
0.0
210
0.0
220
0.0
230
-1.0
  0
SOLID
  5
555
  8
0
  6
CONTINUOUS
 10
-428.42678792806038
 20
70.660872354848749
 30
0.0
 11
-428.96871980637229
 21
69.849813982795098
 31
0.0
 12
-424.34932214381581
 22
69.849813982795098
 32
0.0
 13
-424.34932214381581
 23
69.849813982795098
 33
0.0
210
0.0
220
0.0
230
1.0
  0
SOLID
  5
556
  8
0
  6
CONTINUOUS
 10
428.42678792806038
 20
70.660872354848749
 30
0.0
 11
424.89125402212761
 21
70.660872354848749
 31
0.0
 12
424.34932214381581
 22
69.849813982795098
 32
0.0
 13
424.34932214381581
 23
69.849813982795098
 33
0.0
210
0.0
220
0.0
230
-1.0
  0
SOLID
  5
557
  8
0
  6
CONTINUOUS
 10
-428.96871980637229
 20
69.849813982795098
 30
0.0
 11
-429.15902097509399
 21
68.89310540188238
 31
0.0
 12
-424.15902097509399
 22
68.89310540188238
 32
0.0
 13
-424.15902097509399
 23
68.89310540188238
 33
0.0
210
0.0
220
0.0
230
1.0
  0
SOLID
  5
558
  8
0
  6
CONTINUOUS
 10
428.96871980637229
 20
69.849813982795098
 30
0.0
 11
424.34932214381581
 21
69.849813982795098
 31
0.0
 12
424.15902097509399
 22
68.89310540188238
 32
0.0
 13
424.15902097509399
 23
68.89310540188238
 33
0.0
210
0.0
220
0.0
230
-1.0
  0
SOLID
  5
559
  8
0
  6
CONTINUOUS
 10
-429.15902097509399
 20
68.89310540188238
 30
0.0
 11
-428.96871980637229
 21
67.936396820969662
 31
0.0
 12
-424.34932214381581
 22
67.936396820969662
 32
0.0
 13
-424.34932214381581
 23
67.936396820969662
 33
0.0
210
0.0
220
0.0
230
1.0
  0
SOLID
  5
55A
  8
0
  6
CONTINUOUS
 10
429.15902097509399
 20
68.89310540188238
 30
0.0
 11
424.15902097509399
 21
68.89310540188238
 31
0.0
 12
424.34932214381581
 22
67.936396820969662
 32
0.0
 13
424.34932214381581
 23
67.936396820969662
 33
0.0
210
0.0
220
0.0
230
-1.0
  0
SOLID
  5
55B
  8
0
  6
CONTINUOUS
 10
-428.96871980637229
 20
67.936396820969662
 30
0.0
 11
-428.42678792806038
 21
67.125338448916011
 31
0.0
 12
-424.89125402212761
 22
67.125338448916011
 32
0.0
 13
-424.89125402212761
 23
67.125338448916011
 33
0.0
210
0.0
220
0.0
230
1.0
  0
SOLID
  5
55C
  8
0
  6
CONTINUOUS
 10
428.96871980637229
 20
67.936396820969662
 30
0.0
 11
424.34932214381581
 21
67.936396820969662
 31
0.0
 12
424.89125402212761
 22
67.125338448916011
 32
0.0
 13
424.89125402212761
 23
67.125338448916011
 33
0.0
210
0.0
220
0.0
230
-1.0
  0
SOLID
  5
55D
  8
0
  6
CONTINUOUS
 10
427.61572955600673
 20
66.583406570604168
 30
0.0
 11
425.70231239418132
 21
66.583406570604168
 31
0.0
 12
426.65902097509399
 22
66.39310540188238
 32
0.0
 13
426.65902097509399
 23
66.39310540188238
 33
0.0
210
0.0
220
0.0
230
-1.0
  0
SOLID
  5
55E
  8
0
  6
CONTINUOUS
 10
-428.42678792806038
 20
67.125338448916011
 30
0.0
 11
-427.61572955600673
 21
66.583406570604168
 31
0.0
 12
-425.70231239418132
 22
66.583406570604168
 32
0.0
 13
-425.70231239418132
 23
66.583406570604168
 33
0.0
  0
SOLID
  5
55F
  8
0
  6
CONTINUOUS
 10
428.42678792806038
 20
67.125338448916011
 30
0.0
 11
424.89125402212761
 21
67.125338448916011
 31
0.0
 12
425.70231239418132
 22
66.583406570604168
 32
0.0
 13
425.70231239418132
 23
66.583406570604168
 33
0.0
210
0.0
220
0.0
230
-1.0
  0
LINE
  5
560
  8
0
  6
CONTINUOUS
 10
-426.65902097509399
 20
71.39310540188238
 30
0.0
 11
-427.61572955600673
 21
71.202804233160592
 31
0.0
  0
LINE
  5
561
  8
0
  6
CONTINUOUS
 10
-425.70231239418132
 20
71.202804233160592
 30
0.0
 11
-426.65902097509399
 21
71.39310540188238
 31
0.0
  0
LINE
  5
562
  8
0
  6
CONTINUOUS
 10
-427.61572955600673
 20
71.202804233160592
 30
0.0
 11
-428.42678792806038
 21
70.660872354848749
 31
0.0
  0
LINE
  5
563
  8
0
  6
CONTINUOUS
 10
-425.70231239418132
 20
71.202804233160592
 30
0.0
 11
-424.89125402212761
 21
70.660872354848749
 31
0.0
  0
LINE
  5
564
  8
0
  6
CONTINUOUS
 10
-428.42678792806038
 20
70.660872354848749
 30
0.0
 11
-428.96871980637229
 21
69.849813982795098
 31
0.0
  0
LINE
  5
565
  8
0
  6
CONTINUOUS
 10
-424.89125402212761
 20
70.660872354848749
 30
0.0
 11
-424.34932214381581
 21
69.849813982795098
 31
0.0
  0
LINE
  5
566
  8
0
  6
CONTINUOUS
 10
-428.96871980637229
 20
69.849813982795098
 30
0.0
 11
-429.15902097509399
 21
68.89310540188238
 31
0.0
  0
LINE
  5
567
  8
0
  6
CONTINUOUS
 10
-424.34932214381581
 20
69.849813982795098
 30
0.0
 11
-424.15902097509399
 21
68.89310540188238
 31
0.0
  0
LINE
  5
568
  8
0
  6
CONTINUOUS
 10
-429.15902097509399
 20
68.89310540188238
 30
0.0
 11
-428.96871980637229
 21
67.936396820969662
 31
0.0
  0
LINE
  5
569
  8
0
  6
CONTINUOUS
 10
-424.15902097509399
 20
68.89310540188238
 30
0.0
 11
-424.34932214381581
 21
67.936396820969662
 31
0.0
  0
LINE
  5
56A
  8
0
  6
CONTINUOUS
 10
-428.96871980637229
 20
67.936396820969662
 30
0.0
 11
-428.42678792806038
 21
67.125338448916011
 31
0.0
  0
LINE
  5
56B
  8
0
  6
CONTINUOUS
 10
-424.34932214381581
 20
67.936396820969662
 30
0.0
 11
-424.89125402212761
 21
67.125338448916011
 31
0.0
  0
LINE
  5
56C
  8
0
  6
CONTINUOUS
 10
-425.70231239418132
 20
66.583406570604168
 30
0.0
 11
-426.65902097509399
 21
66.39310540188238
 31
0.0
  0
LINE
  5
56D
  8
0
  6
CONTINUOUS
 10
-426.65902097509399
 20
66.39310540188238
 30
0.0
 11
-427.61572955600673
 21
66.583406570604168
 31
0.0
  0
LINE
  5
56E
  8
0
  6
CONTINUOUS
 10
-428.42678792806038
 20
67.125338448916011
 30
0.0
 11
-427.61572955600673
 21
66.583406570604168
 31
0.0
  0
LINE
  5
56F
  8
0
  6
CONTINUOUS
 10
-424.89125402212761
 20
67.125338448916011
 30
0.0
 11
-425.70231239418132
 21
66.583406570604168
 31
0.0
  0
ENDBLK
  5
571
  8
0
  0
BLOCK
  8
0
  2
*U38
 70
     1
 10
0.0
 20
0.0
 30
0.0
  3
*U38
  1

  0
TEXT
  5
573
  8
0
 10
-726.78723445361356
 20
-85.207166380325035
 30
0.0
 40
12.5
  1
902 CF US Starter
  7
ARIAL
  0
ENDBLK
  5
575
  8
0
  0
BLOCK
  8
0
  2
*U39
 70
     1
 10
0.0
 20
0.0
 30
0.0
  3
*U39
  1

  0
SOLID
  5
581
  8
0
  6
CONTINUOUS
 10
-535.91130677723982
 20
120.4944533974018
 30
0.0
 11
-549.14149628925077
 21
120.44785332656561
 31
0.0
 12
-535.55734409753268
 22
120.44785332656561
 32
0.0
 13
-535.55734409753268
 23
120.44785332656561
 33
0.0
210
0.0
220
0.0
230
1.0
  0
SOLID
  5
582
  8
0
  6
CONTINUOUS
 10
-549.14149628925077
 20
120.44785332656561
 30
0.0
 11
-549.17753385466051
 21
120.4348235934076
 31
0.0
 12
-535.45837344831045
 22
120.4348235934076
 32
0.0
 13
-535.45837344831045
 23
120.4348235934076
 33
0.0
210
0.0
220
0.0
230
1.0
  0
SOLID
  5
583
  8
0
  6
CONTINUOUS
 10
549.14149628925077
 20
120.44785332656561
 30
0.0
 11
535.55734409753268
 21
120.44785332656561
 31
0.0
 12
535.45837344831045
 22
120.4348235934076
 32
0.0
 13
535.45837344831045
 23
120.4348235934076
 33
0.0
210
0.0
220
0.0
230
-1.0
  0
SOLID
  5
584
  8
0
  6
CONTINUOUS
 10
-549.17753385466051
 20
120.4348235934076
 30
0.0
 11
-549.52129083748991
 21
120.3105349044645
 31
0.0
 12
-535.15831400981415
 22
120.3105349044645
 32
0.0
 13
-535.15831400981415
 23
120.3105349044645
 33
0.0
210
0.0
220
0.0
230
1.0
  0
SOLID
  5
585
  8
0
  6
CONTINUOUS
 10
549.17753385466051
 20
120.4348235934076
 30
0.0
 11
535.45837344831045
 21
120.4348235934076
 31
0.0
 12
535.15831400981415
 22
120.3105349044645
 32
0.0
 13
535.15831400981415
 23
120.3105349044645
 33
0.0
210
0.0
220
0.0
230
-1.0
  0
SOLID
  5
586
  8
0
  6
CONTINUOUS
 10
-549.52129083748991
 20
120.3105349044645
 30
0.0
 11
-549.59872610085245
 21
120.2599978540246
 31
0.0
 12
-535.0363067772397
 22
120.2599978540246
 32
0.0
 13
-535.0363067772397
 23
120.2599978540246
 33
0.0
210
0.0
220
0.0
230
1.0
  0
SOLID
  5
587
  8
0
  6
CONTINUOUS
 10
549.52129083748991
 20
120.3105349044645
 30
0.0
 11
535.15831400981415
 21
120.3105349044645
 31
0.0
 12
535.0363067772397
 22
120.2599978540246
 32
0.0
 13
535.0363067772397
 23
120.2599978540246
 33
0.0
210
0.0
220
0.0
230
-1.0
  0
SOLID
  5
588
  8
0
  6
CONTINUOUS
 10
-549.59872610085245
 20
120.2599978540246
 30
0.0
 11
-549.8594939586618
 21
120.089811329036
 31
0.0
 12
-534.81451537975886
 22
120.089811329036
 32
0.0
 13
-534.81451537975886
 23
120.089811329036
 33
0.0
210
0.0
220
0.0
230
1.0
  0
SOLID
  5
589
  8
0
  6
CONTINUOUS
 10
549.59872610085245
 20
120.2599978540246
 30
0.0
 11
535.0363067772397
 21
120.2599978540246
 31
0.0
 12
534.81451537975886
 22
120.089811329036
 32
0.0
 13
534.81451537975886
 23
120.089811329036
 33
0.0
210
0.0
220
0.0
230
-1.0
  0
SOLID
  5
58A
  8
0
  6
CONTINUOUS
 10
-549.8594939586618
 20
120.089811329036
 30
0.0
 11
-549.96233088082897
 21
119.9818902644782
 31
0.0
 12
-534.67386991016315
 22
119.9818902644782
 32
0.0
 13
-534.67386991016315
 23
119.9818902644782
 33
0.0
210
0.0
220
0.0
230
1.0
  0
SOLID
  5
58B
  8
0
  6
CONTINUOUS
 10
549.8594939586618
 20
120.089811329036
 30
0.0
 11
534.81451537975886
 21
120.089811329036
 31
0.0
 12
534.67386991016315
 22
119.9818902644782
 32
0.0
 13
534.67386991016315
 23
119.9818902644782
 33
0.0
210
0.0
220
0.0
230
-1.0
  0
SOLID
  5
58C
  8
0
  6
CONTINUOUS
 10
-549.96233088082897
 20
119.9818902644782
 30
0.0
 11
-550.13809389344885
 21
119.7974377251367
 31
0.0
 12
-534.53233449872516
 22
119.7974377251367
 32
0.0
 13
-534.53233449872516
 23
119.7974377251367
 33
0.0
210
0.0
220
0.0
230
1.0
  0
SOLID
  5
58D
  8
0
  6
CONTINUOUS
 10
549.96233088082897
 20
119.9818902644782
 30
0.0
 11
534.67386991016315
 21
119.9818902644782
 31
0.0
 12
534.53233449872516
 22
119.7974377251367
 32
0.0
 13
534.53233449872516
 23
119.7974377251367
 33
0.0
210
0.0
220
0.0
230
-1.0
  0
SOLID
  5
58E
  8
0
  6
CONTINUOUS
 10
-550.13809389344885
 20
119.7974377251367
 30
0.0
 11
-550.24237536863018
 21
119.6194533974017
 31
0.0
 12
-534.39576232061688
 22
119.6194533974017
 32
0.0
 13
-534.39576232061688
 23
119.6194533974017
 33
0.0
  0
SOLID
  5
58F
  8
0
  6
CONTINUOUS
 10
550.13809389344885
 20
119.7974377251367
 30
0.0
 11
534.53233449872516
 21
119.7974377251367
 31
0.0
 12
534.39576232061688
 22
119.6194533974017
 32
0.0
 13
534.39576232061688
 23
119.6194533974017
 33
0.0
210
0.0
220
0.0
230
-1.0
  0
SOLID
  5
590
  8
0
  6
CONTINUOUS
 10
-550.24237536863018
 20
119.6194533974017
 30
0.0
 11
-550.31561318997944
 21
119.4944533974018
 31
0.0
 12
-534.34398562532033
 22
119.4944533974018
 32
0.0
 13
-534.34398562532033
 23
119.4944533974018
 33
0.0
210
0.0
220
0.0
230
1.0
  0
SOLID
  5
591
  8
0
  6
CONTINUOUS
 10
550.24237536863018
 20
119.6194533974017
 30
0.0
 11
534.39576232061688
 21
119.6194533974017
 31
0.0
 12
534.34398562532033
 22
119.4944533974018
 32
0.0
 13
534.34398562532033
 23
119.4944533974018
 33
0.0
210
0.0
220
0.0
230
-1.0
  0
SOLID
  5
592
  8
0
  6
CONTINUOUS
 10
-548.74033711720244
 20
119.4944533974018
 30
0.0
 11
-538.56288521632428
 21
119.4744819384709
 31
0.0
 12
-534.33571317617088
 22
119.4744819384709
 32
0.0
 13
-534.33571317617088
 23
119.4744819384709
 33
0.0
210
0.0
220
0.0
230
1.0
  0
SOLID
  5
593
  8
0
  6
CONTINUOUS
 10
548.74033711720244
 20
119.4944533974018
 30
0.0
 11
534.34398562532033
 21
119.4944533974018
 31
0.0
 12
534.33571317617088
 22
119.4744819384709
 32
0.0
 13
534.33571317617088
 23
119.4744819384709
 33
0.0
210
0.0
220
0.0
230
-1.0
  0
SOLID
  5
594
  8
0
  6
CONTINUOUS
 10
-550.31561318997944
 20
119.4944533974018
 30
0.0
 11
-550.32731451910956
 21
119.4744819384709
 31
0.0
 12
-548.91226247665202
 22
119.4744819384709
 32
0.0
 13
-548.91226247665202
 23
119.4744819384709
 33
0.0
210
0.0
220
0.0
230
1.0
  0
SOLID
  5
595
  8
0
  6
CONTINUOUS
 10
550.31561318997944
 20
119.4944533974018
 30
0.0
 11
548.74033711720244
 21
119.4944533974018
 31
0.0
 12
548.91226247665202
 22
119.4744819384709
 32
0.0
 13
548.91226247665202
 23
119.4744819384709
 33
0.0
210
0.0
220
0.0
230
-1.0
  0
SOLID
  5
596
  8
0
  6
CONTINUOUS
 10
-538.56288521632428
 20
119.4744819384709
 30
0.0
 11
-535.71719249341277
 21
119.46889776711851
 31
0.0
 12
-534.33340013666202
 22
119.46889776711851
 32
0.0
 13
-534.33340013666202
 23
119.46889776711851
 33
0.0
210
0.0
220
0.0
230
1.0
  0
SOLID
  5
597
  8
0
  6
CONTINUOUS
 10
538.56288521632428
 20
119.4744819384709
 30
0.0
 11
534.33571317617088
 21
119.4744819384709
 31
0.0
 12
534.33340013666202
 22
119.46889776711851
 32
0.0
 13
534.33340013666202
 23
119.46889776711851
 33
0.0
210
0.0
220
0.0
230
-1.0
  0
SOLID
  5
598
  8
0
  6
CONTINUOUS
 10
-550.32731451910956
 20
119.4744819384709
 30
0.0
 11
-550.34225318277049
 21
119.44898509922599
 31
0.0
 12
-548.96339243146599
 22
119.44898509922599
 32
0.0
 13
-548.96339243146599
 23
119.44898509922599
 33
0.0
210
0.0
220
0.0
230
1.0
  0
SOLID
  5
599
  8
0
  6
CONTINUOUS
 10
550.32731451910956
 20
119.4744819384709
 30
0.0
 11
548.91226247665202
 21
119.4744819384709
 31
0.0
 12
548.96339243146599
 22
119.44898509922599
 32
0.0
 13
548.96339243146599
 23
119.44898509922599
 33
0.0
210
0.0
220
0.0
230
-1.0
  0
SOLID
  5
59A
  8
0
  6
CONTINUOUS
 10
-550.34225318277049
 20
119.44898509922599
 30
0.0
 11
-550.38165032496875
 21
119.32103536810089
 31
0.0
 12
-549.21997576354272
 22
119.32103536810089
 32
0.0
 13
-549.21997576354272
 23
119.32103536810089
 33
0.0
210
0.0
220
0.0
230
1.0
  0
SOLID
  5
59B
  8
0
  6
CONTINUOUS
 10
550.34225318277049
 20
119.44898509922599
 30
0.0
 11
548.96339243146599
 21
119.44898509922599
 31
0.0
 12
549.21997576354272
 22
119.32103536810089
 32
0.0
 13
549.21997576354272
 23
119.32103536810089
 33
0.0
210
0.0
220
0.0
230
-1.0
  0
SOLID
  5
59C
  8
0
  6
CONTINUOUS
 10
-535.71719249341277
 20
119.46889776711851
 30
0.0
 11
-535.38097669134982
 21
119.2747834832917
 31
0.0
 12
-534.25299536765056
 22
119.2747834832917
 32
0.0
 13
-534.25299536765056
 23
119.2747834832917
 33
0.0
210
0.0
220
0.0
230
1.0
  0
SOLID
  5
59D
  8
0
  6
CONTINUOUS
 10
535.71719249341277
 20
119.46889776711851
 30
0.0
 11
534.33340013666202
 21
119.46889776711851
 31
0.0
 12
534.25299536765056
 22
119.2747834832917
 32
0.0
 13
534.25299536765056
 23
119.2747834832917
 33
0.0
210
0.0
220
0.0
230
-1.0
  0
SOLID
  5
59E
  8
0
  6
CONTINUOUS
 10
-535.38097669134982
 20
119.2747834832917
 30
0.0
 11
-535.33629165288426
 21
119.1973867263312
 31
0.0
 12
-534.2209365812339
 22
119.1973867263312
 32
0.0
 13
-534.2209365812339
 23
119.1973867263312
 33
0.0
210
0.0
220
0.0
230
1.0
  0
SOLID
  5
59F
  8
0
  6
CONTINUOUS
 10
535.38097669134982
 20
119.2747834832917
 30
0.0
 11
534.25299536765056
 21
119.2747834832917
 31
0.0
 12
534.2209365812339
 22
119.1973867263312
 32
0.0
 13
534.2209365812339
 23
119.1973867263312
 33
0.0
210
0.0
220
0.0
230
-1.0
  0
SOLID
  5
5A0
  8
0
  6
CONTINUOUS
 10
-550.38165032496875
 20
119.32103536810089
 30
0.0
 11
-550.46109886966235
 21
119.0630110707894
 31
0.0
 12
-549.41435546240143
 22
119.0630110707894
 32
0.0
 13
-549.41435546240143
 23
119.0630110707894
 33
0.0
210
0.0
220
0.0
230
1.0
  0
SOLID
  5
5A1
  8
0
  6
CONTINUOUS
 10
550.38165032496875
 20
119.32103536810089
 30
0.0
 11
549.21997576354272
 21
119.32103536810089
 31
0.0
 12
549.41435546240143
 22
119.0630110707894
 32
0.0
 13
549.41435546240143
 23
119.0630110707894
 33
0.0
210
0.0
220
0.0
230
-1.0
  0
SOLID
  5
5A2
  8
0
  6
CONTINUOUS
 10
-550.46109886966235
 20
119.0630110707894
 30
0.0
 11
-550.46417483293328
 21
119.04639555532491
 31
0.0
 12
-549.42687257387524
 22
119.04639555532491
 32
0.0
 13
-549.42687257387524
 23
119.04639555532491
 33
0.0
210
0.0
220
0.0
230
1.0
  0
SOLID
  5
5A3
  8
0
  6
CONTINUOUS
 10
550.46109886966235
 20
119.0630110707894
 30
0.0
 11
549.41435546240143
 21
119.0630110707894
 31
0.0
 12
549.42687257387524
 22
119.04639555532491
 32
0.0
 13
549.42687257387524
 23
119.04639555532491
 33
0.0
210
0.0
220
0.0
230
-1.0
  0
SOLID
  5
5A4
  8
0
  6
CONTINUOUS
 10
-535.33629165288426
 20
119.1973867263312
 30
0.0
 11
-535.18686240752299
 21
118.9385676812287
 31
0.0
 12
-534.18686240752299
 22
118.9385676812287
 32
0.0
 13
-534.18686240752299
 23
118.9385676812287
 33
0.0
210
0.0
220
0.0
230
1.0
  0
SOLID
  5
5A5
  8
0
  6
CONTINUOUS
 10
535.33629165288426
 20
119.1973867263312
 30
0.0
 11
534.2209365812339
 21
119.1973867263312
 31
0.0
 12
534.18686240752299
 22
118.9385676812287
 32
0.0
 13
534.18686240752299
 23
118.9385676812287
 33
0.0
210
0.0
220
0.0
230
-1.0
  0
SOLID
  5
5A6
  8
0
  6
CONTINUOUS
 10
-535.18686240752299
 20
118.9385676812287
 30
0.0
 11
-535.1613067772397
 21
118.7444533974018
 31
0.0
 12
-534.16130677723982
 22
118.7444533974018
 32
0.0
 13
-534.16130677723982
 23
118.7444533974018
 33
0.0
  0
SOLID
  5
5A7
  8
0
  6
CONTINUOUS
 10
535.18686240752299
 20
118.9385676812287
 30
0.0
 11
534.18686240752299
 21
118.9385676812287
 31
0.0
 12
534.16130677723982
 22
118.7444533974018
 32
0.0
 13
534.16130677723982
 23
118.7444533974018
 33
0.0
210
0.0
220
0.0
230
-1.0
  0
SOLID
  5
5A8
  8
0
  6
CONTINUOUS
 10
-535.1613067772397
 20
118.7444533974018
 30
0.0
 11
-535.1613067772397
 21
116.0837292962775
 31
0.0
 12
-534.16130677723982
 22
116.0837292962775
 32
0.0
 13
-534.16130677723982
 23
116.0837292962775
 33
0.0
  0
SOLID
  5
5A9
  8
0
  6
CONTINUOUS
 10
535.1613067772397
 20
118.7444533974018
 30
0.0
 11
534.16130677723982
 21
118.7444533974018
 31
0.0
 12
534.16130677723982
 22
116.0837292962775
 32
0.0
 13
534.16130677723982
 23
116.0837292962775
 33
0.0
210
0.0
220
0.0
230
-1.0
  0
SOLID
  5
5AA
  8
0
  6
CONTINUOUS
 10
-550.46417483293328
 20
119.04639555532491
 30
0.0
 11
-552.45700361319132
 21
108.2816774816165
 31
0.0
 12
-551.44001215722722
 22
108.2816774816165
 32
0.0
 13
-551.44001215722722
 23
108.2816774816165
 33
0.0
  0
SOLID
  5
5AB
  8
0
  6
CONTINUOUS
 10
550.46417483293328
 20
119.04639555532491
 30
0.0
 11
549.42687257387524
 21
119.04639555532491
 31
0.0
 12
551.44001215722722
 22
108.2816774816165
 32
0.0
 13
551.44001215722722
 23
108.2816774816165
 33
0.0
210
0.0
220
0.0
230
-1.0
  0
SOLID
  5
5AC
  8
0
  6
CONTINUOUS
 10
-552.45700361319132
 20
108.2816774816165
 30
0.0
 11
-552.49612532181641
 21
108.0703526713356
 31
0.0
 12
-551.46599294923362
 22
108.0703526713356
 32
0.0
 13
-551.46599294923362
 23
108.0703526713356
 33
0.0
210
0.0
220
0.0
230
1.0
  0
SOLID
  5
5AD
  8
0
  6
CONTINUOUS
 10
552.45700361319132
 20
108.2816774816165
 30
0.0
 11
551.44001215722722
 21
108.2816774816165
 31
0.0
 12
551.46599294923362
 22
108.0703526713356
 32
0.0
 13
551.46599294923362
 23
108.0703526713356
 33
0.0
210
0.0
220
0.0
230
-1.0
  0
SOLID
  5
5AE
  8
0
  6
CONTINUOUS
 10
-552.49612532181641
 20
108.0703526713356
 30
0.0
 11
-552.53435155780096
 21
107.4732186542053
 31
0.0
 12
-551.5394060741686
 22
107.4732186542053
 32
0.0
 13
-551.5394060741686
 23
107.4732186542053
 33
0.0
210
0.0
220
0.0
230
1.0
  0
SOLID
  5
5AF
  8
0
  6
CONTINUOUS
 10
552.49612532181641
 20
108.0703526713356
 30
0.0
 11
551.46599294923362
 21
108.0703526713356
 31
0.0
 12
551.5394060741686
 22
107.4732186542053
 32
0.0
 13
551.5394060741686
 23
107.4732186542053
 33
0.0
210
0.0
220
0.0
230
-1.0
  0
SOLID
  5
5B0
  8
0
  6
CONTINUOUS
 10
-552.53435155780096
 20
107.4732186542053
 30
0.0
 11
-552.53788317976114
 21
107.4180510041963
 31
0.0
 12
-551.52969062408454
 22
107.4180510041963
 32
0.0
 13
-551.52969062408454
 23
107.4180510041963
 33
0.0
210
0.0
220
0.0
230
1.0
  0
SOLID
  5
5B1
  8
0
  6
CONTINUOUS
 10
552.53435155780096
 20
107.4732186542053
 30
0.0
 11
551.5394060741686
 21
107.4732186542053
 31
0.0
 12
551.52969062408454
 22
107.4180510041963
 32
0.0
 13
551.52969062408454
 23
107.4180510041963
 33
0.0
210
0.0
220
0.0
230
-1.0
  0
SOLID
  5
5B2
  8
0
  6
CONTINUOUS
 10
-552.53788317976114
 20
107.4180510041963
 30
0.0
 11
-552.4754566457899
 21
107.0635717832034
 31
0.0
 12
-551.46726409011353
 22
107.0635717832034
 32
0.0
 13
-551.46726409011353
 23
107.0635717832034
 33
0.0
210
0.0
220
0.0
230
1.0
  0
SOLID
  5
5B3
  8
0
  6
CONTINUOUS
 10
552.53788317976114
 20
107.4180510041963
 30
0.0
 11
551.52969062408454
 21
107.4180510041963
 31
0.0
 12
551.46726409011353
 22
107.0635717832034
 32
0.0
 13
551.46726409011353
 23
107.0635717832034
 33
0.0
210
0.0
220
0.0
230
-1.0
  0
SOLID
  5
5B4
  8
0
  6
CONTINUOUS
 10
-552.4754566457899
 20
107.0635717832034
 30
0.0
 11
-552.42451720481733
 21
106.7743202069076
 31
0.0
 12
-551.3406617026626
 22
106.7743202069076
 32
0.0
 13
-551.3406617026626
 23
106.7743202069076
 33
0.0
210
0.0
220
0.0
230
1.0
  0
SOLID
  5
5B5
  8
0
  6
CONTINUOUS
 10
552.4754566457899
 20
107.0635717832034
 30
0.0
 11
551.46726409011353
 21
107.0635717832034
 31
0.0
 12
551.3406617026626
 22
106.7743202069076
 32
0.0
 13
551.3406617026626
 23
106.7743202069076
 33
0.0
210
0.0
220
0.0
230
-1.0
  0
SOLID
  5
5B6
  8
0
  6
CONTINUOUS
 10
-552.42451720481733
 20
106.7743202069076
 30
0.0
 11
-552.38433808171806
 21
106.68252197999681
 31
0.0
 12
-551.30048257956344
 22
106.68252197999681
 32
0.0
 13
-551.30048257956344
 23
106.68252197999681
 33
0.0
210
0.0
220
0.0
230
1.0
  0
SOLID
  5
5B7
  8
0
  6
CONTINUOUS
 10
552.42451720481733
 20
106.7743202069076
 30
0.0
 11
551.3406617026626
 21
106.7743202069076
 31
0.0
 12
551.30048257956344
 22
106.68252197999681
 32
0.0
 13
551.30048257956344
 23
106.68252197999681
 33
0.0
210
0.0
220
0.0
230
-1.0
  0
SOLID
  5
5B8
  8
0
  6
CONTINUOUS
 10
-552.38433808171806
 20
106.68252197999681
 30
0.0
 11
-552.23949548015935
 21
106.3515965396535
 31
0.0
 12
-551.04848381425131
 22
106.3515965396535
 32
0.0
 13
-551.04848381425131
 23
106.3515965396535
 33
0.0
210
0.0
220
0.0
230
1.0
  0
SOLID
  5
5B9
  8
0
  6
CONTINUOUS
 10
552.38433808171806
 20
106.68252197999681
 30
0.0
 11
551.30048257956344
 21
106.68252197999681
 31
0.0
 12
551.04848381425131
 22
106.3515965396535
 32
0.0
 13
551.04848381425131
 23
106.3515965396535
 33
0.0
210
0.0
220
0.0
230
-1.0
  0
SOLID
  5
5BA
  8
0
  6
CONTINUOUS
 10
-552.23949548015935
 20
106.3515965396535
 30
0.0
 11
-552.16243197395306
 21
106.17552765901149
 31
0.0
 12
-550.77368785884744
 22
106.17552765901149
 32
0.0
 13
-550.77368785884744
 23
106.17552765901149
 33
0.0
  0
SOLID
  5
5BB
  8
0
  6
CONTINUOUS
 10
552.23949548015935
 20
106.3515965396535
 30
0.0
 11
551.04848381425131
 21
106.3515965396535
 31
0.0
 12
550.77368785884744
 22
106.17552765901149
 32
0.0
 13
550.77368785884744
 23
106.17552765901149
 33
0.0
210
0.0
220
0.0
230
-1.0
  0
SOLID
  5
5BC
  8
0
  6
CONTINUOUS
 10
-552.16243197395306
 20
106.17552765901149
 30
0.0
 11
-551.76643391417701
 21
105.655501967044
 31
0.0
 12
-549.96206824533169
 22
105.655501967044
 32
0.0
 13
-549.96206824533169
 23
105.655501967044
 33
0.0
210
0.0
220
0.0
230
1.0
  0
SOLID
  5
5BD
  8
0
  6
CONTINUOUS
 10
552.16243197395306
 20
106.17552765901149
 30
0.0
 11
550.77368785884744
 21
106.17552765901149
 31
0.0
 12
549.96206824533169
 22
105.655501967044
 32
0.0
 13
549.96206824533169
 23
105.655501967044
 33
0.0
210
0.0
220
0.0
230
-1.0
  0
SOLID
  5
5BE
  8
0
  6
CONTINUOUS
 10
-551.76643391417701
 20
105.655501967044
 30
0.0
 11
-551.25889481785703
 21
105.24362182748951
 31
0.0
 12
-549.31923462221732
 22
105.24362182748951
 32
0.0
 13
-549.31923462221732
 23
105.24362182748951
 33
0.0
210
0.0
220
0.0
230
1.0
  0
SOLID
  5
5BF
  8
0
  6
CONTINUOUS
 10
551.76643391417701
 20
105.655501967044
 30
0.0
 11
549.96206824533169
 21
105.655501967044
 31
0.0
 12
549.31923462221732
 22
105.24362182748951
 32
0.0
 13
549.31923462221732
 23
105.24362182748951
 33
0.0
210
0.0
220
0.0
230
-1.0
  0
SOLID
  5
5C0
  8
0
  6
CONTINUOUS
 10
-420.75000000000091
 20
104.0797633734888
 30
0.0
 11
-421.33234285148188
 21
104.00309648263909
 31
0.0
 12
-420.16765714852011
 22
104.00309648263909
 32
0.0
 13
-420.16765714852011
 23
104.00309648263909
 33
0.0
210
0.0
220
0.0
230
1.0
  0
SOLID
  5
5C1
  8
0
  6
CONTINUOUS
 10
-421.33234285148188
 20
104.00309648263909
 30
0.0
 11
-421.87500000000148
 21
103.7783205320036
 31
0.0
 12
-419.62500000000051
 22
103.7783205320036
 32
0.0
 13
-419.62500000000051
 23
103.7783205320036
 33
0.0
210
0.0
220
0.0
230
1.0
  0
SOLID
  5
5C2
  8
0
  6
CONTINUOUS
 10
421.33234285148188
 20
104.00309648263909
 30
0.0
 11
420.16765714852011
 21
104.00309648263909
 31
0.0
 12
419.62500000000051
 22
103.7783205320036
 32
0.0
 13
419.62500000000051
 23
103.7783205320036
 33
0.0
210
0.0
220
0.0
230
-1.0
  0
SOLID
  5
5C3
  8
0
  6
CONTINUOUS
 10
-421.87500000000148
 20
103.7783205320036
 30
0.0
 11
-422.34099025767142
 21
103.42075363115831
 31
0.0
 12
-419.15900974233062
 22
103.42075363115831
 32
0.0
 13
-419.15900974233062
 23
103.42075363115831
 33
0.0
210
0.0
220
0.0
230
1.0
  0
SOLID
  5
5C4
  8
0
  6
CONTINUOUS
 10
421.87500000000148
 20
103.7783205320036
 30
0.0
 11
419.62500000000051
 21
103.7783205320036
 31
0.0
 12
419.15900974233062
 22
103.42075363115831
 32
0.0
 13
419.15900974233062
 23
103.42075363115831
 33
0.0
210
0.0
220
0.0
230
-1.0
  0
SOLID
  5
5C5
  8
0
  6
CONTINUOUS
 10
-422.34099025767142
 20
103.42075363115831
 30
0.0
 11
-422.6026412850191
 21
103.0797633734887
 31
0.0
 12
-418.89735871498289
 22
103.0797633734887
 32
0.0
 13
-418.89735871498289
 23
103.0797633734887
 33
0.0
210
0.0
220
0.0
230
1.0
  0
SOLID
  5
5C6
  8
0
  6
CONTINUOUS
 10
422.34099025767142
 20
103.42075363115831
 30
0.0
 11
419.15900974233062
 21
103.42075363115831
 31
0.0
 12
418.89735871498289
 22
103.0797633734887
 32
0.0
 13
418.89735871498289
 23
103.0797633734887
 33
0.0
210
0.0
220
0.0
230
-1.0
  0
SOLID
  5
5C7
  8
0
  6
CONTINUOUS
 10
-420.75000000000091
 20
103.0797633734887
 30
0.0
 11
-420.4264761936214
 21
103.0371706563501
 31
0.0
 12
-418.86467617363098
 22
103.0371706563501
 32
0.0
 13
-418.86467617363098
 23
103.0371706563501
 33
0.0
210
0.0
220
0.0
230
1.0
  0
SOLID
  5
5C8
  8
0
  6
CONTINUOUS
 10
420.75000000000091
 20
103.0797633734887
 30
0.0
 11
418.89735871498289
 21
103.0797633734887
 31
0.0
 12
418.86467617363098
 22
103.0371706563501
 32
0.0
 13
418.86467617363098
 23
103.0371706563501
 33
0.0
210
0.0
220
0.0
230
-1.0
  0
SOLID
  5
5C9
  8
0
  6
CONTINUOUS
 10
-422.6026412850191
 20
103.0797633734887
 30
0.0
 11
-422.63532382637089
 21
103.0371706563501
 31
0.0
 12
-421.0735238063794
 22
103.0371706563501
 32
0.0
 13
-421.0735238063794
 23
103.0371706563501
 33
0.0
210
0.0
220
0.0
230
1.0
  0
SOLID
  5
5CA
  8
0
  6
CONTINUOUS
 10
422.6026412850191
 20
103.0797633734887
 30
0.0
 11
420.75000000000091
 21
103.0797633734887
 31
0.0
 12
421.0735238063794
 22
103.0371706563501
 32
0.0
 13
421.0735238063794
 23
103.0371706563501
 33
0.0
210
0.0
220
0.0
230
-1.0
  0
SOLID
  5
5CB
  8
0
  6
CONTINUOUS
 10
-420.42647619362219
 20
103.0371706563501
 30
0.0
 11
-420.22752741369931
 21
102.9547633734883
 31
0.0
 12
-418.8014428414852
 22
102.9547633734883
 32
0.0
 13
-418.8014428414852
 23
102.9547633734883
 33
0.0
210
0.0
220
0.0
230
1.0
  0
SOLID
  5
5CC
  8
0
  6
CONTINUOUS
 10
420.42647619362219
 20
103.0371706563501
 30
0.0
 11
418.86467617363098
 21
103.0371706563501
 31
0.0
 12
418.8014428414852
 22
102.9547633734883
 32
0.0
 13
418.8014428414852
 23
102.9547633734883
 33
0.0
210
0.0
220
0.0
230
-1.0
  0
SOLID
  5
5CD
  8
0
  6
CONTINUOUS
 10
-422.63532382637089
 20
103.0371706563501
 30
0.0
 11
-422.69855715851668
 21
102.9547633734883
 31
0.0
 12
-421.2724725863024
 22
102.9547633734883
 32
0.0
 13
-421.2724725863024
 23
102.9547633734883
 33
0.0
210
0.0
220
0.0
230
1.0
  0
SOLID
  5
5CE
  8
0
  6
CONTINUOUS
 10
422.63532382637089
 20
103.0371706563501
 30
0.0
 11
421.0735238063794
 21
103.0371706563501
 31
0.0
 12
421.2724725863024
 22
102.9547633734883
 32
0.0
 13
421.2724725863024
 23
102.9547633734883
 33
0.0
210
0.0
220
0.0
230
-1.0
  0
SOLID
  5
5CF
  8
0
  6
CONTINUOUS
 10
-420.22752741369931
 20
102.9547633734883
 30
0.0
 11
-420.12500000000023
 21
102.9122951282191
 31
0.0
 12
-418.7838519183245
 22
102.9122951282191
 32
0.0
 13
-418.7838519183245
 23
102.9122951282191
 33
0.0
210
0.0
220
0.0
230
1.0
  0
SOLID
  5
5D0
  8
0
  6
CONTINUOUS
 10
420.22752741369931
 20
102.9547633734883
 30
0.0
 11
418.8014428414852
 21
102.9547633734883
 31
0.0
 12
418.7838519183245
 22
102.9122951282191
 32
0.0
 13
418.7838519183245
 23
102.9122951282191
 33
0.0
210
0.0
220
0.0
230
-1.0
  0
SOLID
  5
5D1
  8
0
  6
CONTINUOUS
 10
-422.69855715851668
 20
102.9547633734883
 30
0.0
 11
-422.71614808167737
 21
102.9122951282191
 31
0.0
 12
-421.37500000000148
 22
102.9122951282191
 32
0.0
 13
-421.37500000000148
 23
102.9122951282191
 33
0.0
210
0.0
220
0.0
230
1.0
  0
SOLID
  5
5D2
  8
0
  6
CONTINUOUS
 10
422.69855715851668
 20
102.9547633734883
 30
0.0
 11
421.2724725863024
 21
102.9547633734883
 31
0.0
 12
421.37500000000148
 22
102.9122951282191
 32
0.0
 13
421.37500000000148
 23
102.9122951282191
 33
0.0
210
0.0
220
0.0
230
-1.0
  0
SOLID
  5
5D3
  8
0
  6
CONTINUOUS
 10
-420.1250000000004
 20
102.9122951282191
 30
0.0
 11
-419.86611652351712
 21
102.7136468499717
 31
0.0
 12
-418.70156910733232
 22
102.7136468499717
 32
0.0
 13
-418.70156910733232
 23
102.7136468499717
 33
0.0
210
0.0
220
0.0
230
1.0
  0
SOLID
  5
5D4
  8
0
  6
CONTINUOUS
 10
420.1250000000004
 20
102.9122951282191
 30
0.0
 11
418.7838519183245
 21
102.9122951282191
 31
0.0
 12
418.70156910733232
 22
102.7136468499717
 32
0.0
 13
418.70156910733232
 23
102.7136468499717
 33
0.0
210
0.0
220
0.0
230
-1.0
  0
SOLID
  5
5D5
  8
0
  6
CONTINUOUS
 10
-422.71614808167737
 20
102.9122951282191
 30
0.0
 11
-422.7984308926695
 21
102.7136468499717
 31
0.0
 12
-421.6338834764847
 22
102.7136468499717
 32
0.0
 13
-421.6338834764847
 23
102.7136468499717
 33
0.0
210
0.0
220
0.0
230
1.0
  0
SOLID
  5
5D6
  8
0
  6
CONTINUOUS
 10
422.71614808167737
 20
102.9122951282191
 30
0.0
 11
421.37500000000148
 21
102.9122951282191
 31
0.0
 12
421.6338834764847
 22
102.7136468499717
 32
0.0
 13
421.6338834764847
 23
102.7136468499717
 33
0.0
210
0.0
220
0.0
230
-1.0
  0
SOLID
  5
5D7
  8
0
  6
CONTINUOUS
 10
-551.25889481785703
 20
105.24362182748951
 30
0.0
 11
-547.16176953181775
 21
102.66004567568309
 31
0.0
 12
-545.2869702356561
 22
102.66004567568309
 32
0.0
 13
-545.2869702356561
 23
102.66004567568309
 33
0.0
210
0.0
220
0.0
230
1.0
  0
SOLID
  5
5D8
  8
0
  6
CONTINUOUS
 10
551.25889481785703
 20
105.24362182748951
 30
0.0
 11
549.31923462221732
 21
105.24362182748951
 31
0.0
 12
545.2869702356561
 22
102.66004567568309
 32
0.0
 13
545.2869702356561
 23
102.66004567568309
 33
0.0
210
0.0
220
0.0
230
-1.0
  0
SOLID
  5
5D9
  8
0
  6
CONTINUOUS
 10
-419.86611652351712
 20
102.7136468499717
 30
0.0
 11
-419.6674682452695
 21
102.4547633734883
 31
0.0
 12
-418.59433606029859
 22
102.4547633734883
 32
0.0
 13
-418.59433606029859
 23
102.4547633734883
 33
0.0
210
0.0
220
0.0
230
1.0
  0
SOLID
  5
5DA
  8
0
  6
CONTINUOUS
 10
419.86611652351712
 20
102.7136468499717
 30
0.0
 11
418.70156910733232
 21
102.7136468499717
 31
0.0
 12
418.59433606029859
 22
102.4547633734883
 32
0.0
 13
418.59433606029859
 23
102.4547633734883
 33
0.0
210
0.0
220
0.0
230
-1.0
  0
SOLID
  5
5DB
  8
0
  6
CONTINUOUS
 10
-422.7984308926695
 20
102.7136468499717
 30
0.0
 11
-422.90566393970329
 21
102.4547633734883
 31
0.0
 12
-421.83253175473232
 22
102.4547633734883
 32
0.0
 13
-421.83253175473232
 23
102.4547633734883
 33
0.0
210
0.0
220
0.0
230
1.0
  0
SOLID
  5
5DC
  8
0
  6
CONTINUOUS
 10
422.7984308926695
 20
102.7136468499717
 30
0.0
 11
421.6338834764847
 21
102.7136468499717
 31
0.0
 12
421.83253175473232
 22
102.4547633734883
 32
0.0
 13
421.83253175473232
 23
102.4547633734883
 33
0.0
210
0.0
220
0.0
230
-1.0
  0
SOLID
  5
5DD
  8
0
  6
CONTINUOUS
 10
-419.6674682452695
 20
102.4547633734883
 30
0.0
 11
-419.64979907582062
 21
102.4121062249688
 31
0.0
 12
-418.57666689084971
 22
102.4121062249688
 32
0.0
 13
-418.57666689084971
 23
102.4121062249688
 33
0.0
210
0.0
220
0.0
230
1.0
  0
SOLID
  5
5DE
  8
0
  6
CONTINUOUS
 10
419.6674682452695
 20
102.4547633734883
 30
0.0
 11
418.59433606029859
 21
102.4547633734883
 31
0.0
 12
418.57666689084971
 22
102.4121062249688
 32
0.0
 13
418.57666689084971
 23
102.4121062249688
 33
0.0
210
0.0
220
0.0
230
-1.0
  0
SOLID
  5
5DF
  8
0
  6
CONTINUOUS
 10
-422.90566393970329
 20
102.4547633734883
 30
0.0
 11
-422.92333310915222
 21
102.4121062249688
 31
0.0
 12
-421.85020092418119
 22
102.4121062249688
 32
0.0
 13
-421.85020092418119
 23
102.4121062249688
 33
0.0
210
0.0
220
0.0
230
1.0
  0
SOLID
  5
5E0
  8
0
  6
CONTINUOUS
 10
422.90566393970329
 20
102.4547633734883
 30
0.0
 11
421.83253175473232
 21
102.4547633734883
 31
0.0
 12
421.85020092418119
 22
102.4121062249688
 32
0.0
 13
421.85020092418119
 23
102.4121062249688
 33
0.0
210
0.0
220
0.0
230
-1.0
  0
SOLID
  5
5E1
  8
0
  6
CONTINUOUS
 10
-419.64979907582062
 20
102.4121062249688
 30
0.0
 11
-419.54259271713869
 21
102.1532871798663
 31
0.0
 12
-418.54259271713869
 22
102.1532871798663
 32
0.0
 13
-418.54259271713869
 23
102.1532871798663
 33
0.0
210
0.0
220
0.0
230
1.0
  0
SOLID
  5
5E2
  8
0
  6
CONTINUOUS
 10
419.64979907582062
 20
102.4121062249688
 30
0.0
 11
418.57666689084971
 21
102.4121062249688
 31
0.0
 12
418.54259271713869
 22
102.1532871798663
 32
0.0
 13
418.54259271713869
 23
102.1532871798663
 33
0.0
210
0.0
220
0.0
230
-1.0
  0
SOLID
  5
5E3
  8
0
  6
CONTINUOUS
 10
-422.92333310915222
 20
102.4121062249688
 30
0.0
 11
-422.95740728286307
 21
102.1532871798663
 31
0.0
 12
-421.95740728286307
 22
102.1532871798663
 32
0.0
 13
-421.95740728286307
 23
102.1532871798663
 33
0.0
210
0.0
220
0.0
230
1.0
  0
SOLID
  5
5E4
  8
0
  6
CONTINUOUS
 10
422.92333310915222
 20
102.4121062249688
 30
0.0
 11
421.85020092418119
 21
102.4121062249688
 31
0.0
 12
421.95740728286307
 22
102.1532871798663
 32
0.0
 13
421.95740728286307
 23
102.1532871798663
 33
0.0
210
0.0
220
0.0
230
-1.0
  0
SOLID
  5
5E5
  8
0
  6
CONTINUOUS
 10
-419.54259271713869
 20
102.1532871798663
 30
0.0
 11
-419.5
 21
101.82976337348791
 31
0.0
 12
-418.5
 22
101.82976337348791
 32
0.0
 13
-418.5
 23
101.82976337348791
 33
0.0
210
0.0
220
0.0
230
1.0
  0
SOLID
  5
5E6
  8
0
  6
CONTINUOUS
 10
419.54259271713869
 20
102.1532871798663
 30
0.0
 11
418.54259271713869
 21
102.1532871798663
 31
0.0
 12
418.5
 22
101.82976337348791
 32
0.0
 13
418.5
 23
101.82976337348791
 33
0.0
210
0.0
220
0.0
230
-1.0
  0
SOLID
  5
5E7
  8
0
  6
CONTINUOUS
 10
-422.95740728286307
 20
102.1532871798663
 30
0.0
 11
-423.00000000000188
 21
101.82976337348791
 31
0.0
 12
-421.95999574841233
 22
101.82976337348791
 32
0.0
 13
-421.95999574841233
 23
101.82976337348791
 33
0.0
  0
SOLID
  5
5E8
  8
0
  6
CONTINUOUS
 10
422.95740728286307
 20
102.1532871798663
 30
0.0
 11
421.95740728286307
 21
102.1532871798663
 31
0.0
 12
421.95999574841233
 22
101.82976337348791
 32
0.0
 13
421.95999574841233
 23
101.82976337348791
 33
0.0
210
0.0
220
0.0
230
-1.0
  0
SOLID
  5
5E9
  8
0
  6
CONTINUOUS
 10
-547.16176953181775
 20
102.66004567568309
 30
0.0
 11
-545.82036066419266
 21
101.8141765068718
 31
0.0
 12
-544.11951618625062
 22
101.8141765068718
 32
0.0
 13
-544.11951618625062
 23
101.8141765068718
 33
0.0
210
0.0
220
0.0
230
1.0
  0
SOLID
  5
5EA
  8
0
  6
CONTINUOUS
 10
547.16176953181775
 20
102.66004567568309
 30
0.0
 11
545.2869702356561
 21
102.66004567568309
 31
0.0
 12
544.11951618625062
 22
101.8141765068718
 32
0.0
 13
544.11951618625062
 23
101.8141765068718
 33
0.0
210
0.0
220
0.0
230
-1.0
  0
SOLID
  5
5EB
  8
0
  6
CONTINUOUS
 10
-545.82036066419266
 20
101.8141765068718
 30
0.0
 11
-543.87109144315104
 21
100.40184962631361
 31
0.0
 12
-542.170246965209
 22
100.40184962631361
 32
0.0
 13
-542.170246965209
 23
100.40184962631361
 33
0.0
210
0.0
220
0.0
230
1.0
  0
SOLID
  5
5EC
  8
0
  6
CONTINUOUS
 10
545.82036066419266
 20
101.8141765068718
 30
0.0
 11
544.11951618625062
 21
101.8141765068718
 31
0.0
 12
542.170246965209
 22
100.40184962631361
 32
0.0
 13
542.170246965209
 23
100.40184962631361
 33
0.0
210
0.0
220
0.0
230
-1.0
  0
SOLID
  5
5ED
  8
0
  6
CONTINUOUS
 10
-543.87109144315104
 20
100.40184962631361
 30
0.0
 11
-542.80666956797563
 21
99.630631566572646
 31
0.0
 12
-541.34544810790055
 22
99.630631566572646
 32
0.0
 13
-541.34544810790055
 23
99.630631566572646
 33
0.0
210
0.0
220
0.0
230
1.0
  0
SOLID
  5
5EE
  8
0
  6
CONTINUOUS
 10
543.87109144315104
 20
100.40184962631361
 30
0.0
 11
542.170246965209
 21
100.40184962631361
 31
0.0
 12
541.34544810790055
 22
99.630631566572646
 32
0.0
 13
541.34544810790055
 23
99.630631566572646
 33
0.0
210
0.0
220
0.0
230
-1.0
  0
SOLID
  5
5EF
  8
0
  6
CONTINUOUS
 10
-542.80666956797563
 20
99.630631566572646
 30
0.0
 11
-540.86426267394188
 21
97.814407813629188
 31
0.0
 12
-539.40304121386714
 22
97.814407813629188
 32
0.0
 13
-539.40304121386714
 23
97.814407813629188
 33
0.0
210
0.0
220
0.0
230
1.0
  0
SOLID
  5
5F0
  8
0
  6
CONTINUOUS
 10
542.80666956797563
 20
99.630631566572646
 30
0.0
 11
541.34544810790055
 21
99.630631566572646
 31
0.0
 12
539.40304121386714
 22
97.814407813629188
 32
0.0
 13
539.40304121386714
 23
97.814407813629188
 33
0.0
210
0.0
220
0.0
230
-1.0
  0
SOLID
  5
5F1
  8
0
  6
CONTINUOUS
 10
-540.86426267394188
 20
97.814407813629188
 30
0.0
 11
-540.13094169271096
 21
97.128725020423246
 31
0.0
 12
-538.83524380978258
 22
97.128725020423246
 32
0.0
 13
-538.83524380978258
 23
97.128725020423246
 33
0.0
  0
SOLID
  5
5F2
  8
0
  6
CONTINUOUS
 10
540.86426267394188
 20
97.814407813629188
 30
0.0
 11
539.40304121386714
 21
97.814407813629188
 31
0.0
 12
538.83524380978258
 22
97.128725020423246
 32
0.0
 13
538.83524380978258
 23
97.128725020423246
 33
0.0
210
0.0
220
0.0
230
-1.0
  0
SOLID
  5
5F3
  8
0
  6
CONTINUOUS
 10
-423.00000000000188
 20
101.82976337348791
 30
0.0
 11
-423.00000000000188
 21
96.829763373487879
 31
0.0
 12
-422.00000000000182
 22
96.829763373487879
 32
0.0
 13
-422.00000000000182
 23
96.829763373487879
 33
0.0
210
0.0
220
0.0
230
1.0
  0
SOLID
  5
5F4
  8
0
  6
CONTINUOUS
 10
423.00000000000188
 20
101.82976337348791
 30
0.0
 11
421.95999574841233
 21
101.82976337348791
 31
0.0
 12
422.00000000000182
 22
96.829763373487879
 32
0.0
 13
422.00000000000182
 23
96.829763373487879
 33
0.0
210
0.0
220
0.0
230
-1.0
  0
SOLID
  5
5F5
  8
0
  6
CONTINUOUS
 10
-540.13094169271096
 20
97.128725020423246
 30
0.0
 11
-538.26324934043885
 21
94.873264710560818
 31
0.0
 12
-536.96755145751058
 22
94.873264710560818
 32
0.0
 13
-536.96755145751058
 23
94.873264710560818
 33
0.0
210
0.0
220
0.0
230
1.0
  0
SOLID
  5
5F6
  8
0
  6
CONTINUOUS
 10
540.13094169271096
 20
97.128725020423246
 30
0.0
 11
538.83524380978258
 21
97.128725020423246
 31
0.0
 12
536.96755145751058
 22
94.873264710560818
 32
0.0
 13
536.96755145751058
 23
94.873264710560818
 33
0.0
210
0.0
220
0.0
230
-1.0
  0
SOLID
  5
5F7
  8
0
  6
CONTINUOUS
 10
-538.26324934043885
 20
94.873264710560818
 30
0.0
 11
-537.77596399441575
 21
94.284809788530552
 31
0.0
 12
-536.59301842901459
 22
94.284809788530552
 32
0.0
 13
-536.59301842901459
 23
94.284809788530552
 33
0.0
210
0.0
220
0.0
230
1.0
  0
SOLID
  5
5F8
  8
0
  6
CONTINUOUS
 10
538.26324934043885
 20
94.873264710560818
 30
0.0
 11
536.96755145751058
 21
94.873264710560818
 31
0.0
 12
536.59301842901459
 22
94.284809788530552
 32
0.0
 13
536.59301842901459
 23
94.284809788530552
 33
0.0
210
0.0
220
0.0
230
-1.0
  0
SOLID
  5
5F9
  8
0
  6
CONTINUOUS
 10
-537.77596399441575
 20
94.284809788530552
 30
0.0
 11
-536.10012783389971
 21
91.651786898314626
 31
0.0
 12
-534.91718226849855
 22
91.651786898314626
 32
0.0
 13
-534.91718226849855
 23
91.651786898314626
 33
0.0
210
0.0
220
0.0
230
1.0
  0
SOLID
  5
5FA
  8
0
  6
CONTINUOUS
 10
537.77596399441575
 20
94.284809788530552
 30
0.0
 11
536.59301842901459
 21
94.284809788530552
 31
0.0
 12
534.91718226849855
 22
91.651786898314626
 32
0.0
 13
534.91718226849855
 23
91.651786898314626
 33
0.0
210
0.0
220
0.0
230
-1.0
  0
SOLID
  5
5FB
  8
0
  6
CONTINUOUS
 10
-536.10012783389971
 20
91.651786898314626
 30
0.0
 11
-535.79337560504052
 21
91.169827110573578
 31
0.0
 12
-534.69059447058009
 22
91.169827110573578
 32
0.0
 13
-534.69059447058009
 23
91.169827110573578
 33
0.0
  0
SOLID
  5
5FC
  8
0
  6
CONTINUOUS
 10
536.10012783389971
 20
91.651786898314626
 30
0.0
 11
534.91718226849855
 21
91.651786898314626
 31
0.0
 12
534.69059447058009
 22
91.169827110573578
 32
0.0
 13
534.69059447058009
 23
91.169827110573578
 33
0.0
210
0.0
220
0.0
230
-1.0
  0
SOLID
  5
5FD
  8
0
  6
CONTINUOUS
 10
-535.79337560504052
 20
91.169827110573578
 30
0.0
 11
-534.55666276910119
 21
88.53929774676169
 31
0.0
 12
-533.45388163464099
 22
88.53929774676169
 32
0.0
 13
-533.45388163464099
 23
88.53929774676169
 33
0.0
210
0.0
220
0.0
230
1.0
  0
SOLID
  5
5FE
  8
0
  6
CONTINUOUS
 10
535.79337560504052
 20
91.169827110573578
 30
0.0
 11
534.69059447058009
 21
91.169827110573578
 31
0.0
 12
533.45388163464099
 22
88.53929774676169
 32
0.0
 13
533.45388163464099
 23
88.53929774676169
 33
0.0
210
0.0
220
0.0
230
-1.0
  0
SOLID
  5
5FF
  8
0
  6
CONTINUOUS
 10
-534.55666276910119
 20
88.53929774676169
 30
0.0
 11
-534.23481565653572
 21
87.854718226230517
 31
0.0
 12
-533.2232109898539
 22
87.854718226230517
 32
0.0
 13
-533.2232109898539
 23
87.854718226230517
 33
0.0
210
0.0
220
0.0
230
1.0
  0
SOLID
  5
600
  8
0
  6
CONTINUOUS
 10
534.55666276910119
 20
88.53929774676169
 30
0.0
 11
533.45388163464099
 21
88.53929774676169
 31
0.0
 12
533.2232109898539
 22
87.854718226230517
 32
0.0
 13
533.2232109898539
 23
87.854718226230517
 33
0.0
210
0.0
220
0.0
230
-1.0
  0
SOLID
  5
601
  8
0
  6
CONTINUOUS
 10
-534.23481565653572
 20
87.854718226230517
 30
0.0
 11
-533.16366508972419
 21
84.563471362838243
 31
0.0
 12
-532.11421778546583
 22
84.563471362838243
 32
0.0
 13
-532.11421778546583
 23
84.563471362838243
 33
0.0
210
0.0
220
0.0
230
1.0
  0
SOLID
  5
602
  8
0
  6
CONTINUOUS
 10
534.23481565653572
 20
87.854718226230517
 30
0.0
 11
533.2232109898539
 21
87.854718226230517
 31
0.0
 12
532.11421778546583
 22
84.563471362838243
 32
0.0
 13
532.11421778546583
 23
84.563471362838243
 33
0.0
210
0.0
220
0.0
230
-1.0
  0
SOLID
  5
603
  8
0
  6
CONTINUOUS
 10
-533.16366508972419
 20
84.563471362838243
 30
0.0
 11
-533.08307110491808
 21
84.315836055608841
 31
0.0
 12
-532.05092312139698
 22
84.315836055608841
 32
0.0
 13
-532.05092312139698
 23
84.315836055608841
 33
0.0
  0
SOLID
  5
604
  8
0
  6
CONTINUOUS
 10
533.16366508972419
 20
84.563471362838243
 30
0.0
 11
532.11421778546583
 21
84.563471362838243
 31
0.0
 12
532.05092312139698
 22
84.315836055608841
 32
0.0
 13
532.05092312139698
 23
84.315836055608841
 33
0.0
210
0.0
220
0.0
230
-1.0
  0
SOLID
  5
605
  8
0
  6
CONTINUOUS
 10
-533.08307110491808
 20
84.315836055608841
 30
0.0
 11
-527.79373791779597
 21
63.621743305421909
 31
0.0
 12
-526.76158993427521
 22
63.621743305421909
 32
0.0
 13
-526.76158993427521
 23
63.621743305421909
 33
0.0
210
0.0
220
0.0
230
1.0
  0
SOLID
  5
606
  8
0
  6
CONTINUOUS
 10
533.08307110491808
 20
84.315836055608841
 30
0.0
 11
532.05092312139698
 21
84.315836055608841
 31
0.0
 12
526.76158993427521
 22
63.621743305421909
 32
0.0
 13
526.76158993427521
 23
63.621743305421909
 33
0.0
210
0.0
220
0.0
230
-1.0
  0
SOLID
  5
607
  8
0
  6
CONTINUOUS
 10
-527.79373791779597
 20
63.621743305421909
 30
0.0
 11
-527.63550125762401
 21
63.002655037347942
 31
0.0
 12
-526.53848931560856
 22
63.002655037347942
 32
0.0
 13
-526.53848931560856
 23
63.002655037347942
 33
0.0
210
0.0
220
0.0
230
1.0
  0
SOLID
  5
608
  8
0
  6
CONTINUOUS
 10
527.79373791779597
 20
63.621743305421909
 30
0.0
 11
526.76158993427521
 21
63.621743305421909
 31
0.0
 12
526.53848931560856
 22
63.002655037347942
 32
0.0
 13
526.53848931560856
 23
63.002655037347942
 33
0.0
210
0.0
220
0.0
230
-1.0
  0
SOLID
  5
609
  8
0
  6
CONTINUOUS
 10
-527.63550125762401
 20
63.002655037347942
 30
0.0
 11
-525.70550447424375
 21
57.750185270467263
 31
0.0
 12
-524.64565865647796
 22
57.750185270467263
 32
0.0
 13
-524.64565865647796
 23
57.750185270467263
 33
0.0
210
0.0
220
0.0
230
1.0
  0
SOLID
  5
60A
  8
0
  6
CONTINUOUS
 10
527.63550125762401
 20
63.002655037347942
 30
0.0
 11
526.53848931560856
 21
63.002655037347942
 31
0.0
 12
524.64565865647796
 22
57.750185270467263
 32
0.0
 13
524.64565865647796
 23
57.750185270467263
 33
0.0
210
0.0
220
0.0
230
-1.0
  0
SOLID
  5
60B
  8
0
  6
CONTINUOUS
 10
-525.70550447424375
 20
57.750185270467263
 30
0.0
 11
-525.47796880109786
 21
57.130948878792182
 31
0.0
 12
-524.26627857418441
 22
57.130948878792182
 32
0.0
 13
-524.26627857418441
 23
57.130948878792182
 33
0.0
210
0.0
220
0.0
230
1.0
  0
SOLID
  5
60C
  8
0
  6
CONTINUOUS
 10
525.70550447424375
 20
57.750185270467263
 30
0.0
 11
524.64565865647796
 21
57.750185270467263
 31
0.0
 12
524.26627857418441
 22
57.130948878792182
 32
0.0
 13
524.26627857418441
 23
57.130948878792182
 33
0.0
210
0.0
220
0.0
230
-1.0
  0
SOLID
  5
60D
  8
0
  6
CONTINUOUS
 10
-525.47796880109786
 20
57.130948878792182
 30
0.0
 11
-522.55661818503199
 21
52.428762137489777
 31
0.0
 12
-521.38544660620175
 22
52.428762137489777
 32
0.0
 13
-521.38544660620175
 23
52.428762137489777
 33
0.0
210
0.0
220
0.0
230
1.0
  0
SOLID
  5
60E
  8
0
  6
CONTINUOUS
 10
525.47796880109786
 20
57.130948878792182
 30
0.0
 11
524.26627857418441
 21
57.130948878792182
 31
0.0
 12
521.38544660620175
 22
52.428762137489777
 32
0.0
 13
521.38544660620175
 23
52.428762137489777
 33
0.0
210
0.0
220
0.0
230
-1.0
  0
SOLID
  5
60F
  8
0
  6
CONTINUOUS
 10
-522.55661818503199
 20
52.428762137489777
 30
0.0
 11
-522.17678055315071
 21
51.817377982963237
 31
0.0
 12
-520.80470349060181
 22
51.817377982963237
 32
0.0
 13
-520.80470349060181
 23
51.817377982963237
 33
0.0
210
0.0
220
0.0
230
1.0
  0
SOLID
  5
610
  8
0
  6
CONTINUOUS
 10
522.55661818503199
 20
52.428762137489777
 30
0.0
 11
521.38544660620175
 21
52.428762137489777
 31
0.0
 12
520.80470349060181
 22
51.817377982963237
 32
0.0
 13
520.80470349060181
 23
51.817377982963237
 33
0.0
210
0.0
220
0.0
230
-1.0
  0
SOLID
  5
611
  8
0
  6
CONTINUOUS
 10
-522.17678055315071
 20
51.817377982963237
 30
0.0
 11
-518.58940340392041
 21
48.040724439539289
 31
0.0
 12
-517.21732634137118
 22
48.040724439539289
 32
0.0
 13
-517.21732634137118
 23
48.040724439539289
 33
0.0
  0
SOLID
  5
612
  8
0
  6
CONTINUOUS
 10
522.17678055315071
 20
51.817377982963237
 30
0.0
 11
520.80470349060181
 21
51.817377982963237
 31
0.0
 12
517.21732634137118
 22
48.040724439539289
 32
0.0
 13
517.21732634137118
 23
48.040724439539289
 33
0.0
210
0.0
220
0.0
230
-1.0
  0
SOLID
  5
613
  8
0
  6
CONTINUOUS
 10
-518.58940340392041
 20
48.040724439539289
 30
0.0
 11
-517.86855540546867
 21
47.281843219535219
 31
0.0
 12
-516.33299740425139
 22
47.281843219535219
 32
0.0
 13
-516.33299740425139
 23
47.281843219535219
 33
0.0
210
0.0
220
0.0
230
1.0
  0
SOLID
  5
614
  8
0
  6
CONTINUOUS
 10
518.58940340392041
 20
48.040724439539289
 30
0.0
 11
517.21732634137118
 21
48.040724439539289
 31
0.0
 12
516.33299740425139
 22
47.281843219535219
 32
0.0
 13
516.33299740425139
 23
47.281843219535219
 33
0.0
210
0.0
220
0.0
230
-1.0
  0
SOLID
  5
615
  8
0
  6
CONTINUOUS
 10
-517.86855540546867
 20
47.281843219535219
 30
0.0
 11
-514.85982853723203
 21
44.699923505517241
 31
0.0
 12
-513.32427053601486
 22
44.699923505517241
 32
0.0
 13
-513.32427053601486
 23
44.699923505517241
 33
0.0
210
0.0
220
0.0
230
1.0
  0
SOLID
  5
616
  8
0
  6
CONTINUOUS
 10
517.86855540546867
 20
47.281843219535219
 30
0.0
 11
516.33299740425139
 21
47.281843219535219
 31
0.0
 12
513.32427053601486
 22
44.699923505517241
 32
0.0
 13
513.32427053601486
 23
44.699923505517241
 33
0.0
210
0.0
220
0.0
230
-1.0
  0
SOLID
  5
617
  8
0
  6
CONTINUOUS
 10
-514.85982853723203
 20
44.699923505517241
 30
0.0
 11
-513.97549960011224
 21
43.941042285513298
 31
0.0
 12
-512.53631069543837
 22
43.941042285513298
 32
0.0
 13
-512.53631069543837
 23
43.941042285513298
 33
0.0
210
0.0
220
0.0
230
1.0
  0
SOLID
  5
618
  8
0
  6
CONTINUOUS
 10
514.85982853723203
 20
44.699923505517241
 30
0.0
 11
513.32427053601486
 21
44.699923505517241
 31
0.0
 12
512.53631069543837
 22
43.941042285513298
 32
0.0
 13
512.53631069543837
 23
43.941042285513298
 33
0.0
210
0.0
220
0.0
230
-1.0
  0
SOLID
  5
619
  8
0
  6
CONTINUOUS
 10
-513.97549960011224
 20
43.941042285513298
 30
0.0
 11
-513.34356305433153
 21
43.32911695873527
 31
0.0
 12
-511.90093776720812
 22
43.32911695873527
 32
0.0
 13
-511.90093776720812
 23
43.32911695873527
 33
0.0
210
0.0
220
0.0
230
1.0
  0
SOLID
  5
61A
  8
0
  6
CONTINUOUS
 10
513.97549960011224
 20
43.941042285513298
 30
0.0
 11
512.53631069543837
 21
43.941042285513298
 31
0.0
 12
511.90093776720812
 22
43.32911695873527
 32
0.0
 13
511.90093776720812
 23
43.32911695873527
 33
0.0
210
0.0
220
0.0
230
-1.0
  0
SOLID
  5
61B
  8
0
  6
CONTINUOUS
 10
-513.34356305433153
 20
43.32911695873527
 30
0.0
 11
-512.35064184144494
 21
42.367638086027171
 31
0.0
 12
-511.08399644701962
 22
42.367638086027171
 32
0.0
 13
-511.08399644701962
 23
42.367638086027171
 33
0.0
  0
SOLID
  5
61C
  8
0
  6
CONTINUOUS
 10
513.34356305433153
 20
43.32911695873527
 30
0.0
 11
511.90093776720812
 21
43.32911695873527
 31
0.0
 12
511.08399644701962
 22
42.367638086027171
 32
0.0
 13
511.08399644701962
 23
42.367638086027171
 33
0.0
210
0.0
220
0.0
230
-1.0
  0
SOLID
  5
61D
  8
0
  6
CONTINUOUS
 10
-512.35064184144494
 20
42.367638086027171
 30
0.0
 11
-511.46679938559919
 21
41.295434089375028
 31
0.0
 12
-510.17297513037943
 22
41.295434089375028
 32
0.0
 13
-510.17297513037943
 23
41.295434089375028
 33
0.0
210
0.0
220
0.0
230
1.0
  0
SOLID
  5
61E
  8
0
  6
CONTINUOUS
 10
512.35064184144494
 20
42.367638086027171
 30
0.0
 11
511.08399644701962
 21
42.367638086027171
 31
0.0
 12
510.17297513037943
 22
41.295434089375028
 32
0.0
 13
510.17297513037943
 23
41.295434089375028
 33
0.0
210
0.0
220
0.0
230
-1.0
  0
SOLID
  5
61F
  8
0
  6
CONTINUOUS
 10
-511.46679938559919
 20
41.295434089375028
 30
0.0
 11
-510.97982372068122
 21
40.704675803501672
 31
0.0
 12
-509.7404338128099
 22
40.704675803501672
 32
0.0
 13
-509.7404338128099
 23
40.704675803501672
 33
0.0
210
0.0
220
0.0
230
1.0
  0
SOLID
  5
620
  8
0
  6
CONTINUOUS
 10
511.46679938559919
 20
41.295434089375028
 30
0.0
 11
510.17297513037943
 21
41.295434089375028
 31
0.0
 12
509.7404338128099
 22
40.704675803501672
 32
0.0
 13
509.7404338128099
 23
40.704675803501672
 33
0.0
210
0.0
220
0.0
230
-1.0
  0
SOLID
  5
621
  8
0
  6
CONTINUOUS
 10
-510.97982372068122
 20
40.704675803501672
 30
0.0
 11
-510.70099161407882
 21
40.301145136760589
 31
0.0
 12
-509.44497678673753
 22
40.301145136760589
 32
0.0
 13
-509.44497678673753
 23
40.301145136760589
 33
0.0
210
0.0
220
0.0
230
1.0
  0
SOLID
  5
622
  8
0
  6
CONTINUOUS
 10
510.97982372068122
 20
40.704675803501672
 30
0.0
 11
509.7404338128099
 21
40.704675803501672
 31
0.0
 12
509.44497678673753
 22
40.301145136760589
 32
0.0
 13
509.44497678673753
 23
40.301145136760589
 33
0.0
210
0.0
220
0.0
230
-1.0
  0
SOLID
  5
623
  8
0
  6
CONTINUOUS
 10
-510.70099161407882
 20
40.301145136760589
 30
0.0
 11
-510.34517232271821
 21
39.786197279314379
 31
0.0
 12
-509.16289155138168
 22
39.786197279314379
 32
0.0
 13
-509.16289155138168
 23
39.786197279314379
 33
0.0
  0
SOLID
  5
624
  8
0
  6
CONTINUOUS
 10
510.70099161407882
 20
40.301145136760589
 30
0.0
 11
509.44497678673753
 21
40.301145136760589
 31
0.0
 12
509.16289155138168
 22
39.786197279314379
 32
0.0
 13
509.16289155138168
 23
39.786197279314379
 33
0.0
210
0.0
220
0.0
230
-1.0
  0
SOLID
  5
625
  8
0
  6
CONTINUOUS
 10
-510.34517232271821
 20
39.786197279314379
 30
0.0
 11
-510.09511135739712
 21
39.424304707861531
 31
0.0
 12
-509.07454257538387
 22
39.424304707861531
 32
0.0
 13
-509.07454257538387
 23
39.424304707861531
 33
0.0
  0
SOLID
  5
626
  8
0
  6
CONTINUOUS
 10
510.34517232271821
 20
39.786197279314379
 30
0.0
 11
509.16289155138168
 21
39.786197279314379
 31
0.0
 12
509.07454257538387
 22
39.424304707861531
 32
0.0
 13
509.07454257538387
 23
39.424304707861531
 33
0.0
210
0.0
220
0.0
230
-1.0
  0
SOLID
  5
627
  8
0
  6
CONTINUOUS
 10
-510.09511135739712
 20
39.424304707861531
 30
0.0
 11
-510.0442091438178
 21
39.215800503293273
 31
0.0
 12
-509.02364036180461
 22
39.215800503293273
 32
0.0
 13
-509.02364036180461
 23
39.215800503293273
 33
0.0
  0
SOLID
  5
628
  8
0
  6
CONTINUOUS
 10
510.09511135739712
 20
39.424304707861531
 30
0.0
 11
509.07454257538387
 21
39.424304707861531
 31
0.0
 12
509.02364036180461
 22
39.215800503293273
 32
0.0
 13
509.02364036180461
 23
39.215800503293273
 33
0.0
210
0.0
220
0.0
230
-1.0
  0
SOLID
  5
629
  8
0
  6
CONTINUOUS
 10
-510.0442091438178
 20
39.215800503293273
 30
0.0
 11
-510.01774958540972
 21
39.107417610072119
 31
0.0
 12
-509.02605274686482
 22
39.107417610072119
 32
0.0
 13
-509.02605274686482
 23
39.107417610072119
 33
0.0
210
0.0
220
0.0
230
1.0
  0
SOLID
  5
62A
  8
0
  6
CONTINUOUS
 10
510.0442091438178
 20
39.215800503293273
 30
0.0
 11
509.02364036180461
 21
39.215800503293273
 31
0.0
 12
509.02605274686482
 22
39.107417610072119
 32
0.0
 13
509.02605274686482
 23
39.107417610072119
 33
0.0
210
0.0
220
0.0
230
-1.0
  0
SOLID
  5
62B
  8
0
  6
CONTINUOUS
 10
-510.01774958540972
 20
39.107417610072119
 30
0.0
 11
-510.02500820101568
 21
38.78130476302384
 31
0.0
 12
-509.03331136247078
 22
38.78130476302384
 32
0.0
 13
-509.03331136247078
 23
38.78130476302384
 33
0.0
210
0.0
220
0.0
230
1.0
  0
SOLID
  5
62C
  8
0
  6
CONTINUOUS
 10
510.01774958540972
 20
39.107417610072119
 30
0.0
 11
509.02605274686482
 21
39.107417610072119
 31
0.0
 12
509.03331136247078
 22
38.78130476302384
 32
0.0
 13
509.03331136247078
 23
38.78130476302384
 33
0.0
210
0.0
220
0.0
230
-1.0
  0
SOLID
  5
62D
  8
0
  6
CONTINUOUS
 10
-510.02500820101568
 20
38.78130476302384
 30
0.0
 11
-510.04854199383351
 21
38.628797378606251
 31
0.0
 12
-509.03670586989529
 22
38.628797378606251
 32
0.0
 13
-509.03670586989529
 23
38.628797378606251
 33
0.0
210
0.0
220
0.0
230
1.0
  0
SOLID
  5
62E
  8
0
  6
CONTINUOUS
 10
510.02500820101568
 20
38.78130476302384
 30
0.0
 11
509.03331136247078
 21
38.78130476302384
 31
0.0
 12
509.03670586989529
 22
38.628797378606251
 32
0.0
 13
509.03670586989529
 23
38.628797378606251
 33
0.0
210
0.0
220
0.0
230
-1.0
  0
SOLID
  5
62F
  8
0
  6
CONTINUOUS
 10
-510.04854199383351
 20
38.628797378606251
 30
0.0
 11
-510.49990586115382
 21
35.70379827800874
 31
0.0
 12
-509.48806973721548
 22
35.70379827800874
 32
0.0
 13
-509.48806973721548
 23
35.70379827800874
 33
0.0
210
0.0
220
0.0
230
1.0
  0
SOLID
  5
630
  8
0
  6
CONTINUOUS
 10
510.04854199383351
 20
38.628797378606251
 30
0.0
 11
509.03670586989529
 21
38.628797378606251
 31
0.0
 12
509.48806973721548
 22
35.70379827800874
 32
0.0
 13
509.48806973721548
 23
35.70379827800874
 33
0.0
210
0.0
220
0.0
230
-1.0
  0
SOLID
  5
631
  8
0
  6
CONTINUOUS
 10
-510.49990586115382
 20
35.70379827800874
 30
0.0
 11
-510.506959087768
 21
35.551290893591137
 31
0.0
 12
-509.51160353003331
 22
35.551290893591137
 32
0.0
 13
-509.51160353003331
 23
35.551290893591137
 33
0.0
  0
SOLID
  5
632
  8
0
  6
CONTINUOUS
 10
510.49990586115382
 20
35.70379827800874
 30
0.0
 11
509.48806973721548
 21
35.70379827800874
 31
0.0
 12
509.51160353003331
 22
35.551290893591137
 32
0.0
 13
509.51160353003331
 23
35.551290893591137
 33
0.0
210
0.0
220
0.0
230
-1.0
  0
SOLID
  5
633
  8
0
  6
CONTINUOUS
 10
-510.506959087768
 20
35.551290893591137
 30
0.0
 11
-510.55378257093639
 21
34.538856820815411
 31
0.0
 12
-509.55842701320171
 22
34.538856820815411
 32
0.0
 13
-509.55842701320171
 23
34.538856820815411
 33
0.0
  0
SOLID
  5
634
  8
0
  6
CONTINUOUS
 10
510.506959087768
 20
35.551290893591137
 30
0.0
 11
509.51160353003331
 21
35.551290893591137
 31
0.0
 12
509.55842701320171
 22
34.538856820815411
 32
0.0
 13
509.55842701320171
 23
34.538856820815411
 33
0.0
210
0.0
220
0.0
230
-1.0
  0
SOLID
  5
635
  8
0
  6
CONTINUOUS
 10
-510.55378257093639
 20
34.538856820815411
 30
0.0
 11
-510.5565869197261
 21
34.478220189911809
 31
0.0
 12
-509.548170371975
 22
34.478220189911809
 32
0.0
 13
-509.548170371975
 23
34.478220189911809
 33
0.0
210
0.0
220
0.0
230
1.0
  0
SOLID
  5
636
  8
0
  6
CONTINUOUS
 10
510.55378257093639
 20
34.538856820815411
 30
0.0
 11
509.55842701320171
 21
34.538856820815411
 31
0.0
 12
509.548170371975
 22
34.478220189911809
 32
0.0
 13
509.548170371975
 23
34.478220189911809
 33
0.0
210
0.0
220
0.0
230
-1.0
  0
SOLID
  5
637
  8
0
  6
CONTINUOUS
 10
-510.5565869197261
 20
34.478220189911809
 30
0.0
 11
-510.39780914552671
 21
33.539535772956278
 31
0.0
 12
-509.38939259777578
 22
33.539535772956278
 32
0.0
 13
-509.38939259777578
 23
33.539535772956278
 33
0.0
210
0.0
220
0.0
230
1.0
  0
SOLID
  5
638
  8
0
  6
CONTINUOUS
 10
510.5565869197261
 20
34.478220189911809
 30
0.0
 11
509.548170371975
 21
34.478220189911809
 31
0.0
 12
509.38939259777578
 22
33.539535772956278
 32
0.0
 13
509.38939259777578
 23
33.539535772956278
 33
0.0
210
0.0
220
0.0
230
-1.0
  0
SOLID
  5
639
  8
0
  6
CONTINUOUS
 10
-510.39780914552671
 20
33.539535772956278
 30
0.0
 11
-510.35196631157879
 21
33.26851576355584
 31
0.0
 12
-509.28072183540968
 22
33.26851576355584
 32
0.0
 13
-509.28072183540968
 23
33.26851576355584
 33
0.0
210
0.0
220
0.0
230
1.0
  0
SOLID
  5
63A
  8
0
  6
CONTINUOUS
 10
510.39780914552671
 20
33.539535772956278
 30
0.0
 11
509.38939259777578
 21
33.539535772956278
 31
0.0
 12
509.28072183540968
 22
33.26851576355584
 32
0.0
 13
509.28072183540968
 23
33.26851576355584
 33
0.0
210
0.0
220
0.0
230
-1.0
  0
SOLID
  5
63B
  8
0
  6
CONTINUOUS
 10
-510.35196631157879
 20
33.26851576355584
 30
0.0
 11
-510.08344048155158
 21
32.598824382050552
 31
0.0
 12
-509.01219600538241
 22
32.598824382050552
 32
0.0
 13
-509.01219600538241
 23
32.598824382050552
 33
0.0
210
0.0
220
0.0
230
1.0
  0
SOLID
  5
63C
  8
0
  6
CONTINUOUS
 10
510.35196631157879
 20
33.26851576355584
 30
0.0
 11
509.28072183540968
 21
33.26851576355584
 31
0.0
 12
509.01219600538241
 22
32.598824382050552
 32
0.0
 13
509.01219600538241
 23
32.598824382050552
 33
0.0
210
0.0
220
0.0
230
-1.0
  0
SOLID
  5
63D
  8
0
  6
CONTINUOUS
 10
-510.08344048155158
 20
32.598824382050552
 30
0.0
 11
-509.89535991026059
 21
32.129759869301637
 31
0.0
 12
-508.7630672582664
 22
32.129759869301637
 32
0.0
 13
-508.7630672582664
 23
32.129759869301637
 33
0.0
210
0.0
220
0.0
230
1.0
  0
SOLID
  5
63E
  8
0
  6
CONTINUOUS
 10
510.08344048155158
 20
32.598824382050552
 30
0.0
 11
509.01219600538241
 21
32.598824382050552
 31
0.0
 12
508.7630672582664
 22
32.129759869301637
 32
0.0
 13
508.7630672582664
 23
32.129759869301637
 33
0.0
210
0.0
220
0.0
230
-1.0
  0
SOLID
  5
63F
  8
0
  6
CONTINUOUS
 10
-419.5
 20
101.82976337348791
 30
0.0
 11
-419.5
 21
30.32976337348769
 31
0.0
 12
-418.5
 22
30.32976337348769
 32
0.0
 13
-418.5
 23
30.32976337348769
 33
0.0
210
0.0
220
0.0
230
1.0
  0
SOLID
  5
640
  8
0
  6
CONTINUOUS
 10
419.5
 20
101.82976337348791
 30
0.0
 11
418.5
 21
101.82976337348791
 31
0.0
 12
418.5
 22
30.32976337348769
 32
0.0
 13
418.5
 23
30.32976337348769
 33
0.0
210
0.0
220
0.0
230
-1.0
  0
SOLID
  5
641
  8
0
  6
CONTINUOUS
 10
-419.5
 20
30.32976337348769
 30
0.0
 11
-419.55962980399408
 21
29.876830044558439
 31
0.0
 12
-418.55962980399408
 22
29.876830044558439
 32
0.0
 13
-418.55962980399408
 23
29.876830044558439
 33
0.0
210
0.0
220
0.0
230
1.0
  0
SOLID
  5
642
  8
0
  6
CONTINUOUS
 10
419.5
 20
30.32976337348769
 30
0.0
 11
418.5
 21
30.32976337348769
 31
0.0
 12
418.55962980399408
 22
29.876830044558439
 32
0.0
 13
418.55962980399408
 23
29.876830044558439
 33
0.0
210
0.0
220
0.0
230
-1.0
  0
SOLID
  5
643
  8
0
  6
CONTINUOUS
 10
-509.89535991026059
 20
32.129759869301637
 30
0.0
 11
-508.66395194822599
 21
29.811240700424651
 31
0.0
 12
-507.53165929623179
 22
29.811240700424651
 32
0.0
 13
-507.53165929623179
 23
29.811240700424651
 33
0.0
210
0.0
220
0.0
230
1.0
  0
SOLID
  5
644
  8
0
  6
CONTINUOUS
 10
509.89535991026059
 20
32.129759869301637
 30
0.0
 11
508.7630672582664
 21
32.129759869301637
 31
0.0
 12
507.53165929623179
 22
29.811240700424651
 32
0.0
 13
507.53165929623179
 23
29.811240700424651
 33
0.0
210
0.0
220
0.0
230
-1.0
  0
SOLID
  5
645
  8
0
  6
CONTINUOUS
 10
-419.55962980399408
 20
29.876830044558439
 30
0.0
 11
-419.66683616267608
 21
29.618010999455819
 31
0.0
 12
-418.59370397770499
 22
29.618010999455819
 32
0.0
 13
-418.59370397770499
 23
29.618010999455819
 33
0.0
  0
SOLID
  5
646
  8
0
  6
CONTINUOUS
 10
419.55962980399408
 20
29.876830044558439
 30
0.0
 11
418.55962980399408
 21
29.876830044558439
 31
0.0
 12
418.59370397770499
 22
29.618010999455819
 32
0.0
 13
418.59370397770499
 23
29.618010999455819
 33
0.0
210
0.0
220
0.0
230
-1.0
  0
SOLID
  5
647
  8
0
  6
CONTINUOUS
 10
-419.66683616267608
 20
29.618010999455819
 30
0.0
 11
-419.73445554337718
 21
29.454763373487889
 31
0.0
 12
-418.66132335840609
 22
29.454763373487889
 32
0.0
 13
-418.66132335840609
 23
29.454763373487889
 33
0.0
210
0.0
220
0.0
230
1.0
  0
SOLID
  5
648
  8
0
  6
CONTINUOUS
 10
419.66683616267608
 20
29.618010999455819
 30
0.0
 11
418.59370397770499
 21
29.618010999455819
 31
0.0
 12
418.66132335840609
 22
29.454763373487889
 32
0.0
 13
418.66132335840609
 23
29.454763373487889
 33
0.0
210
0.0
220
0.0
230
-1.0
  0
SOLID
  5
649
  8
0
  6
CONTINUOUS
 10
-508.66395194822599
 20
29.811240700424651
 30
0.0
 11
-508.33721029220828
 21
29.19604507387033
 31
0.0
 12
-507.15865424085342
 22
29.19604507387033
 32
0.0
 13
-507.15865424085342
 23
29.19604507387033
 33
0.0
210
0.0
220
0.0
230
1.0
  0
SOLID
  5
64A
  8
0
  6
CONTINUOUS
 10
508.66395194822599
 20
29.811240700424651
 30
0.0
 11
507.53165929623179
 21
29.811240700424651
 31
0.0
 12
507.15865424085342
 22
29.19604507387033
 32
0.0
 13
507.15865424085342
 23
29.19604507387033
 33
0.0
210
0.0
220
0.0
230
-1.0
  0
SOLID
  5
64B
  8
0
  6
CONTINUOUS
 10
-419.73445554337718
 20
29.454763373487889
 30
0.0
 11
-420.01256313292339
 21
29.09232650641156
 31
0.0
 12
-418.81144962425321
 22
29.09232650641156
 32
0.0
 13
-418.81144962425321
 23
29.09232650641156
 33
0.0
210
0.0
220
0.0
230
1.0
  0
SOLID
  5
64C
  8
0
  6
CONTINUOUS
 10
419.73445554337718
 20
29.454763373487889
 30
0.0
 11
418.66132335840609
 21
29.454763373487889
 31
0.0
 12
418.81144962425321
 22
29.09232650641156
 32
0.0
 13
418.81144962425321
 23
29.09232650641156
 33
0.0
210
0.0
220
0.0
230
-1.0
  0
SOLID
  5
64D
  8
0
  6
CONTINUOUS
 10
-508.33721029220828
 20
29.19604507387033
 30
0.0
 11
-508.2542447748541
 21
29.03983596342777
 31
0.0
 12
-506.99357446936369
 22
29.03983596342777
 32
0.0
 13
-506.99357446936369
 23
29.03983596342777
 33
0.0
210
0.0
220
0.0
230
1.0
  0
SOLID
  5
64E
  8
0
  6
CONTINUOUS
 10
508.33721029220828
 20
29.19604507387033
 30
0.0
 11
507.15865424085342
 21
29.19604507387033
 31
0.0
 12
506.99357446936369
 22
29.03983596342777
 32
0.0
 13
506.99357446936369
 23
29.03983596342777
 33
0.0
210
0.0
220
0.0
230
-1.0
  0
SOLID
  5
64F
  8
0
  6
CONTINUOUS
 10
-420.01256313292339
 20
29.09232650641156
 30
0.0
 11
-420.19183889811688
 21
28.954763373487872
 31
0.0
 12
-418.86843013959282
 22
28.954763373487872
 32
0.0
 13
-418.86843013959282
 23
28.954763373487872
 33
0.0
210
0.0
220
0.0
230
1.0
  0
SOLID
  5
650
  8
0
  6
CONTINUOUS
 10
420.01256313292339
 20
29.09232650641156
 30
0.0
 11
418.81144962425321
 21
29.09232650641156
 31
0.0
 12
418.86843013959282
 22
28.954763373487872
 32
0.0
 13
418.86843013959282
 23
28.954763373487872
 33
0.0
210
0.0
220
0.0
230
-1.0
  0
SOLID
  5
651
  8
0
  6
CONTINUOUS
 10
-508.2542447748541
 20
29.03983596342777
 30
0.0
 11
-508.18382826771182
 21
28.936128698655899
 31
0.0
 12
-506.88397797065852
 22
28.936128698655899
 32
0.0
 13
-506.88397797065852
 23
28.936128698655899
 33
0.0
210
0.0
220
0.0
230
1.0
  0
SOLID
  5
652
  8
0
  6
CONTINUOUS
 10
508.2542447748541
 20
29.03983596342777
 30
0.0
 11
506.99357446936369
 21
29.03983596342777
 31
0.0
 12
506.88397797065852
 22
28.936128698655899
 32
0.0
 13
506.88397797065852
 23
28.936128698655899
 33
0.0
210
0.0
220
0.0
230
-1.0
  0
SOLID
  5
653
  8
0
  6
CONTINUOUS
 10
-420.19183889811688
 20
28.954763373487872
 30
0.0
 11
-420.37499999999972
 21
28.814218916865201
 31
0.0
 12
-418.97627369417012
 22
28.814218916865201
 32
0.0
 13
-418.97627369417012
 23
28.814218916865201
 33
0.0
210
0.0
220
0.0
230
1.0
  0
SOLID
  5
654
  8
0
  6
CONTINUOUS
 10
420.19183889811688
 20
28.954763373487872
 30
0.0
 11
418.86843013959282
 21
28.954763373487872
 31
0.0
 12
418.97627369417012
 22
28.814218916865201
 32
0.0
 13
418.97627369417012
 23
28.814218916865201
 33
0.0
210
0.0
220
0.0
230
-1.0
  0
SOLID
  5
655
  8
0
  6
CONTINUOUS
 10
-508.18382826771182
 20
28.936128698655899
 30
0.0
 11
-508.0515329034863
 21
28.74128815738754
 31
0.0
 12
-506.5598780802066
 22
28.74128815738754
 32
0.0
 13
-506.5598780802066
 23
28.74128815738754
 33
0.0
210
0.0
220
0.0
230
1.0
  0
SOLID
  5
656
  8
0
  6
CONTINUOUS
 10
508.18382826771182
 20
28.936128698655899
 30
0.0
 11
506.88397797065852
 21
28.936128698655899
 31
0.0
 12
506.5598780802066
 22
28.74128815738754
 32
0.0
 13
506.5598780802066
 23
28.74128815738754
 33
0.0
210
0.0
220
0.0
230
-1.0
  0
SOLID
  5
657
  8
0
  6
CONTINUOUS
 10
-420.37499999999972
 20
28.814218916865201
 30
0.0
 11
-420.79706667107018
 21
28.639393177482312
 31
0.0
 12
-419.11042220219213
 22
28.639393177482312
 32
0.0
 13
-419.11042220219213
 23
28.639393177482312
 33
0.0
210
0.0
220
0.0
230
1.0
  0
SOLID
  5
658
  8
0
  6
CONTINUOUS
 10
420.37499999999972
 20
28.814218916865201
 30
0.0
 11
418.97627369417012
 21
28.814218916865201
 31
0.0
 12
419.11042220219213
 22
28.639393177482312
 32
0.0
 13
419.11042220219213
 23
28.639393177482312
 33
0.0
210
0.0
220
0.0
230
-1.0
  0
SOLID
  5
659
  8
0
  6
CONTINUOUS
 10
-420.79706667107018
 20
28.639393177482312
 30
0.0
 11
-420.93965142947491
 21
28.6206215379204
 31
0.0
 12
-419.1248261878365
 22
28.6206215379204
 32
0.0
 13
-419.1248261878365
 23
28.6206215379204
 33
0.0
210
0.0
220
0.0
230
1.0
  0
SOLID
  5
65A
  8
0
  6
CONTINUOUS
 10
420.79706667107018
 20
28.639393177482312
 30
0.0
 11
419.11042220219213
 21
28.639393177482312
 31
0.0
 12
419.1248261878365
 22
28.6206215379204
 32
0.0
 13
419.1248261878365
 23
28.6206215379204
 33
0.0
210
0.0
220
0.0
230
-1.0
  0
SOLID
  5
65B
  8
0
  6
CONTINUOUS
 10
-508.0515329034863
 20
28.74128815738754
 30
0.0
 11
-507.96960111317009
 21
28.6206215379204
 31
0.0
 12
-506.20148842848772
 22
28.6206215379204
 32
0.0
 13
-506.20148842848772
 23
28.6206215379204
 33
0.0
210
0.0
220
0.0
230
1.0
  0
SOLID
  5
65C
  8
0
  6
CONTINUOUS
 10
508.0515329034863
 20
28.74128815738754
 30
0.0
 11
506.5598780802066
 21
28.74128815738754
 31
0.0
 12
506.20148842848772
 22
28.6206215379204
 32
0.0
 13
506.20148842848772
 23
28.6206215379204
 33
0.0
210
0.0
220
0.0
230
-1.0
  0
SOLID
  5
65D
  8
0
  6
CONTINUOUS
 10
-420.93965142947491
 20
28.6206215379204
 30
0.0
 11
-421.2499999999996
 21
28.579763373488088
 31
0.0
 12
-419.15617776008469
 22
28.579763373488088
 32
0.0
 13
-419.15617776008469
 23
28.579763373488088
 33
0.0
210
0.0
220
0.0
230
1.0
  0
SOLID
  5
65E
  8
0
  6
CONTINUOUS
 10
420.93965142947491
 20
28.6206215379204
 30
0.0
 11
419.1248261878365
 21
28.6206215379204
 31
0.0
 12
419.15617776008469
 22
28.579763373488088
 32
0.0
 13
419.15617776008469
 23
28.579763373488088
 33
0.0
210
0.0
220
0.0
230
-1.0
  0
SOLID
  5
65F
  8
0
  6
CONTINUOUS
 10
-507.96960111317009
 20
28.6206215379204
 30
0.0
 11
-507.9418587054044
 21
28.579763373488088
 31
0.0
 12
-421.2499999999996
 22
28.579763373488088
 32
0.0
 13
-421.2499999999996
 23
28.579763373488088
 33
0.0
210
0.0
220
0.0
230
1.0
  0
SOLID
  5
660
  8
0
  6
CONTINUOUS
 10
507.96960111317009
 20
28.6206215379204
 30
0.0
 11
506.20148842848772
 21
28.6206215379204
 31
0.0
 12
421.2499999999996
 22
28.579763373488088
 32
0.0
 13
421.2499999999996
 23
28.579763373488088
 33
0.0
210
0.0
220
0.0
230
-1.0
  0
SOLID
  5
661
  8
0
  6
CONTINUOUS
 10
-507.9418587054044
 20
28.579763373488088
 30
0.0
 11
-507.92043150051848
 21
28.548206045517549
 31
0.0
 12
-419.18039254950497
 22
28.548206045517549
 32
0.0
 13
-419.18039254950497
 23
28.548206045517549
 33
0.0
  0
SOLID
  5
662
  8
0
  6
CONTINUOUS
 10
507.9418587054044
 20
28.579763373488088
 30
0.0
 11
419.15617776008469
 21
28.579763373488088
 31
0.0
 12
419.18039254950497
 22
28.548206045517549
 32
0.0
 13
419.18039254950497
 23
28.548206045517549
 33
0.0
210
0.0
220
0.0
230
-1.0
  0
SOLID
  5
663
  8
0
  6
CONTINUOUS
 10
-507.92043150051848
 20
28.548206045517549
 30
0.0
 11
-507.74818966114299
 21
28.385219725224971
 31
0.0
 12
-419.30545635173689
 22
28.385219725224971
 32
0.0
 13
-419.30545635173689
 23
28.385219725224971
 33
0.0
210
0.0
220
0.0
230
1.0
  0
SOLID
  5
664
  8
0
  6
CONTINUOUS
 10
507.92043150051848
 20
28.548206045517549
 30
0.0
 11
419.18039254950497
 21
28.548206045517549
 31
0.0
 12
419.30545635173689
 22
28.385219725224971
 32
0.0
 13
419.30545635173689
 23
28.385219725224971
 33
0.0
210
0.0
220
0.0
230
-1.0
  0
SOLID
  5
665
  8
0
  6
CONTINUOUS
 10
-507.74818966114299
 20
28.385219725224971
 30
0.0
 11
-507.48879736164082
 21
28.139766027323429
 31
0.0
 12
-419.62533783869992
 22
28.139766027323429
 32
0.0
 13
-419.62533783869992
 23
28.139766027323429
 33
0.0
210
0.0
220
0.0
230
1.0
  0
SOLID
  5
666
  8
0
  6
CONTINUOUS
 10
507.74818966114299
 20
28.385219725224971
 30
0.0
 11
419.30545635173689
 21
28.385219725224971
 31
0.0
 12
419.62533783869992
 22
28.139766027323429
 32
0.0
 13
419.62533783869992
 23
28.139766027323429
 33
0.0
210
0.0
220
0.0
230
-1.0
  0
SOLID
  5
667
  8
0
  6
CONTINUOUS
 10
-507.48879736164082
 20
28.139766027323429
 30
0.0
 11
-507.17013354313838
 21
27.948193513080849
 31
0.0
 12
-419.87499999999972
 22
27.948193513080849
 32
0.0
 13
-419.87499999999972
 23
27.948193513080849
 33
0.0
210
0.0
220
0.0
230
1.0
  0
SOLID
  5
668
  8
0
  6
CONTINUOUS
 10
507.48879736164082
 20
28.139766027323429
 30
0.0
 11
419.62533783869992
 21
28.139766027323429
 31
0.0
 12
419.87499999999972
 22
27.948193513080849
 32
0.0
 13
419.87499999999972
 23
27.948193513080849
 33
0.0
210
0.0
220
0.0
230
-1.0
  0
SOLID
  5
669
  8
0
  6
CONTINUOUS
 10
-507.17013354313838
 20
27.948193513080849
 30
0.0
 11
-506.97949753378748
 21
27.83358803390167
 31
0.0
 12
-420.15168210215631
 22
27.83358803390167
 32
0.0
 13
-420.15168210215631
 23
27.83358803390167
 33
0.0
210
0.0
220
0.0
230
1.0
  0
SOLID
  5
66A
  8
0
  6
CONTINUOUS
 10
507.17013354313838
 20
27.948193513080849
 30
0.0
 11
419.87499999999972
 21
27.948193513080849
 31
0.0
 12
420.15168210215631
 22
27.83358803390167
 32
0.0
 13
420.15168210215631
 23
27.83358803390167
 33
0.0
210
0.0
220
0.0
230
-1.0
  0
SOLID
  5
66B
  8
0
  6
CONTINUOUS
 10
-506.97949753378748
 20
27.83358803390167
 30
0.0
 11
-506.50392611260861
 21
27.673467351193089
 31
0.0
 12
-420.5382476259677
 22
27.673467351193089
 32
0.0
 13
-420.5382476259677
 23
27.673467351193089
 33
0.0
  0
SOLID
  5
66C
  8
0
  6
CONTINUOUS
 10
506.97949753378748
 20
27.83358803390167
 30
0.0
 11
420.15168210215631
 21
27.83358803390167
 31
0.0
 12
420.5382476259677
 22
27.673467351193089
 32
0.0
 13
420.5382476259677
 23
27.673467351193089
 33
0.0
210
0.0
220
0.0
230
-1.0
  0
SOLID
  5
66D
  8
0
  6
CONTINUOUS
 10
-506.50392611260861
 20
27.673467351193089
 30
0.0
 11
-506.4163137953721
 21
27.643969060453031
 31
0.0
 12
-420.76230938917507
 22
27.643969060453031
 32
0.0
 13
-420.76230938917507
 23
27.643969060453031
 33
0.0
210
0.0
220
0.0
230
1.0
  0
SOLID
  5
66E
  8
0
  6
CONTINUOUS
 10
506.50392611260861
 20
27.673467351193089
 30
0.0
 11
420.5382476259677
 21
27.673467351193089
 31
0.0
 12
420.76230938917507
 22
27.643969060453031
 32
0.0
 13
420.76230938917507
 23
27.643969060453031
 33
0.0
210
0.0
220
0.0
230
-1.0
  0
SOLID
  5
66F
  8
0
  6
CONTINUOUS
 10
506.09595892240958
 20
27.609152443014249
 30
0.0
 11
421.02676785427718
 21
27.609152443014249
 31
0.0
 12
505.82554403644031
 22
27.579763373488049
 32
0.0
 13
505.82554403644031
 23
27.579763373488049
 33
0.0
210
0.0
220
0.0
230
-1.0
  0
SOLID
  5
670
  8
0
  6
CONTINUOUS
 10
-506.4163137953721
 20
27.643969060453031
 30
0.0
 11
-506.09595892240958
 21
27.609152443014249
 31
0.0
 12
-421.02676785427718
 22
27.609152443014249
 32
0.0
 13
-421.02676785427718
 23
27.609152443014249
 33
0.0
210
0.0
220
0.0
230
1.0
  0
SOLID
  5
671
  8
0
  6
CONTINUOUS
 10
506.4163137953721
 20
27.643969060453031
 30
0.0
 11
420.76230938917507
 21
27.643969060453031
 31
0.0
 12
421.02676785427718
 22
27.609152443014249
 32
0.0
 13
421.02676785427718
 23
27.609152443014249
 33
0.0
210
0.0
220
0.0
230
-1.0
  0
LINE
  5
672
  8
0
  6
CONTINUOUS
 10
-535.91130677723982
 20
120.4944533974018
 30
0.0
 11
-549.14149628925077
 21
120.44785332656561
 31
0.0
  0
LINE
  5
673
  8
0
  6
CONTINUOUS
 10
-535.55734409753268
 20
120.44785332656561
 30
0.0
 11
-535.91130677723982
 21
120.4944533974018
 31
0.0
  0
LINE
  5
674
  8
0
  6
CONTINUOUS
 10
-549.14149628925077
 20
120.44785332656561
 30
0.0
 11
-549.17753385466051
 21
120.4348235934076
 31
0.0
  0
LINE
  5
675
  8
0
  6
CONTINUOUS
 10
-535.55734409753268
 20
120.44785332656561
 30
0.0
 11
-535.45837344831045
 21
120.4348235934076
 31
0.0
  0
LINE
  5
676
  8
0
  6
CONTINUOUS
 10
-549.17753385466051
 20
120.4348235934076
 30
0.0
 11
-549.52129083748991
 21
120.3105349044645
 31
0.0
  0
LINE
  5
677
  8
0
  6
CONTINUOUS
 10
-535.45837344831045
 20
120.4348235934076
 30
0.0
 11
-535.15831400981415
 21
120.3105349044645
 31
0.0
  0
LINE
  5
678
  8
0
  6
CONTINUOUS
 10
-549.52129083748991
 20
120.3105349044645
 30
0.0
 11
-549.59872610085245
 21
120.2599978540246
 31
0.0
  0
LINE
  5
679
  8
0
  6
CONTINUOUS
 10
-535.15831400981415
 20
120.3105349044645
 30
0.0
 11
-535.0363067772397
 21
120.2599978540246
 31
0.0
  0
LINE
  5
67A
  8
0
  6
CONTINUOUS
 10
-549.59872610085245
 20
120.2599978540246
 30
0.0
 11
-549.8594939586618
 21
120.089811329036
 31
0.0
  0
LINE
  5
67B
  8
0
  6
CONTINUOUS
 10
-535.0363067772397
 20
120.2599978540246
 30
0.0
 11
-534.81451537975886
 21
120.089811329036
 31
0.0
  0
LINE
  5
67C
  8
0
  6
CONTINUOUS
 10
-549.8594939586618
 20
120.089811329036
 30
0.0
 11
-549.96233088082897
 21
119.9818902644782
 31
0.0
  0
LINE
  5
67D
  8
0
  6
CONTINUOUS
 10
-534.81451537975886
 20
120.089811329036
 30
0.0
 11
-534.67386991016315
 21
119.9818902644782
 31
0.0
  0
LINE
  5
67E
  8
0
  6
CONTINUOUS
 10
-549.96233088082897
 20
119.9818902644782
 30
0.0
 11
-550.13809389344885
 21
119.7974377251367
 31
0.0
  0
LINE
  5
67F
  8
0
  6
CONTINUOUS
 10
-534.67386991016315
 20
119.9818902644782
 30
0.0
 11
-534.53233449872516
 21
119.7974377251367
 31
0.0
  0
LINE
  5
680
  8
0
  6
CONTINUOUS
 10
-550.13809389344885
 20
119.7974377251367
 30
0.0
 11
-550.24237536863018
 21
119.6194533974017
 31
0.0
  0
LINE
  5
681
  8
0
  6
CONTINUOUS
 10
-534.53233449872516
 20
119.7974377251367
 30
0.0
 11
-534.39576232061688
 21
119.6194533974017
 31
0.0
  0
LINE
  5
682
  8
0
  6
CONTINUOUS
 10
-550.24237536863018
 20
119.6194533974017
 30
0.0
 11
-550.31561318997944
 21
119.4944533974018
 31
0.0
  0
LINE
  5
683
  8
0
  6
CONTINUOUS
 10
-534.39576232061688
 20
119.6194533974017
 30
0.0
 11
-534.34398562532033
 21
119.4944533974018
 31
0.0
  0
LINE
  5
684
  8
0
  6
CONTINUOUS
 10
-534.34398562532033
 20
119.4944533974018
 30
0.0
 11
-534.33571317617088
 21
119.4744819384709
 31
0.0
  0
LINE
  5
685
  8
0
  6
CONTINUOUS
 10
-550.31561318997944
 20
119.4944533974018
 30
0.0
 11
-550.32731451910956
 21
119.4744819384709
 31
0.0
  0
LINE
  5
686
  8
0
  6
CONTINUOUS
 10
-538.56288521632428
 20
119.4744819384709
 30
0.0
 11
-535.71719249341277
 21
119.46889776711851
 31
0.0
  0
LINE
  5
687
  8
0
  6
CONTINUOUS
 10
-534.33571317617088
 20
119.4744819384709
 30
0.0
 11
-534.33340013666202
 21
119.46889776711851
 31
0.0
  0
LINE
  5
688
  8
0
  6
CONTINUOUS
 10
-550.32731451910956
 20
119.4744819384709
 30
0.0
 11
-550.34225318277049
 21
119.44898509922599
 31
0.0
  0
LINE
  5
689
  8
0
  6
CONTINUOUS
 10
-548.91226247665202
 20
119.4744819384709
 30
0.0
 11
-548.96339243146599
 21
119.44898509922599
 31
0.0
  0
LINE
  5
68A
  8
0
  6
CONTINUOUS
 10
-550.34225318277049
 20
119.44898509922599
 30
0.0
 11
-550.38165032496875
 21
119.32103536810089
 31
0.0
  0
LINE
  5
68B
  8
0
  6
CONTINUOUS
 10
-548.96339243146599
 20
119.44898509922599
 30
0.0
 11
-549.21997576354272
 21
119.32103536810089
 31
0.0
  0
LINE
  5
68C
  8
0
  6
CONTINUOUS
 10
-535.71719249341277
 20
119.46889776711851
 30
0.0
 11
-535.38097669134982
 21
119.2747834832917
 31
0.0
  0
LINE
  5
68D
  8
0
  6
CONTINUOUS
 10
-534.33340013666202
 20
119.46889776711851
 30
0.0
 11
-534.25299536765056
 21
119.2747834832917
 31
0.0
  0
LINE
  5
68E
  8
0
  6
CONTINUOUS
 10
-535.38097669134982
 20
119.2747834832917
 30
0.0
 11
-535.33629165288426
 21
119.1973867263312
 31
0.0
  0
LINE
  5
68F
  8
0
  6
CONTINUOUS
 10
-534.25299536765056
 20
119.2747834832917
 30
0.0
 11
-534.2209365812339
 21
119.1973867263312
 31
0.0
  0
LINE
  5
690
  8
0
  6
CONTINUOUS
 10
-550.38165032496875
 20
119.32103536810089
 30
0.0
 11
-550.46109886966235
 21
119.0630110707894
 31
0.0
  0
LINE
  5
691
  8
0
  6
CONTINUOUS
 10
-549.21997576354272
 20
119.32103536810089
 30
0.0
 11
-549.41435546240143
 21
119.0630110707894
 31
0.0
  0
LINE
  5
692
  8
0
  6
CONTINUOUS
 10
-550.46109886966235
 20
119.0630110707894
 30
0.0
 11
-550.46417483293328
 21
119.04639555532491
 31
0.0
  0
LINE
  5
693
  8
0
  6
CONTINUOUS
 10
-549.41435546240143
 20
119.0630110707894
 30
0.0
 11
-549.42687257387524
 21
119.04639555532491
 31
0.0
  0
LINE
  5
694
  8
0
  6
CONTINUOUS
 10
-535.33629165288426
 20
119.1973867263312
 30
0.0
 11
-535.18686240752299
 21
118.9385676812287
 31
0.0
  0
LINE
  5
695
  8
0
  6
CONTINUOUS
 10
-534.2209365812339
 20
119.1973867263312
 30
0.0
 11
-534.18686240752299
 21
118.9385676812287
 31
0.0
  0
LINE
  5
696
  8
0
  6
CONTINUOUS
 10
-535.18686240752299
 20
118.9385676812287
 30
0.0
 11
-535.1613067772397
 21
118.7444533974018
 31
0.0
  0
LINE
  5
697
  8
0
  6
CONTINUOUS
 10
-534.18686240752299
 20
118.9385676812287
 30
0.0
 11
-534.16130677723982
 21
118.7444533974018
 31
0.0
  0
LINE
  5
698
  8
0
  6
CONTINUOUS
 10
-535.1613067772397
 20
118.7444533974018
 30
0.0
 11
-535.1613067772397
 21
116.0837292962775
 31
0.0
  0
LINE
  5
699
  8
0
  6
CONTINUOUS
 10
-534.16130677723982
 20
118.7444533974018
 30
0.0
 11
-534.16130677723982
 21
116.0837292962775
 31
0.0
  0
LINE
  5
69A
  8
0
  6
CONTINUOUS
 10
-550.46417483293328
 20
119.04639555532491
 30
0.0
 11
-552.45700361319132
 21
108.2816774816165
 31
0.0
  0
LINE
  5
69B
  8
0
  6
CONTINUOUS
 10
-549.42687257387524
 20
119.04639555532491
 30
0.0
 11
-551.44001215722722
 21
108.2816774816165
 31
0.0
  0
LINE
  5
69C
  8
0
  6
CONTINUOUS
 10
-552.45700361319132
 20
108.2816774816165
 30
0.0
 11
-552.49612532181641
 21
108.0703526713356
 31
0.0
  0
LINE
  5
69D
  8
0
  6
CONTINUOUS
 10
-551.44001215722722
 20
108.2816774816165
 30
0.0
 11
-551.46599294923362
 21
108.0703526713356
 31
0.0
  0
LINE
  5
69E
  8
0
  6
CONTINUOUS
 10
-552.49612532181641
 20
108.0703526713356
 30
0.0
 11
-552.53435155780096
 21
107.4732186542053
 31
0.0
  0
LINE
  5
69F
  8
0
  6
CONTINUOUS
 10
-551.46599294923362
 20
108.0703526713356
 30
0.0
 11
-551.5394060741686
 21
107.4732186542053
 31
0.0
  0
LINE
  5
6A0
  8
0
  6
CONTINUOUS
 10
-552.53435155780096
 20
107.4732186542053
 30
0.0
 11
-552.53788317976114
 21
107.4180510041963
 31
0.0
  0
LINE
  5
6A1
  8
0
  6
CONTINUOUS
 10
-551.5394060741686
 20
107.4732186542053
 30
0.0
 11
-551.52969062408454
 21
107.4180510041963
 31
0.0
  0
LINE
  5
6A2
  8
0
  6
CONTINUOUS
 10
-552.53788317976114
 20
107.4180510041963
 30
0.0
 11
-552.4754566457899
 21
107.0635717832034
 31
0.0
  0
LINE
  5
6A3
  8
0
  6
CONTINUOUS
 10
-551.52969062408454
 20
107.4180510041963
 30
0.0
 11
-551.46726409011353
 21
107.0635717832034
 31
0.0
  0
LINE
  5
6A4
  8
0
  6
CONTINUOUS
 10
-552.4754566457899
 20
107.0635717832034
 30
0.0
 11
-552.42451720481733
 21
106.7743202069076
 31
0.0
  0
LINE
  5
6A5
  8
0
  6
CONTINUOUS
 10
-551.46726409011353
 20
107.0635717832034
 30
0.0
 11
-551.3406617026626
 21
106.7743202069076
 31
0.0
  0
LINE
  5
6A6
  8
0
  6
CONTINUOUS
 10
-552.42451720481733
 20
106.7743202069076
 30
0.0
 11
-552.38433808171806
 21
106.68252197999681
 31
0.0
  0
LINE
  5
6A7
  8
0
  6
CONTINUOUS
 10
-551.3406617026626
 20
106.7743202069076
 30
0.0
 11
-551.30048257956344
 21
106.68252197999681
 31
0.0
  0
LINE
  5
6A8
  8
0
  6
CONTINUOUS
 10
-552.38433808171806
 20
106.68252197999681
 30
0.0
 11
-552.23949548015935
 21
106.3515965396535
 31
0.0
  0
LINE
  5
6A9
  8
0
  6
CONTINUOUS
 10
-551.30048257956344
 20
106.68252197999681
 30
0.0
 11
-551.04848381425131
 21
106.3515965396535
 31
0.0
  0
LINE
  5
6AA
  8
0
  6
CONTINUOUS
 10
-552.23949548015935
 20
106.3515965396535
 30
0.0
 11
-552.16243197395306
 21
106.17552765901149
 31
0.0
  0
LINE
  5
6AB
  8
0
  6
CONTINUOUS
 10
-551.04848381425131
 20
106.3515965396535
 30
0.0
 11
-550.77368785884744
 21
106.17552765901149
 31
0.0
  0
LINE
  5
6AC
  8
0
  6
CONTINUOUS
 10
-552.16243197395306
 20
106.17552765901149
 30
0.0
 11
-551.76643391417701
 21
105.655501967044
 31
0.0
  0
LINE
  5
6AD
  8
0
  6
CONTINUOUS
 10
-550.77368785884744
 20
106.17552765901149
 30
0.0
 11
-549.96206824533169
 21
105.655501967044
 31
0.0
  0
LINE
  5
6AE
  8
0
  6
CONTINUOUS
 10
-551.76643391417701
 20
105.655501967044
 30
0.0
 11
-551.25889481785703
 21
105.24362182748951
 31
0.0
  0
LINE
  5
6AF
  8
0
  6
CONTINUOUS
 10
-549.96206824533169
 20
105.655501967044
 30
0.0
 11
-549.31923462221732
 21
105.24362182748951
 31
0.0
  0
LINE
  5
6B0
  8
0
  6
CONTINUOUS
 10
-420.75000000000091
 20
104.0797633734888
 30
0.0
 11
-421.33234285148188
 21
104.00309648263909
 31
0.0
  0
LINE
  5
6B1
  8
0
  6
CONTINUOUS
 10
-420.16765714852011
 20
104.00309648263909
 30
0.0
 11
-420.75000000000091
 21
104.0797633734888
 31
0.0
  0
LINE
  5
6B2
  8
0
  6
CONTINUOUS
 10
-421.33234285148188
 20
104.00309648263909
 30
0.0
 11
-421.87500000000148
 21
103.7783205320036
 31
0.0
  0
LINE
  5
6B3
  8
0
  6
CONTINUOUS
 10
-420.16765714852011
 20
104.00309648263909
 30
0.0
 11
-419.62500000000051
 21
103.7783205320036
 31
0.0
  0
LINE
  5
6B4
  8
0
  6
CONTINUOUS
 10
-421.87500000000148
 20
103.7783205320036
 30
0.0
 11
-422.34099025767142
 21
103.42075363115831
 31
0.0
  0
LINE
  5
6B5
  8
0
  6
CONTINUOUS
 10
-419.62500000000051
 20
103.7783205320036
 30
0.0
 11
-419.15900974233062
 21
103.42075363115831
 31
0.0
  0
LINE
  5
6B6
  8
0
  6
CONTINUOUS
 10
-422.34099025767142
 20
103.42075363115831
 30
0.0
 11
-422.6026412850191
 21
103.0797633734887
 31
0.0
  0
LINE
  5
6B7
  8
0
  6
CONTINUOUS
 10
-419.15900974233062
 20
103.42075363115831
 30
0.0
 11
-418.89735871498289
 21
103.0797633734887
 31
0.0
  0
LINE
  5
6B8
  8
0
  6
CONTINUOUS
 10
-420.75000000000091
 20
103.0797633734887
 30
0.0
 11
-420.4264761936214
 21
103.0371706563501
 31
0.0
  0
LINE
  5
6B9
  8
0
  6
CONTINUOUS
 10
-418.89735871498289
 20
103.0797633734887
 30
0.0
 11
-418.86467617363098
 21
103.0371706563501
 31
0.0
  0
LINE
  5
6BA
  8
0
  6
CONTINUOUS
 10
-422.6026412850191
 20
103.0797633734887
 30
0.0
 11
-422.63532382637089
 21
103.0371706563501
 31
0.0
  0
LINE
  5
6BB
  8
0
  6
CONTINUOUS
 10
-420.75000000000091
 20
103.0797633734887
 30
0.0
 11
-421.0735238063794
 21
103.0371706563501
 31
0.0
  0
LINE
  5
6BC
  8
0
  6
CONTINUOUS
 10
-420.42647619362219
 20
103.0371706563501
 30
0.0
 11
-420.22752741369931
 21
102.9547633734883
 31
0.0
  0
LINE
  5
6BD
  8
0
  6
CONTINUOUS
 10
-418.86467617363098
 20
103.0371706563501
 30
0.0
 11
-418.8014428414852
 21
102.9547633734883
 31
0.0
  0
LINE
  5
6BE
  8
0
  6
CONTINUOUS
 10
-422.63532382637089
 20
103.0371706563501
 30
0.0
 11
-422.69855715851668
 21
102.9547633734883
 31
0.0
  0
LINE
  5
6BF
  8
0
  6
CONTINUOUS
 10
-421.0735238063794
 20
103.0371706563501
 30
0.0
 11
-421.2724725863024
 21
102.9547633734883
 31
0.0
  0
LINE
  5
6C0
  8
0
  6
CONTINUOUS
 10
-420.22752741369931
 20
102.9547633734883
 30
0.0
 11
-420.12500000000023
 21
102.9122951282191
 31
0.0
  0
LINE
  5
6C1
  8
0
  6
CONTINUOUS
 10
-418.8014428414852
 20
102.9547633734883
 30
0.0
 11
-418.7838519183245
 21
102.9122951282191
 31
0.0
  0
LINE
  5
6C2
  8
0
  6
CONTINUOUS
 10
-422.69855715851668
 20
102.9547633734883
 30
0.0
 11
-422.71614808167737
 21
102.9122951282191
 31
0.0
  0
LINE
  5
6C3
  8
0
  6
CONTINUOUS
 10
-421.2724725863024
 20
102.9547633734883
 30
0.0
 11
-421.37500000000148
 21
102.9122951282191
 31
0.0
  0
LINE
  5
6C4
  8
0
  6
CONTINUOUS
 10
-420.1250000000004
 20
102.9122951282191
 30
0.0
 11
-419.86611652351712
 21
102.7136468499717
 31
0.0
  0
LINE
  5
6C5
  8
0
  6
CONTINUOUS
 10
-418.7838519183245
 20
102.9122951282191
 30
0.0
 11
-418.70156910733232
 21
102.7136468499717
 31
0.0
  0
LINE
  5
6C6
  8
0
  6
CONTINUOUS
 10
-422.71614808167737
 20
102.9122951282191
 30
0.0
 11
-422.7984308926695
 21
102.7136468499717
 31
0.0
  0
LINE
  5
6C7
  8
0
  6
CONTINUOUS
 10
-421.37500000000148
 20
102.9122951282191
 30
0.0
 11
-421.6338834764847
 21
102.7136468499717
 31
0.0
  0
LINE
  5
6C8
  8
0
  6
CONTINUOUS
 10
-551.25889481785703
 20
105.24362182748951
 30
0.0
 11
-547.16176953181775
 21
102.66004567568309
 31
0.0
  0
LINE
  5
6C9
  8
0
  6
CONTINUOUS
 10
-549.31923462221732
 20
105.24362182748951
 30
0.0
 11
-545.2869702356561
 21
102.66004567568309
 31
0.0
  0
LINE
  5
6CA
  8
0
  6
CONTINUOUS
 10
-419.86611652351712
 20
102.7136468499717
 30
0.0
 11
-419.6674682452695
 21
102.4547633734883
 31
0.0
  0
LINE
  5
6CB
  8
0
  6
CONTINUOUS
 10
-418.70156910733232
 20
102.7136468499717
 30
0.0
 11
-418.59433606029859
 21
102.4547633734883
 31
0.0
  0
LINE
  5
6CC
  8
0
  6
CONTINUOUS
 10
-422.7984308926695
 20
102.7136468499717
 30
0.0
 11
-422.90566393970329
 21
102.4547633734883
 31
0.0
  0
LINE
  5
6CD
  8
0
  6
CONTINUOUS
 10
-421.6338834764847
 20
102.7136468499717
 30
0.0
 11
-421.83253175473232
 21
102.4547633734883
 31
0.0
  0
LINE
  5
6CE
  8
0
  6
CONTINUOUS
 10
-419.6674682452695
 20
102.4547633734883
 30
0.0
 11
-419.64979907582062
 21
102.4121062249688
 31
0.0
  0
LINE
  5
6CF
  8
0
  6
CONTINUOUS
 10
-418.59433606029859
 20
102.4547633734883
 30
0.0
 11
-418.57666689084971
 21
102.4121062249688
 31
0.0
  0
LINE
  5
6D0
  8
0
  6
CONTINUOUS
 10
-422.90566393970329
 20
102.4547633734883
 30
0.0
 11
-422.92333310915222
 21
102.4121062249688
 31
0.0
  0
LINE
  5
6D1
  8
0
  6
CONTINUOUS
 10
-421.83253175473232
 20
102.4547633734883
 30
0.0
 11
-421.85020092418119
 21
102.4121062249688
 31
0.0
  0
LINE
  5
6D2
  8
0
  6
CONTINUOUS
 10
-419.64979907582062
 20
102.4121062249688
 30
0.0
 11
-419.54259271713869
 21
102.1532871798663
 31
0.0
  0
LINE
  5
6D3
  8
0
  6
CONTINUOUS
 10
-418.57666689084971
 20
102.4121062249688
 30
0.0
 11
-418.54259271713869
 21
102.1532871798663
 31
0.0
  0
LINE
  5
6D4
  8
0
  6
CONTINUOUS
 10
-422.92333310915222
 20
102.4121062249688
 30
0.0
 11
-422.95740728286307
 21
102.1532871798663
 31
0.0
  0
LINE
  5
6D5
  8
0
  6
CONTINUOUS
 10
-421.85020092418119
 20
102.4121062249688
 30
0.0
 11
-421.95740728286307
 21
102.1532871798663
 31
0.0
  0
LINE
  5
6D6
  8
0
  6
CONTINUOUS
 10
-419.54259271713869
 20
102.1532871798663
 30
0.0
 11
-419.5
 21
101.82976337348791
 31
0.0
  0
LINE
  5
6D7
  8
0
  6
CONTINUOUS
 10
-418.54259271713869
 20
102.1532871798663
 30
0.0
 11
-418.5
 21
101.82976337348791
 31
0.0
  0
LINE
  5
6D8
  8
0
  6
CONTINUOUS
 10
-422.95740728286307
 20
102.1532871798663
 30
0.0
 11
-423.00000000000188
 21
101.82976337348791
 31
0.0
  0
LINE
  5
6D9
  8
0
  6
CONTINUOUS
 10
-421.95740728286307
 20
102.1532871798663
 30
0.0
 11
-421.95999574841233
 21
101.82976337348791
 31
0.0
  0
LINE
  5
6DA
  8
0
  6
CONTINUOUS
 10
-547.16176953181775
 20
102.66004567568309
 30
0.0
 11
-545.82036066419266
 21
101.8141765068718
 31
0.0
  0
LINE
  5
6DB
  8
0
  6
CONTINUOUS
 10
-545.2869702356561
 20
102.66004567568309
 30
0.0
 11
-544.11951618625062
 21
101.8141765068718
 31
0.0
  0
LINE
  5
6DC
  8
0
  6
CONTINUOUS
 10
-545.82036066419266
 20
101.8141765068718
 30
0.0
 11
-543.87109144315104
 21
100.40184962631361
 31
0.0
  0
LINE
  5
6DD
  8
0
  6
CONTINUOUS
 10
-544.11951618625062
 20
101.8141765068718
 30
0.0
 11
-542.170246965209
 21
100.40184962631361
 31
0.0
  0
LINE
  5
6DE
  8
0
  6
CONTINUOUS
 10
-543.87109144315104
 20
100.40184962631361
 30
0.0
 11
-542.80666956797563
 21
99.630631566572646
 31
0.0
  0
LINE
  5
6DF
  8
0
  6
CONTINUOUS
 10
-542.170246965209
 20
100.40184962631361
 30
0.0
 11
-541.34544810790055
 21
99.630631566572646
 31
0.0
  0
LINE
  5
6E0
  8
0
  6
CONTINUOUS
 10
-542.80666956797563
 20
99.630631566572646
 30
0.0
 11
-540.86426267394188
 21
97.814407813629188
 31
0.0
  0
LINE
  5
6E1
  8
0
  6
CONTINUOUS
 10
-541.34544810790055
 20
99.630631566572646
 30
0.0
 11
-539.40304121386714
 21
97.814407813629188
 31
0.0
  0
LINE
  5
6E2
  8
0
  6
CONTINUOUS
 10
-540.86426267394188
 20
97.814407813629188
 30
0.0
 11
-540.13094169271096
 21
97.128725020423246
 31
0.0
  0
LINE
  5
6E3
  8
0
  6
CONTINUOUS
 10
-539.40304121386714
 20
97.814407813629188
 30
0.0
 11
-538.83524380978258
 21
97.128725020423246
 31
0.0
  0
LINE
  5
6E4
  8
0
  6
CONTINUOUS
 10
-423.00000000000188
 20
101.82976337348791
 30
0.0
 11
-423.00000000000188
 21
96.829763373487879
 31
0.0
  0
LINE
  5
6E5
  8
0
  6
CONTINUOUS
 10
-421.95999574841233
 20
101.82976337348791
 30
0.0
 11
-422.00000000000182
 21
96.829763373487879
 31
0.0
  0
LINE
  5
6E6
  8
0
  6
CONTINUOUS
 10
-540.13094169271096
 20
97.128725020423246
 30
0.0
 11
-538.26324934043885
 21
94.873264710560818
 31
0.0
  0
LINE
  5
6E7
  8
0
  6
CONTINUOUS
 10
-538.83524380978258
 20
97.128725020423246
 30
0.0
 11
-536.96755145751058
 21
94.873264710560818
 31
0.0
  0
LINE
  5
6E8
  8
0
  6
CONTINUOUS
 10
-538.26324934043885
 20
94.873264710560818
 30
0.0
 11
-537.77596399441575
 21
94.284809788530552
 31
0.0
  0
LINE
  5
6E9
  8
0
  6
CONTINUOUS
 10
-536.96755145751058
 20
94.873264710560818
 30
0.0
 11
-536.59301842901459
 21
94.284809788530552
 31
0.0
  0
LINE
  5
6EA
  8
0
  6
CONTINUOUS
 10
-537.77596399441575
 20
94.284809788530552
 30
0.0
 11
-536.10012783389971
 21
91.651786898314626
 31
0.0
  0
LINE
  5
6EB
  8
0
  6
CONTINUOUS
 10
-536.59301842901459
 20
94.284809788530552
 30
0.0
 11
-534.91718226849855
 21
91.651786898314626
 31
0.0
  0
LINE
  5
6EC
  8
0
  6
CONTINUOUS
 10
-536.10012783389971
 20
91.651786898314626
 30
0.0
 11
-535.79337560504052
 21
91.169827110573578
 31
0.0
  0
LINE
  5
6ED
  8
0
  6
CONTINUOUS
 10
-534.91718226849855
 20
91.651786898314626
 30
0.0
 11
-534.69059447058009
 21
91.169827110573578
 31
0.0
  0
LINE
  5
6EE
  8
0
  6
CONTINUOUS
 10
-535.79337560504052
 20
91.169827110573578
 30
0.0
 11
-534.55666276910119
 21
88.53929774676169
 31
0.0
  0
LINE
  5
6EF
  8
0
  6
CONTINUOUS
 10
-534.69059447058009
 20
91.169827110573578
 30
0.0
 11
-533.45388163464099
 21
88.53929774676169
 31
0.0
  0
LINE
  5
6F0
  8
0
  6
CONTINUOUS
 10
-534.55666276910119
 20
88.53929774676169
 30
0.0
 11
-534.23481565653572
 21
87.854718226230517
 31
0.0
  0
LINE
  5
6F1
  8
0
  6
CONTINUOUS
 10
-533.45388163464099
 20
88.53929774676169
 30
0.0
 11
-533.2232109898539
 21
87.854718226230517
 31
0.0
  0
LINE
  5
6F2
  8
0
  6
CONTINUOUS
 10
-534.23481565653572
 20
87.854718226230517
 30
0.0
 11
-533.16366508972419
 21
84.563471362838243
 31
0.0
  0
LINE
  5
6F3
  8
0
  6
CONTINUOUS
 10
-533.2232109898539
 20
87.854718226230517
 30
0.0
 11
-532.11421778546583
 21
84.563471362838243
 31
0.0
  0
LINE
  5
6F4
  8
0
  6
CONTINUOUS
 10
-533.16366508972419
 20
84.563471362838243
 30
0.0
 11
-533.08307110491808
 21
84.315836055608841
 31
0.0
  0
LINE
  5
6F5
  8
0
  6
CONTINUOUS
 10
-532.11421778546583
 20
84.563471362838243
 30
0.0
 11
-532.05092312139698
 21
84.315836055608841
 31
0.0
  0
LINE
  5
6F6
  8
0
  6
CONTINUOUS
 10
-533.08307110491808
 20
84.315836055608841
 30
0.0
 11
-527.79373791779597
 21
63.621743305421909
 31
0.0
  0
LINE
  5
6F7
  8
0
  6
CONTINUOUS
 10
-532.05092312139698
 20
84.315836055608841
 30
0.0
 11
-526.76158993427521
 21
63.621743305421909
 31
0.0
  0
LINE
  5
6F8
  8
0
  6
CONTINUOUS
 10
-527.79373791779597
 20
63.621743305421909
 30
0.0
 11
-527.63550125762401
 21
63.002655037347942
 31
0.0
  0
LINE
  5
6F9
  8
0
  6
CONTINUOUS
 10
-526.76158993427521
 20
63.621743305421909
 30
0.0
 11
-526.53848931560856
 21
63.002655037347942
 31
0.0
  0
LINE
  5
6FA
  8
0
  6
CONTINUOUS
 10
-527.63550125762401
 20
63.002655037347942
 30
0.0
 11
-525.70550447424375
 21
57.750185270467263
 31
0.0
  0
LINE
  5
6FB
  8
0
  6
CONTINUOUS
 10
-526.53848931560856
 20
63.002655037347942
 30
0.0
 11
-524.64565865647796
 21
57.750185270467263
 31
0.0
  0
LINE
  5
6FC
  8
0
  6
CONTINUOUS
 10
-525.70550447424375
 20
57.750185270467263
 30
0.0
 11
-525.47796880109786
 21
57.130948878792182
 31
0.0
  0
LINE
  5
6FD
  8
0
  6
CONTINUOUS
 10
-524.64565865647796
 20
57.750185270467263
 30
0.0
 11
-524.26627857418441
 21
57.130948878792182
 31
0.0
  0
LINE
  5
6FE
  8
0
  6
CONTINUOUS
 10
-525.47796880109786
 20
57.130948878792182
 30
0.0
 11
-522.55661818503199
 21
52.428762137489777
 31
0.0
  0
LINE
  5
6FF
  8
0
  6
CONTINUOUS
 10
-524.26627857418441
 20
57.130948878792182
 30
0.0
 11
-521.38544660620175
 21
52.428762137489777
 31
0.0
  0
LINE
  5
700
  8
0
  6
CONTINUOUS
 10
-522.55661818503199
 20
52.428762137489777
 30
0.0
 11
-522.17678055315071
 21
51.817377982963237
 31
0.0
  0
LINE
  5
701
  8
0
  6
CONTINUOUS
 10
-521.38544660620175
 20
52.428762137489777
 30
0.0
 11
-520.80470349060181
 21
51.817377982963237
 31
0.0
  0
LINE
  5
702
  8
0
  6
CONTINUOUS
 10
-522.17678055315071
 20
51.817377982963237
 30
0.0
 11
-518.58940340392041
 21
48.040724439539289
 31
0.0
  0
LINE
  5
703
  8
0
  6
CONTINUOUS
 10
-520.80470349060181
 20
51.817377982963237
 30
0.0
 11
-517.21732634137118
 21
48.040724439539289
 31
0.0
  0
LINE
  5
704
  8
0
  6
CONTINUOUS
 10
-518.58940340392041
 20
48.040724439539289
 30
0.0
 11
-517.86855540546867
 21
47.281843219535219
 31
0.0
  0
LINE
  5
705
  8
0
  6
CONTINUOUS
 10
-517.21732634137118
 20
48.040724439539289
 30
0.0
 11
-516.33299740425139
 21
47.281843219535219
 31
0.0
  0
LINE
  5
706
  8
0
  6
CONTINUOUS
 10
-517.86855540546867
 20
47.281843219535219
 30
0.0
 11
-514.85982853723203
 21
44.699923505517241
 31
0.0
  0
LINE
  5
707
  8
0
  6
CONTINUOUS
 10
-516.33299740425139
 20
47.281843219535219
 30
0.0
 11
-513.32427053601486
 21
44.699923505517241
 31
0.0
  0
LINE
  5
708
  8
0
  6
CONTINUOUS
 10
-514.85982853723203
 20
44.699923505517241
 30
0.0
 11
-513.97549960011224
 21
43.941042285513298
 31
0.0
  0
LINE
  5
709
  8
0
  6
CONTINUOUS
 10
-513.32427053601486
 20
44.699923505517241
 30
0.0
 11
-512.53631069543837
 21
43.941042285513298
 31
0.0
  0
LINE
  5
70A
  8
0
  6
CONTINUOUS
 10
-513.97549960011224
 20
43.941042285513298
 30
0.0
 11
-513.34356305433153
 21
43.32911695873527
 31
0.0
  0
LINE
  5
70B
  8
0
  6
CONTINUOUS
 10
-512.53631069543837
 20
43.941042285513298
 30
0.0
 11
-511.90093776720812
 21
43.32911695873527
 31
0.0
  0
LINE
  5
70C
  8
0
  6
CONTINUOUS
 10
-513.34356305433153
 20
43.32911695873527
 30
0.0
 11
-512.35064184144494
 21
42.367638086027171
 31
0.0
  0
LINE
  5
70D
  8
0
  6
CONTINUOUS
 10
-511.90093776720812
 20
43.32911695873527
 30
0.0
 11
-511.08399644701962
 21
42.367638086027171
 31
0.0
  0
LINE
  5
70E
  8
0
  6
CONTINUOUS
 10
-512.35064184144494
 20
42.367638086027171
 30
0.0
 11
-511.46679938559919
 21
41.295434089375028
 31
0.0
  0
LINE
  5
70F
  8
0
  6
CONTINUOUS
 10
-511.08399644701962
 20
42.367638086027171
 30
0.0
 11
-510.17297513037943
 21
41.295434089375028
 31
0.0
  0
LINE
  5
710
  8
0
  6
CONTINUOUS
 10
-511.46679938559919
 20
41.295434089375028
 30
0.0
 11
-510.97982372068122
 21
40.704675803501672
 31
0.0
  0
LINE
  5
711
  8
0
  6
CONTINUOUS
 10
-510.17297513037943
 20
41.295434089375028
 30
0.0
 11
-509.7404338128099
 21
40.704675803501672
 31
0.0
  0
LINE
  5
712
  8
0
  6
CONTINUOUS
 10
-510.97982372068122
 20
40.704675803501672
 30
0.0
 11
-510.70099161407882
 21
40.301145136760589
 31
0.0
  0
LINE
  5
713
  8
0
  6
CONTINUOUS
 10
-509.7404338128099
 20
40.704675803501672
 30
0.0
 11
-509.44497678673753
 21
40.301145136760589
 31
0.0
  0
LINE
  5
714
  8
0
  6
CONTINUOUS
 10
-510.70099161407882
 20
40.301145136760589
 30
0.0
 11
-510.34517232271821
 21
39.786197279314379
 31
0.0
  0
LINE
  5
715
  8
0
  6
CONTINUOUS
 10
-509.44497678673753
 20
40.301145136760589
 30
0.0
 11
-509.16289155138168
 21
39.786197279314379
 31
0.0
  0
LINE
  5
716
  8
0
  6
CONTINUOUS
 10
-510.34517232271821
 20
39.786197279314379
 30
0.0
 11
-510.09511135739712
 21
39.424304707861531
 31
0.0
  0
LINE
  5
717
  8
0
  6
CONTINUOUS
 10
-509.16289155138168
 20
39.786197279314379
 30
0.0
 11
-509.07454257538387
 21
39.424304707861531
 31
0.0
  0
LINE
  5
718
  8
0
  6
CONTINUOUS
 10
-510.09511135739712
 20
39.424304707861531
 30
0.0
 11
-510.0442091438178
 21
39.215800503293273
 31
0.0
  0
LINE
  5
719
  8
0
  6
CONTINUOUS
 10
-509.07454257538387
 20
39.424304707861531
 30
0.0
 11
-509.02364036180461
 21
39.215800503293273
 31
0.0
  0
LINE
  5
71A
  8
0
  6
CONTINUOUS
 10
-510.0442091438178
 20
39.215800503293273
 30
0.0
 11
-510.01774958540972
 21
39.107417610072119
 31
0.0
  0
LINE
  5
71B
  8
0
  6
CONTINUOUS
 10
-509.02364036180461
 20
39.215800503293273
 30
0.0
 11
-509.02605274686482
 21
39.107417610072119
 31
0.0
  0
LINE
  5
71C
  8
0
  6
CONTINUOUS
 10
-510.01774958540972
 20
39.107417610072119
 30
0.0
 11
-510.02500820101568
 21
38.78130476302384
 31
0.0
  0
LINE
  5
71D
  8
0
  6
CONTINUOUS
 10
-509.02605274686482
 20
39.107417610072119
 30
0.0
 11
-509.03331136247078
 21
38.78130476302384
 31
0.0
  0
LINE
  5
71E
  8
0
  6
CONTINUOUS
 10
-510.02500820101568
 20
38.78130476302384
 30
0.0
 11
-510.04854199383351
 21
38.628797378606251
 31
0.0
  0
LINE
  5
71F
  8
0
  6
CONTINUOUS
 10
-509.03331136247078
 20
38.78130476302384
 30
0.0
 11
-509.03670586989529
 21
38.628797378606251
 31
0.0
  0
LINE
  5
720
  8
0
  6
CONTINUOUS
 10
-510.04854199383351
 20
38.628797378606251
 30
0.0
 11
-510.49990586115382
 21
35.70379827800874
 31
0.0
  0
LINE
  5
721
  8
0
  6
CONTINUOUS
 10
-509.03670586989529
 20
38.628797378606251
 30
0.0
 11
-509.48806973721548
 21
35.70379827800874
 31
0.0
  0
LINE
  5
722
  8
0
  6
CONTINUOUS
 10
-510.49990586115382
 20
35.70379827800874
 30
0.0
 11
-510.506959087768
 21
35.551290893591137
 31
0.0
  0
LINE
  5
723
  8
0
  6
CONTINUOUS
 10
-509.48806973721548
 20
35.70379827800874
 30
0.0
 11
-509.51160353003331
 21
35.551290893591137
 31
0.0
  0
LINE
  5
724
  8
0
  6
CONTINUOUS
 10
-510.506959087768
 20
35.551290893591137
 30
0.0
 11
-510.55378257093639
 21
34.538856820815411
 31
0.0
  0
LINE
  5
725
  8
0
  6
CONTINUOUS
 10
-509.51160353003331
 20
35.551290893591137
 30
0.0
 11
-509.55842701320171
 21
34.538856820815411
 31
0.0
  0
LINE
  5
726
  8
0
  6
CONTINUOUS
 10
-510.55378257093639
 20
34.538856820815411
 30
0.0
 11
-510.5565869197261
 21
34.478220189911809
 31
0.0
  0
LINE
  5
727
  8
0
  6
CONTINUOUS
 10
-509.55842701320171
 20
34.538856820815411
 30
0.0
 11
-509.548170371975
 21
34.478220189911809
 31
0.0
  0
LINE
  5
728
  8
0
  6
CONTINUOUS
 10
-510.5565869197261
 20
34.478220189911809
 30
0.0
 11
-510.39780914552671
 21
33.539535772956278
 31
0.0
  0
LINE
  5
729
  8
0
  6
CONTINUOUS
 10
-509.548170371975
 20
34.478220189911809
 30
0.0
 11
-509.38939259777578
 21
33.539535772956278
 31
0.0
  0
LINE
  5
72A
  8
0
  6
CONTINUOUS
 10
-510.39780914552671
 20
33.539535772956278
 30
0.0
 11
-510.35196631157879
 21
33.26851576355584
 31
0.0
  0
LINE
  5
72B
  8
0
  6
CONTINUOUS
 10
-509.38939259777578
 20
33.539535772956278
 30
0.0
 11
-509.28072183540968
 21
33.26851576355584
 31
0.0
  0
LINE
  5
72C
  8
0
  6
CONTINUOUS
 10
-510.35196631157879
 20
33.26851576355584
 30
0.0
 11
-510.08344048155158
 21
32.598824382050552
 31
0.0
  0
LINE
  5
72D
  8
0
  6
CONTINUOUS
 10
-509.28072183540968
 20
33.26851576355584
 30
0.0
 11
-509.01219600538241
 21
32.598824382050552
 31
0.0
  0
LINE
  5
72E
  8
0
  6
CONTINUOUS
 10
-510.08344048155158
 20
32.598824382050552
 30
0.0
 11
-509.89535991026059
 21
32.129759869301637
 31
0.0
  0
LINE
  5
72F
  8
0
  6
CONTINUOUS
 10
-509.01219600538241
 20
32.598824382050552
 30
0.0
 11
-508.7630672582664
 21
32.129759869301637
 31
0.0
  0
LINE
  5
730
  8
0
  6
CONTINUOUS
 10
-419.5
 20
101.82976337348791
 30
0.0
 11
-419.5
 21
30.32976337348769
 31
0.0
  0
LINE
  5
731
  8
0
  6
CONTINUOUS
 10
-418.5
 20
101.82976337348791
 30
0.0
 11
-418.5
 21
30.32976337348769
 31
0.0
  0
LINE
  5
732
  8
0
  6
CONTINUOUS
 10
-419.5
 20
30.32976337348769
 30
0.0
 11
-419.55962980399408
 21
29.876830044558439
 31
0.0
  0
LINE
  5
733
  8
0
  6
CONTINUOUS
 10
-418.5
 20
30.32976337348769
 30
0.0
 11
-418.55962980399408
 21
29.876830044558439
 31
0.0
  0
LINE
  5
734
  8
0
  6
CONTINUOUS
 10
-509.89535991026059
 20
32.129759869301637
 30
0.0
 11
-508.66395194822599
 21
29.811240700424651
 31
0.0
  0
LINE
  5
735
  8
0
  6
CONTINUOUS
 10
-508.7630672582664
 20
32.129759869301637
 30
0.0
 11
-507.53165929623179
 21
29.811240700424651
 31
0.0
  0
LINE
  5
736
  8
0
  6
CONTINUOUS
 10
-419.55962980399408
 20
29.876830044558439
 30
0.0
 11
-419.66683616267608
 21
29.618010999455819
 31
0.0
  0
LINE
  5
737
  8
0
  6
CONTINUOUS
 10
-418.55962980399408
 20
29.876830044558439
 30
0.0
 11
-418.59370397770499
 21
29.618010999455819
 31
0.0
  0
LINE
  5
738
  8
0
  6
CONTINUOUS
 10
-419.66683616267608
 20
29.618010999455819
 30
0.0
 11
-419.73445554337718
 21
29.454763373487889
 31
0.0
  0
LINE
  5
739
  8
0
  6
CONTINUOUS
 10
-418.59370397770499
 20
29.618010999455819
 30
0.0
 11
-418.66132335840609
 21
29.454763373487889
 31
0.0
  0
LINE
  5
73A
  8
0
  6
CONTINUOUS
 10
-508.66395194822599
 20
29.811240700424651
 30
0.0
 11
-508.33721029220828
 21
29.19604507387033
 31
0.0
  0
LINE
  5
73B
  8
0
  6
CONTINUOUS
 10
-507.53165929623179
 20
29.811240700424651
 30
0.0
 11
-507.15865424085342
 21
29.19604507387033
 31
0.0
  0
LINE
  5
73C
  8
0
  6
CONTINUOUS
 10
-419.73445554337718
 20
29.454763373487889
 30
0.0
 11
-420.01256313292339
 21
29.09232650641156
 31
0.0
  0
LINE
  5
73D
  8
0
  6
CONTINUOUS
 10
-418.66132335840609
 20
29.454763373487889
 30
0.0
 11
-418.81144962425321
 21
29.09232650641156
 31
0.0
  0
LINE
  5
73E
  8
0
  6
CONTINUOUS
 10
-508.33721029220828
 20
29.19604507387033
 30
0.0
 11
-508.2542447748541
 21
29.03983596342777
 31
0.0
  0
LINE
  5
73F
  8
0
  6
CONTINUOUS
 10
-507.15865424085342
 20
29.19604507387033
 30
0.0
 11
-506.99357446936369
 21
29.03983596342777
 31
0.0
  0
LINE
  5
740
  8
0
  6
CONTINUOUS
 10
-420.01256313292339
 20
29.09232650641156
 30
0.0
 11
-420.19183889811688
 21
28.954763373487872
 31
0.0
  0
LINE
  5
741
  8
0
  6
CONTINUOUS
 10
-418.81144962425321
 20
29.09232650641156
 30
0.0
 11
-418.86843013959282
 21
28.954763373487872
 31
0.0
  0
LINE
  5
742
  8
0
  6
CONTINUOUS
 10
-508.2542447748541
 20
29.03983596342777
 30
0.0
 11
-508.18382826771182
 21
28.936128698655899
 31
0.0
  0
LINE
  5
743
  8
0
  6
CONTINUOUS
 10
-506.99357446936369
 20
29.03983596342777
 30
0.0
 11
-506.88397797065852
 21
28.936128698655899
 31
0.0
  0
LINE
  5
744
  8
0
  6
CONTINUOUS
 10
-420.19183889811688
 20
28.954763373487872
 30
0.0
 11
-420.37499999999972
 21
28.814218916865201
 31
0.0
  0
LINE
  5
745
  8
0
  6
CONTINUOUS
 10
-418.86843013959282
 20
28.954763373487872
 30
0.0
 11
-418.97627369417012
 21
28.814218916865201
 31
0.0
  0
LINE
  5
746
  8
0
  6
CONTINUOUS
 10
-508.18382826771182
 20
28.936128698655899
 30
0.0
 11
-508.0515329034863
 21
28.74128815738754
 31
0.0
  0
LINE
  5
747
  8
0
  6
CONTINUOUS
 10
-506.88397797065852
 20
28.936128698655899
 30
0.0
 11
-506.5598780802066
 21
28.74128815738754
 31
0.0
  0
LINE
  5
748
  8
0
  6
CONTINUOUS
 10
-420.37499999999972
 20
28.814218916865201
 30
0.0
 11
-420.79706667107018
 21
28.639393177482312
 31
0.0
  0
LINE
  5
749
  8
0
  6
CONTINUOUS
 10
-418.97627369417012
 20
28.814218916865201
 30
0.0
 11
-419.11042220219213
 21
28.639393177482312
 31
0.0
  0
LINE
  5
74A
  8
0
  6
CONTINUOUS
 10
-420.79706667107018
 20
28.639393177482312
 30
0.0
 11
-420.93965142947491
 21
28.6206215379204
 31
0.0
  0
LINE
  5
74B
  8
0
  6
CONTINUOUS
 10
-419.11042220219213
 20
28.639393177482312
 30
0.0
 11
-419.1248261878365
 21
28.6206215379204
 31
0.0
  0
LINE
  5
74C
  8
0
  6
CONTINUOUS
 10
-508.0515329034863
 20
28.74128815738754
 30
0.0
 11
-507.96960111317009
 21
28.6206215379204
 31
0.0
  0
LINE
  5
74D
  8
0
  6
CONTINUOUS
 10
-506.5598780802066
 20
28.74128815738754
 30
0.0
 11
-506.20148842848772
 21
28.6206215379204
 31
0.0
  0
LINE
  5
74E
  8
0
  6
CONTINUOUS
 10
-419.1248261878365
 20
28.6206215379204
 30
0.0
 11
-419.15617776008469
 21
28.579763373488088
 31
0.0
  0
LINE
  5
74F
  8
0
  6
CONTINUOUS
 10
-507.96960111317009
 20
28.6206215379204
 30
0.0
 11
-507.9418587054044
 21
28.579763373488088
 31
0.0
  0
LINE
  5
750
  8
0
  6
CONTINUOUS
 10
-507.9418587054044
 20
28.579763373488088
 30
0.0
 11
-507.92043150051848
 21
28.548206045517549
 31
0.0
  0
LINE
  5
751
  8
0
  6
CONTINUOUS
 10
-419.15617776008469
 20
28.579763373488088
 30
0.0
 11
-419.18039254950497
 21
28.548206045517549
 31
0.0
  0
LINE
  5
752
  8
0
  6
CONTINUOUS
 10
-507.92043150051848
 20
28.548206045517549
 30
0.0
 11
-507.74818966114299
 21
28.385219725224971
 31
0.0
  0
LINE
  5
753
  8
0
  6
CONTINUOUS
 10
-419.18039254950497
 20
28.548206045517549
 30
0.0
 11
-419.30545635173689
 21
28.385219725224971
 31
0.0
  0
LINE
  5
754
  8
0
  6
CONTINUOUS
 10
-507.74818966114299
 20
28.385219725224971
 30
0.0
 11
-507.48879736164082
 21
28.139766027323429
 31
0.0
  0
LINE
  5
755
  8
0
  6
CONTINUOUS
 10
-419.30545635173689
 20
28.385219725224971
 30
0.0
 11
-419.62533783869992
 21
28.139766027323429
 31
0.0
  0
LINE
  5
756
  8
0
  6
CONTINUOUS
 10
-507.48879736164082
 20
28.139766027323429
 30
0.0
 11
-507.17013354313838
 21
27.948193513080849
 31
0.0
  0
LINE
  5
757
  8
0
  6
CONTINUOUS
 10
-419.62533783869992
 20
28.139766027323429
 30
0.0
 11
-419.87499999999972
 21
27.948193513080849
 31
0.0
  0
LINE
  5
758
  8
0
  6
CONTINUOUS
 10
-507.17013354313838
 20
27.948193513080849
 30
0.0
 11
-506.97949753378748
 21
27.83358803390167
 31
0.0
  0
LINE
  5
759
  8
0
  6
CONTINUOUS
 10
-419.87499999999972
 20
27.948193513080849
 30
0.0
 11
-420.15168210215631
 21
27.83358803390167
 31
0.0
  0
LINE
  5
75A
  8
0
  6
CONTINUOUS
 10
-506.97949753378748
 20
27.83358803390167
 30
0.0
 11
-506.50392611260861
 21
27.673467351193089
 31
0.0
  0
LINE
  5
75B
  8
0
  6
CONTINUOUS
 10
-420.15168210215631
 20
27.83358803390167
 30
0.0
 11
-420.5382476259677
 21
27.673467351193089
 31
0.0
  0
LINE
  5
75C
  8
0
  6
CONTINUOUS
 10
-506.50392611260861
 20
27.673467351193089
 30
0.0
 11
-506.4163137953721
 21
27.643969060453031
 31
0.0
  0
LINE
  5
75D
  8
0
  6
CONTINUOUS
 10
-420.5382476259677
 20
27.673467351193089
 30
0.0
 11
-420.76230938917507
 21
27.643969060453031
 31
0.0
  0
LINE
  5
75E
  8
0
  6
CONTINUOUS
 10
-421.02676785427718
 20
27.609152443014249
 30
0.0
 11
-505.82554403644031
 21
27.579763373488049
 31
0.0
  0
LINE
  5
75F
  8
0
  6
CONTINUOUS
 10
-505.82554403644031
 20
27.579763373488049
 30
0.0
 11
-506.09595892240958
 21
27.609152443014249
 31
0.0
  0
LINE
  5
760
  8
0
  6
CONTINUOUS
 10
-506.4163137953721
 20
27.643969060453031
 30
0.0
 11
-506.09595892240958
 21
27.609152443014249
 31
0.0
  0
LINE
  5
761
  8
0
  6
CONTINUOUS
 10
-420.76230938917507
 20
27.643969060453031
 30
0.0
 11
-421.02676785427718
 21
27.609152443014249
 31
0.0
  0
ENDBLK
  5
763
  8
0
  0
BLOCK
  8
0
  2
*X40
 70
     1
 10
0.0
 20
0.0
 30
0.0
  3
*X40
  1

  0
LINE
  5
765
  8
0
 62
     0
 10
-404.19552621700478
 20
-36.5
 30
0.0
 11
-400.5000000000004
 21
-32.804473782995593
 31
0.0
  0
LINE
  5
766
  8
0
 62
     0
 10
-411.2665940288702
 20
-36.5
 30
0.0
 11
-400.5000000000004
 21
-25.733405971130111
 31
0.0
  0
LINE
  5
767
  8
0
 62
     0
 10
-417.8223583706806
 20
-35.984696529944813
 30
0.0
 11
-403.83766184073602
 21
-22.000000000000249
 31
0.0
  0
LINE
  5
768
  8
0
 62
     0
 10
-404.5145494210023
 20
-15.605819768401149
 30
0.0
 11
-400.5000000000004
 21
-11.59127034739921
 31
0.0
  0
LINE
  5
769
  8
0
 62
     0
 10
-418.5000000000004
 20
-29.59127034739916
 30
0.0
 11
-408.00000000000028
 21
-19.091270347399099
 31
0.0
  0
LINE
  5
76A
  8
0
 62
     0
 10
-418.5000000000004
 20
-22.520202535533681
 30
0.0
 11
-400.5000000000004
 21
-4.5202025355337412
 31
0.0
  0
LINE
  5
76B
  8
0
 62
     0
 10
-418.5000000000004
 20
-15.449134723668211
 30
0.0
 11
-400.5000000000004
 21
2.5508652763317339
 31
0.0
  0
LINE
  5
76C
  8
0
 62
     0
 10
-418.5000000000004
 20
-8.3780669118027333
 30
0.0
 11
-400.5000000000004
 21
9.6219330881972098
 31
0.0
  0
LINE
  5
76D
  8
0
 62
     0
 10
-418.5000000000004
 20
-1.3069990999372569
 30
0.0
 11
-400.5000000000004
 21
16.693000900062678
 31
0.0
  0
LINE
  5
76E
  8
0
 62
     0
 10
-418.5000000000004
 20
5.7640687119282168
 30
0.0
 11
-400.5000000000004
 21
23.764068711928161
 31
0.0
  0
LINE
  5
76F
  8
0
 62
     0
 10
-418.5000000000004
 20
12.83513652379369
 30
0.0
 11
-400.5000000000004
 21
30.83513652379364
 31
0.0
  0
LINE
  5
770
  8
0
 62
     0
 10
-418.50000000000028
 20
19.906204335659169
 30
0.0
 11
-400.5000000000004
 21
37.906204335659112
 31
0.0
  0
LINE
  5
771
  8
0
 62
     0
 10
-418.50000000000028
 20
26.977272147524651
 30
0.0
 11
-400.5000000000004
 21
44.97727214752458
 31
0.0
  0
LINE
  5
772
  8
0
 62
     0
 10
-418.50000000000028
 20
34.04833995939012
 30
0.0
 11
-400.5000000000004
 21
52.048339959390027
 31
0.0
  0
LINE
  5
773
  8
0
 62
     0
 10
-418.50000000000028
 20
41.119407771255602
 30
0.0
 11
-400.5000000000004
 21
59.119407771255503
 31
0.0
  0
LINE
  5
774
  8
0
 62
     0
 10
-418.50000000000028
 20
48.190475583121071
 30
0.0
 11
-400.5000000000004
 21
66.190475583120985
 31
0.0
  0
LINE
  5
775
  8
0
 62
     0
 10
-418.50000000000028
 20
55.261543394986539
 30
0.0
 11
-400.5000000000004
 21
73.261543394986461
 31
0.0
  0
LINE
  5
776
  8
0
 62
     0
 10
-418.50000000000028
 20
62.332611206852022
 30
0.0
 11
-400.5000000000004
 21
80.332611206851936
 31
0.0
  0
LINE
  5
777
  8
0
 62
     0
 10
-418.5000000000004
 20
69.403679018717469
 30
0.0
 11
-401.50262787051281
 21
86.401051148204886
 31
0.0
  0
LINE
  5
778
  8
0
 62
     0
 10
-400.9747468305834
 20
93.999999999999858
 30
0.0
 11
-400.50000000000028
 21
94.474746830582944
 31
0.0
  0
LINE
  5
779
  8
0
 62
     0
 10
-418.50000000000028
 20
76.474746830582973
 30
0.0
 11
-406.55339059327389
 21
88.421356237309368
 31
0.0
  0
LINE
  5
77A
  8
0
 62
     0
 10
-418.5000000000004
 20
83.545814642448434
 30
0.0
 11
-400.5000000000004
 21
101.54581464244841
 31
0.0
  0
LINE
  5
77B
  8
0
 62
     0
 10
-418.5000000000004
 20
90.616882454313895
 30
0.0
 11
-400.61688245431498
 21
108.4999999999992
 31
0.0
  0
LINE
  5
77C
  8
0
 62
     0
 10
-418.50000000000028
 20
97.687950266179371
 30
0.0
 11
-407.68795026618039
 21
108.4999999999992
 31
0.0
  0
LINE
  5
77D
  8
0
 62
     0
 10
-418.5000000000004
 20
104.7590180780448
 30
0.0
 11
-415.62966011220362
 21
107.62935796584151
 31
0.0
  0
ENDBLK
  5
77F
  8
0
  0
BLOCK
  8
0
  2
*X41
 70
     1
 10
0.0
 20
0.0
 30
0.0
  3
*X41
  1

  0
LINE
  5
781
  8
0
 62
     0
 10
-65.000000000000341
 20
-239.9995408742864
 30
0.0
 11
-25.000000000000501
 21
-239.9995408742864
 31
0.0
  0
LINE
  5
782
  8
0
 62
     0
 10
-65.000000000000412
 20
-224.9995408742864
 30
0.0
 11
-25.000000000000551
 21
-224.9995408742864
 31
0.0
  0
LINE
  5
783
  8
0
 62
     0
 10
-65.000000000000469
 20
-209.9995408742864
 30
0.0
 11
-25.00000000000059
 21
-209.9995408742864
 31
0.0
  0
LINE
  5
784
  8
0
 62
     0
 10
-65.00000000000054
 20
-194.9995408742864
 30
0.0
 11
-25.000000000000639
 21
-194.9995408742864
 31
0.0
  0
LINE
  5
785
  8
0
 62
     0
 10
-65.000000000000597
 20
-179.9995408742864
 30
0.0
 11
-25.000000000000679
 21
-179.9995408742864
 31
0.0
  0
LINE
  5
786
  8
0
 62
     0
 10
-65.000000000000668
 20
-164.9995408742864
 30
0.0
 11
-25.000000000000728
 21
-164.9995408742864
 31
0.0
  0
LINE
  5
787
  8
0
 62
     0
 10
-65.000000000000739
 20
-149.9995408742864
 30
0.0
 11
-25.000000000000782
 21
-149.9995408742864
 31
0.0
  0
LINE
  5
788
  8
0
 62
     0
 10
-65.000000000000796
 20
-134.9995408742864
 30
0.0
 11
-25.000000000000821
 21
-134.9995408742864
 31
0.0
  0
LINE
  5
789
  8
0
 62
     0
 10
-65.000000000000867
 20
-119.9995408742864
 30
0.0
 11
-25.00000000000087
 21
-119.9995408742864
 31
0.0
  0
LINE
  5
78A
  8
0
 62
     0
 10
-65.000000000000924
 20
-104.9995408742864
 30
0.0
 11
-25.000000000000909
 21
-104.9995408742864
 31
0.0
  0
LINE
  5
78B
  8
0
 62
     0
 10
-65.000000000000995
 20
-89.999540874286424
 30
0.0
 11
-25.000000000000959
 21
-89.999540874286424
 31
0.0
  0
LINE
  5
78C
  8
0
 62
     0
 10
-65.000000000001052
 20
-74.999540874286424
 30
0.0
 11
-25.000000000000998
 21
-74.999540874286424
 31
0.0
  0
LINE
  5
78D
  8
0
 62
     0
 10
-65.000000000001123
 20
-59.999540874286417
 30
0.0
 11
-25.000000000001052
 21
-59.999540874286417
 31
0.0
  0
LINE
  5
78E
  8
0
 62
     0
 10
-65.00000000000118
 20
-44.999540874286417
 30
0.0
 11
-25.000000000001101
 21
-44.999540874286417
 31
0.0
  0
LINE
  5
78F
  8
0
 62
     0
 10
-65.000000000001251
 20
-29.999540874286431
 30
0.0
 11
-25.00000000000114
 21
-29.999540874286431
 31
0.0
  0
ENDBLK
  5
791
  8
0
  0
ENDSEC
  0
SECTION
  2
ENTITIES
  0
LINE
  5
1A9
  8
0
  6
DASH
 10
-201.16518339091439
 20
60.499999999999638
 30
0.0
 11
-399.99999999999977
 21
60.500000000000291
 31
0.0
1001
REVIT
1002
{
1070
     1
1000
575921
1002
}
1002
{
1070
     2
1000
-2000051
1002
}
1002
{
1070
     3
1000
118704
1002
}
  0
INSERT
  5
20D
  8
0
  2
*U21
 10
0.0
 20
0.0
 30
0.0
  0
INSERT
  5
225
  8
0
  2
*U22
 10
0.0
 20
0.0
 30
0.0
  0
CIRCLE
  5
227
  8
0
 10
-362.2035489329167
 20
157.80165809160931
 30
0.0
 40
2.4999999999999791
1001
REVIT
1002
{
1070
     1
1000
575918
1002
}
1002
{
1070
     5
1000
233013
1002
}
1002
{
1070
     2
1000
-2005028
1002
}
  0
INSERT
  5
228
  8
0
  6
CONTINUOUS
  2
*U23
 10
0.0
 20
0.0
 30
0.0
1001
REVIT
1002
{
1070
     1
1000
575918
1002
}
1002
{
1070
     5
1000
233013
1002
}
1002
{
1070
     2
1000
-2005028
1002
}
1001
ACAD
1002
{
1000
R14_HATCH_DATA
1000
228
1011
1.0
1021
0.0
1031
0.0
1021
0.0
1031
0.0
1011
0.0
1021
0.0
1031
0.0
1021
1.0
1031
0.0
1011
0.0
1021
0.0
1031
0.0
1021
0.0
1031
1.0
1040
0.0
1010
0.0
1020
0.0
1030
1.0
1000
SOLID
1070
     1
1070
     0
1071
        1
1071
        0
1071
        1
1070
     2
1040
-362.2035489329167
1040
157.80165809160931
1040
2.4999999999999791
1040
0.0
1040
6.2831853071795862
1070
     1
1071
        0
1070
     0
1070
     1
1071
        1
1040
0.0
1040
0.0
1040
0.0
1002
}
  0
LINE
  5
229
  8
0
 10
-410.50724428044362
 20
291.29778388224702
 30
0.0
 11
-560.44297797109266
 21
291.29778388224702
 31
0.0
1001
REVIT
1002
{
1070
     1
1000
575918
1002
}
1002
{
1070
     5
1000
233013
1002
}
1002
{
1070
     2
1000
-2005028
1002
}
  0
LINE
  5
22A
  8
0
 10
-362.2035489329167
 20
157.80165809160931
 30
0.0
 11
-410.50724428044362
 21
291.29778388224702
 31
0.0
1001
REVIT
1002
{
1070
     1
1000
575918
1002
}
1002
{
1070
     5
1000
233013
1002
}
1002
{
1070
     2
1000
-2005028
1002
}
  0
INSERT
  5
22B
  8
0
  2
*U24
 10
0.0
 20
0.0
 30
0.0
  0
CIRCLE
  5
22C
  8
0
 10
-489.30972406980283
 20
26.32590699876657
 30
0.0
 40
2.4999999999999432
1001
REVIT
1002
{
1070
     1
1000
575919
1002
}
1002
{
1070
     5
1000
233011
1002
}
1002
{
1070
     2
1000
-2005028
1002
}
  0
INSERT
  5
22D
  8
0
  6
CONTINUOUS
  2
*U25
 10
0.0
 20
0.0
 30
0.0
1001
REVIT
1002
{
1070
     1
1000
575919
1002
}
1002
{
1070
     5
1000
233011
1002
}
1002
{
1070
     2
1000
-2005028
1002
}
1001
ACAD
1002
{
1000
R14_HATCH_DATA
1000
22D
1011
1.0
1021
0.0
1031
0.0
1021
0.0
1031
0.0
1011
0.0
1021
0.0
1031
0.0
1021
1.0
1031
0.0
1011
0.0
1021
0.0
1031
0.0
1021
0.0
1031
1.0
1040
0.0
1010
0.0
1020
0.0
1030
1.0
1000
SOLID
1070
     1
1070
     0
1071
        1
1071
        0
1071
        1
1070
     2
1040
-489.30972406980283
1040
26.32590699876657
1040
2.4999999999999432
1040
0.0
1040
6.2831853071795862
1070
     1
1071
        0
1070
     0
1070
     1
1071
        1
1040
0.0
1040
0.0
1040
0.0
1002
}
  0
LINE
  5
22E
  8
0
 10
-489.30972406980283
 20
-22.674291045346539
 30
0.0
 11
-520.27251772004672
 21
-22.674291045346539
 31
0.0
1001
REVIT
1002
{
1070
     1
1000
575919
1002
}
1002
{
1070
     5
1000
233011
1002
}
1002
{
1070
     2
1000
-2005028
1002
}
  0
LINE
  5
22F
  8
0
 10
-489.30972406980283
 20
26.32590699876657
 30
0.0
 11
-489.30972406980283
 21
-22.674291045346539
 31
0.0
1001
REVIT
1002
{
1070
     1
1000
575919
1002
}
1002
{
1070
     5
1000
233011
1002
}
1002
{
1070
     2
1000
-2005028
1002
}
  0
INSERT
  5
230
  8
0
  2
*U26
 10
0.0
 20
0.0
 30
0.0
  0
CIRCLE
  5
231
  8
0
 10
-409.36626717916442
 20
-37.624725471943002
 30
0.0
 40
2.5
1001
REVIT
1002
{
1070
     1
1000
575920
1002
}
1002
{
1070
     5
1000
233013
1002
}
1002
{
1070
     2
1000
-2005028
1002
}
  0
INSERT
  5
232
  8
0
  6
CONTINUOUS
  2
*U27
 10
0.0
 20
0.0
 30
0.0
1001
REVIT
1002
{
1070
     1
1000
575920
1002
}
1002
{
1070
     5
1000
233013
1002
}
1002
{
1070
     2
1000
-2005028
1002
}
1001
ACAD
1002
{
1000
R14_HATCH_DATA
1000
232
1011
1.0
1021
0.0
1031
0.0
1021
0.0
1031
0.0
1011
0.0
1021
0.0
1031
0.0
1021
1.0
1031
0.0
1011
0.0
1021
0.0
1031
0.0
1021
0.0
1031
1.0
1040
0.0
1010
0.0
1020
0.0
1030
1.0
1000
SOLID
1070
     1
1070
     0
1071
        1
1071
        0
1071
        1
1070
     2
1040
-409.36626717916442
1040
-37.624725471943002
1040
2.5
1040
0.0
1040
6.2831853071795862
1070
     1
1071
        0
1070
     0
1070
     1
1071
        1
1040
0.0
1040
0.0
1040
0.0
1002
}
  0
LINE
  5
233
  8
0
 10
-409.36626717916442
 20
-126.21694131678029
 30
0.0
 11
-626.76122064891695
 21
-126.21694131678029
 31
0.0
1001
REVIT
1002
{
1070
     1
1000
575920
1002
}
1002
{
1070
     5
1000
233013
1002
}
1002
{
1070
     2
1000
-2005028
1002
}
  0
LINE
  5
234
  8
0
 10
-409.36626717916442
 20
-37.624725471943002
 30
0.0
 11
-409.36626717916442
 21
-126.21694131678029
 31
0.0
1001
REVIT
1002
{
1070
     1
1000
575920
1002
}
1002
{
1070
     5
1000
233013
1002
}
1002
{
1070
     2
1000
-2005028
1002
}
  0
INSERT
  5
235
  8
0
  2
*U28
 10
0.0
 20
0.0
 30
0.0
  0
CIRCLE
  5
236
  8
0
 10
157.28209747038551
 20
341.19883815438561
 30
0.0
 40
2.5
1001
REVIT
1002
{
1070
     1
1000
575924
1002
}
1002
{
1070
     5
1000
233013
1002
}
1002
{
1070
     2
1000
-2005028
1002
}
  0
INSERT
  5
237
  8
0
  6
CONTINUOUS
  2
*U29
 10
0.0
 20
0.0
 30
0.0
1001
REVIT
1002
{
1070
     1
1000
575924
1002
}
1002
{
1070
     5
1000
233013
1002
}
1002
{
1070
     2
1000
-2005028
1002
}
1001
ACAD
1002
{
1000
R14_HATCH_DATA
1000
237
1011
1.0
1021
0.0
1031
0.0
1021
0.0
1031
0.0
1011
0.0
1021
0.0
1031
0.0
1021
1.0
1031
0.0
1011
0.0
1021
0.0
1031
0.0
1021
0.0
1031
1.0
1040
0.0
1010
0.0
1020
0.0
1030
1.0
1000
SOLID
1070
     1
1070
     0
1071
        1
1071
        0
1071
        1
1070
     2
1040
157.28209747038551
1040
341.19883815438561
1040
2.5
1040
0.0
1040
6.2831853071795862
1070
     1
1071
        0
1070
     0
1070
     1
1071
        1
1040
0.0
1040
0.0
1040
0.0
1002
}
  0
LINE
  5
238
  8
0
 10
157.28209747038551
 20
393.858533865825
 30
0.0
 11
110.0541906131446
 21
393.858533865825
 31
0.0
1001
REVIT
1002
{
1070
     1
1000
575924
1002
}
1002
{
1070
     5
1000
233013
1002
}
1002
{
1070
     2
1000
-2005028
1002
}
  0
LINE
  5
239
  8
0
 10
157.28209747038551
 20
341.19883815438561
 30
0.0
 11
157.28209747038551
 21
393.858533865825
 31
0.0
1001
REVIT
1002
{
1070
     1
1000
575924
1002
}
1002
{
1070
     5
1000
233013
1002
}
1002
{
1070
     2
1000
-2005028
1002
}
  0
INSERT
  5
23A
  8
0
  2
*U30
 10
0.0
 20
0.0
 30
0.0
  0
CIRCLE
  5
23B
  8
0
 10
90.332413679843498
 20
260.21190890082471
 30
0.0
 40
2.5000000000000142
1001
REVIT
1002
{
1070
     1
1000
575925
1002
}
1002
{
1070
     5
1000
233013
1002
}
1002
{
1070
     2
1000
-2005028
1002
}
  0
INSERT
  5
23C
  8
0
  6
CONTINUOUS
  2
*U31
 10
0.0
 20
0.0
 30
0.0
1001
REVIT
1002
{
1070
     1
1000
575925
1002
}
1002
{
1070
     5
1000
233013
1002
}
1002
{
1070
     2
1000
-2005028
1002
}
1001
ACAD
1002
{
1000
R14_HATCH_DATA
1000
23C
1011
1.0
1021
0.0
1031
0.0
1021
0.0
1031
0.0
1011
0.0
1021
0.0
1031
0.0
1021
1.0
1031
0.0
1011
0.0
1021
0.0
1031
0.0
1021
0.0
1031
1.0
1040
0.0
1010
0.0
1020
0.0
1030
1.0
1000
SOLID
1070
     1
1070
     0
1071
        1
1071
        0
1071
        1
1070
     2
1040
90.332413679843498
1040
260.21190890082471
1040
2.5000000000000142
1040
0.0
1040
6.2831853071795862
1070
     1
1071
        0
1070
     0
1070
     1
1071
        1
1040
0.0
1040
0.0
1040
0.0
1002
}
  0
LINE
  5
23D
  8
0
 10
90.332413679843498
 20
350.62631158080347
 30
0.0
 11
22.05753789347942
 21
350.63235364822162
 31
0.0
1001
REVIT
1002
{
1070
     1
1000
575925
1002
}
1002
{
1070
     5
1000
233013
1002
}
1002
{
1070
     2
1000
-2005028
1002
}
  0
LINE
  5
23E
  8
0
 10
90.332413679843498
 20
260.21190890082471
 30
0.0
 11
90.332413679843498
 21
350.62631158080347
 31
0.0
1001
REVIT
1002
{
1070
     1
1000
575925
1002
}
1002
{
1070
     5
1000
233013
1002
}
1002
{
1070
     2
1000
-2005028
1002
}
  0
INSERT
  5
23F
  8
0
  2
*U32
 10
0.0
 20
0.0
 30
0.0
  0
CIRCLE
  5
240
  8
0
 10
-297.47633949514523
 20
159.3720038482721
 30
0.0
 40
2.4999999999999551
1001
REVIT
1002
{
1070
     1
1000
575928
1002
}
1002
{
1070
     5
1000
233013
1002
}
1002
{
1070
     2
1000
-2005028
1002
}
  0
INSERT
  5
241
  8
0
  6
CONTINUOUS
  2
*U33
 10
0.0
 20
0.0
 30
0.0
1001
REVIT
1002
{
1070
     1
1000
575928
1002
}
1002
{
1070
     5
1000
233013
1002
}
1002
{
1070
     2
1000
-2005028
1002
}
1001
ACAD
1002
{
1000
R14_HATCH_DATA
1000
241
1011
1.0
1021
0.0
1031
0.0
1021
0.0
1031
0.0
1011
0.0
1021
0.0
1031
0.0
1021
1.0
1031
0.0
1011
0.0
1021
0.0
1031
0.0
1021
0.0
1031
1.0
1040
0.0
1010
0.0
1020
0.0
1030
1.0
1000
SOLID
1070
     1
1070
     0
1071
        1
1071
        0
1071
        1
1070
     2
1040
-297.47633949514523
1040
159.3720038482721
1040
2.4999999999999551
1040
0.0
1040
6.2831853071795862
1070
     1
1071
        0
1070
     0
1070
     1
1071
        1
1040
0.0
1040
0.0
1040
0.0
1002
}
  0
LINE
  5
242
  8
0
 10
-390.95305395402829
 20
335.1253571334102
 30
0.0
 11
-525.46425522950835
 21
335.1253571334102
 31
0.0
1001
REVIT
1002
{
1070
     1
1000
575928
1002
}
1002
{
1070
     5
1000
233013
1002
}
1002
{
1070
     2
1000
-2005028
1002
}
  0
LINE
  5
243
  8
0
 10
-297.47633949514523
 20
159.3720038482721
 30
0.0
 11
-390.95305395402829
 21
335.1253571334102
 31
0.0
1001
REVIT
1002
{
1070
     1
1000
575928
1002
}
1002
{
1070
     5
1000
233013
1002
}
1002
{
1070
     2
1000
-2005028
1002
}
  0
INSERT
  5
244
  8
0
  2
*U34
 10
0.0
 20
0.0
 30
0.0
  0
CIRCLE
  5
245
  8
0
 10
-241.57025492641191
 20
189.5820792749042
 30
0.0
 40
2.5000000000000351
1001
REVIT
1002
{
1070
     1
1000
575929
1002
}
1002
{
1070
     5
1000
233013
1002
}
1002
{
1070
     2
1000
-2005028
1002
}
  0
INSERT
  5
246
  8
0
  6
CONTINUOUS
  2
*U35
 10
0.0
 20
0.0
 30
0.0
1001
REVIT
1002
{
1070
     1
1000
575929
1002
}
1002
{
1070
     5
1000
233013
1002
}
1002
{
1070
     2
1000
-2005028
1002
}
1001
ACAD
1002
{
1000
R14_HATCH_DATA
1000
246
1011
1.0
1021
0.0
1031
0.0
1021
0.0
1031
0.0
1011
0.0
1021
0.0
1031
0.0
1021
1.0
1031
0.0
1011
0.0
1021
0.0
1031
0.0
1021
0.0
1031
1.0
1040
0.0
1010
0.0
1020
0.0
1030
1.0
1000
SOLID
1070
     1
1070
     0
1071
        1
1071
        0
1071
        1
1070
     2
1040
-241.57025492641191
1040
189.5820792749042
1040
2.5000000000000351
1040
0.0
1040
6.2831853071795862
1070
     1
1071
        0
1070
     0
1070
     1
1071
        1
1040
0.0
1040
0.0
1040
0.0
1002
}
  0
LINE
  5
247
  8
0
 10
-371.58100876829229
 20
375.04246532596829
 30
0.0
 11
-645.47128451821141
 21
375.04246532596829
 31
0.0
1001
REVIT
1002
{
1070
     1
1000
575929
1002
}
1002
{
1070
     5
1000
233013
1002
}
1002
{
1070
     2
1000
-2005028
1002
}
  0
LINE
  5
248
  8
0
 10
-241.57025492641191
 20
189.5820792749042
 30
0.0
 11
-371.58100876829229
 21
375.04246532596829
 31
0.0
1001
REVIT
1002
{
1070
     1
1000
575929
1002
}
1002
{
1070
     5
1000
233013
1002
}
1002
{
1070
     2
1000
-2005028
1002
}
  0
INSERT
  5
249
  8
0
  2
*U36
 10
0.0
 20
0.0
 30
0.0
  0
CIRCLE
  5
24A
  8
0
 10
-426.65902097509399
 20
68.89310540188238
 30
0.0
 40
2.5
1001
REVIT
1002
{
1070
     1
1000
575931
1002
}
1002
{
1070
     5
1000
233013
1002
}
1002
{
1070
     2
1000
-2005028
1002
}
  0
INSERT
  5
24B
  8
0
  6
CONTINUOUS
  2
*U37
 10
0.0
 20
0.0
 30
0.0
1001
REVIT
1002
{
1070
     1
1000
575931
1002
}
1002
{
1070
     5
1000
233013
1002
}
1002
{
1070
     2
1000
-2005028
1002
}
1001
ACAD
1002
{
1000
R14_HATCH_DATA
1000
24B
1011
1.0
1021
0.0
1031
0.0
1021
0.0
1031
0.0
1011
0.0
1021
0.0
1031
0.0
1021
1.0
1031
0.0
1011
0.0
1021
0.0
1031
0.0
1021
0.0
1031
1.0
1040
0.0
1010
0.0
1020
0.0
1030
1.0
1000
SOLID
1070
     1
1070
     0
1071
        1
1071
        0
1071
        1
1070
     2
1040
-426.65902097509399
1040
68.89310540188238
1040
2.5
1040
0.0
1040
6.2831853071795862
1070
     1
1071
        0
1070
     0
1070
     1
1071
        1
1040
0.0
1040
0.0
1040
0.0
1002
}
  0
LINE
  5
24C
  8
0
 10
-426.65902097509399
 20
-79.425198390295066
 30
0.0
 11
-583.09979537422998
 21
-79.41915632287683
 31
0.0
1001
REVIT
1002
{
1070
     1
1000
575931
1002
}
1002
{
1070
     5
1000
233013
1002
}
1002
{
1070
     2
1000
-2005028
1002
}
  0
LINE
  5
24D
  8
0
 10
-426.65902097509399
 20
68.89310540188238
 30
0.0
 11
-426.65902097509399
 21
-79.425198390295066
 31
0.0
1001
REVIT
1002
{
1070
     1
1000
575931
1002
}
1002
{
1070
     5
1000
233013
1002
}
1002
{
1070
     2
1000
-2005028
1002
}
  0
INSERT
  5
24E
  8
0
  2
*U38
 10
0.0
 20
0.0
 30
0.0
  0
LINE
  5
2B2
  8
0
 10
205.0453782280413
 20
467.07633926360461
 30
0.0
 11
205.04537822804161
 21
295.63033240520468
 31
0.0
  0
LINE
  5
2B3
  8
0
 10
205.0453782280419
 20
117.07633926360459
 30
0.0
 11
205.04537822804161
 21
288.52234612200459
 31
0.0
  0
LINE
  5
2B4
  8
0
 10
205.0453782280413
 20
467.07633926360461
 30
0.0
 11
205.04537822804161
 21
295.63033240520468
 31
0.0
  0
LINE
  5
2B5
  8
0
 10
205.04537822804161
 20
295.63033240520468
 30
0.0
 11
194.73775906716071
 21
293.81282104027389
 31
0.0
  0
LINE
  5
2B6
  8
0
 10
194.73775906716071
 20
293.81282104027389
 30
0.0
 11
215.35299738892249
 21
290.33985748693527
 31
0.0
  0
LINE
  5
2B7
  8
0
 10
215.35299738892249
 20
290.33985748693527
 30
0.0
 11
205.04537822804161
 21
288.52234612200459
 31
0.0
  0
LINE
  5
2B8
  8
0
 10
205.04537822804161
 20
288.52234612200459
 30
0.0
 11
205.0453782280419
 21
117.07633926360459
 31
0.0
  0
LINE
  5
2B9
  8
0
 10
139.99999999999861
 20
-228.78154087428589
 30
0.0
 11
23.55399314159871
 21
-228.78154087428589
 31
0.0
  0
LINE
  5
2BA
  8
0
 10
-100.00000000000141
 20
-228.78154087428589
 30
0.0
 11
16.446006858398508
 21
-228.78154087428589
 31
0.0
  0
LINE
  5
2BB
  8
0
 10
139.99999999999861
 20
-228.78154087428589
 30
0.0
 11
23.55399314159871
 21
-228.78154087428589
 31
0.0
  0
LINE
  5
2BC
  8
0
 10
23.55399314159871
 20
-228.78154087428589
 30
0.0
 11
21.736481776667919
 21
-218.47392171340499
 31
0.0
  0
LINE
  5
2BD
  8
0
 10
21.736481776667919
 20
-218.47392171340491
 30
0.0
 11
18.263518223329289
 21
-239.08916003516671
 31
0.0
  0
LINE
  5
2BE
  8
0
 10
18.263518223329289
 20
-239.08916003516671
 30
0.0
 11
16.446006858398508
 21
-228.78154087428589
 31
0.0
  0
LINE
  5
2BF
  8
0
 10
16.446006858398508
 20
-228.78154087428589
 30
0.0
 11
-100.00000000000141
 21
-228.78154087428589
 31
0.0
  0
LINE
  5
2C0
  8
0
 10
-362.0967098506834
 20
155.681640439479
 30
0.0
 11
-365.85548033382833
 21
154.31355986617561
 31
0.0
1001
REVIT
1002
{
1070
     3
1000
211597
1002
}
  0
LINE
  5
2C1
  8
0
 10
-355.38327037787582
 20
132.8509104808258
 30
0.0
 11
-363.24973367436752
 21
154.4638407589012
 31
0.0
1001
REVIT
1002
{
1070
     3
1000
211597
1002
}
  0
LINE
  5
2C2
  8
0
 10
-355.16907640161833
 20
130.80051516759079
 30
0.0
 11
-355.38327037787582
 21
132.8509104808258
 31
0.0
1001
REVIT
1002
{
1070
     3
1000
211597
1002
}
  0
LINE
  5
2C3
  8
0
 10
-356.32296299866158
 20
132.50889033749999
 30
0.0
 11
-355.16907640161833
 21
130.80051516759079
 31
0.0
1001
REVIT
1002
{
1070
     3
1000
211597
1002
}
  0
LINE
  5
2C4
  8
0
 10
-364.1894262951534
 20
154.12182061557539
 30
0.0
 11
-356.32296299866158
 21
132.50889033749999
 31
0.0
1001
REVIT
1002
{
1070
     3
1000
211597
1002
}
  0
LINE
  5
2C5
  8
0
 10
-365.31692921068583
 20
153.7114431152732
 30
0.0
 11
-364.1894262951534
 21
154.12182061557539
 31
0.0
1001
REVIT
1002
{
1070
     3
1000
211597
1002
}
  0
LINE
  5
2C6
  8
0
 10
-363.24973367436752
 20
154.4638407589012
 30
0.0
 11
-362.1222307588356
 21
154.8742182592033
 31
0.0
1001
REVIT
1002
{
1070
     3
1000
211597
1002
}
  0
LINE
  5
2C7
  8
0
 10
-362.0967098506834
 20
155.681640439479
 30
0.0
 11
-362.1222307588356
 21
154.8742182592033
 31
0.0
1001
REVIT
1002
{
1070
     3
1000
211597
1002
}
  0
LINE
  5
2C8
  8
0
 10
-365.85548033382833
 20
154.31355986617561
 30
0.0
 11
-365.31692921068583
 21
153.7114431152732
 31
0.0
1001
REVIT
1002
{
1070
     3
1000
211597
1002
}
  0
LINE
  5
2C9
  8
0
 10
-84.306844899688954
 20
264.10871515820992
 30
0.0
 11
-37.594324661435678
 21
275.75545453698481
 31
0.0
1001
REVIT
1002
{
1070
     3
1000
578788
1002
}
  0
LINE
  5
2CA
  8
0
 10
-71.879779453881099
 20
261.01665876267089
 30
0.0
 11
-82.853719663511356
 21
258.28054816691792
 31
0.0
1001
REVIT
1002
{
1070
     3
1000
578788
1002
}
  0
LINE
  5
2CB
  8
0
 10
-116.1237871479688
 20
239.33131633185309
 30
0.0
 11
-70.35144116471281
 21
255.9910878222957
 31
0.0
1001
REVIT
1002
{
1070
     3
1000
578788
1002
}
  0
LINE
  5
2CC
  8
0
 10
-116.3342272526961
 20
239.2669783351522
 30
0.0
 11
-116.1237871479688
 21
239.33131633185309
 31
0.0
1001
REVIT
1002
{
1070
     3
1000
578788
1002
}
  0
LINE
  5
2CD
  8
0
 10
-262.65771310773857
 20
202.76847798872379
 30
0.0
 11
-116.3342272526961
 21
239.2669783351522
 31
0.0
1001
REVIT
1002
{
1070
     3
1000
578788
1002
}
  0
LINE
  5
2CE
  8
0
 10
-262.37520905680219
 20
192.3319042377473
 30
0.0
 11
-264.36095117059
 21
200.2962808466321
 31
0.0
1001
REVIT
1002
{
1070
     3
1000
578788
1002
}
  0
LINE
  5
2CF
  8
0
 10
-254.86084716324291
 20
191.57744935207111
 30
0.0
 11
-260.15383488476908
 21
190.83356843961801
 31
0.0
1001
REVIT
1002
{
1070
     3
1000
578788
1002
}
  0
LINE
  5
2D0
  8
0
 10
-290.26134077868971
 20
175.9504301422414
 30
0.0
 11
-254.23393488352821
 21
189.0633335059095
 31
0.0
1001
REVIT
1002
{
1070
     3
1000
578788
1002
}
  0
LINE
  5
2D1
  8
0
 10
-436.93683531152999
 20
139.3801220243235
 30
0.0
 11
-290.26134077868909
 21
175.9504301422416
 31
0.0
1001
REVIT
1002
{
1070
     3
1000
578788
1002
}
  0
LINE
  5
2D2
  8
0
 10
-436.39985651235781
 20
128.9917705375581
 30
0.0
 11
-438.39514230943058
 21
136.9528631945665
 31
0.0
1001
REVIT
1002
{
1070
     3
1000
578788
1002
}
  0
LINE
  5
2D3
  8
0
 10
-421.59827406836649
 20
130.8235112570039
 30
0.0
 11
-434.0304191834972
 21
127.723829344357
 31
0.0
1001
REVIT
1002
{
1070
     3
1000
578788
1002
}
  0
ARC
  5
2D4
  8
0
 10
-83.530009698723063
 20
261.20716602525039
 30
0.0
 40
3.0037410508294449
 50
104.9883454356477
 51
283.01165456438622
1001
REVIT
1002
{
1070
     3
1000
578788
1002
}
  0
ARC
  5
2D5
  8
0
 10
-71.318367541866053
 20
258.44221230995657
 30
0.0
 40
2.6349493112479041
 50
291.52838004182757
 51
102.30195052509249
1001
REVIT
1002
{
1070
     3
1000
578788
1002
}
  0
ARC
  5
2D6
  8
0
 10
-262.41822884016437
 20
200.7806559253568
 30
0.0
 40
2.0021961117793401
 50
96.869640961642062
 51
194.0000000000249
1001
REVIT
1002
{
1070
     3
1000
578788
1002
}
  0
ARC
  5
2D7
  8
0
 10
-260.43248672637583
 20
192.81627931647219
 30
0.0
 40
2.0021961117799791
 50
194.0000000000249
 51
278.00000000000409
1001
REVIT
1002
{
1070
     3
1000
578788
1002
}
  0
ARC
  5
2D8
  8
0
 10
-254.70762174095759
 20
190.28043678466199
 30
0.0
 40
1.3060320172382529
 50
291.26558942057841
 51
96.737534394832991
1001
REVIT
1002
{
1070
     3
1000
578788
1002
}
  0
ARC
  5
2D9
  8
0
 10
-436.452460232806
 20
137.4373996938979
 30
0.0
 40
2.0021961117790461
 50
104.0000000000028
 51
194.0047607500363
1001
REVIT
1002
{
1070
     3
1000
578788
1002
}
  0
ARC
  5
2DA
  8
0
 10
-434.51479426222619
 20
129.6665516747814
 30
0.0
 40
2.0021961117791012
 50
199.6954505122122
 51
284.00000000015052
1001
REVIT
1002
{
1070
     3
1000
578788
1002
}
  0
LINE
  5
2DB
  8
0
 10
263.14764349331529
 20
391.29298207062061
 30
0.0
 11
309.86016373156849
 21
402.93972144939551
 31
0.0
1001
REVIT
1002
{
1070
     3
1000
578788
1002
}
  0
LINE
  5
2DC
  8
0
 10
275.57470893912313
 20
388.20092567508169
 30
0.0
 11
264.60076872949293
 21
385.46481507932862
 31
0.0
1001
REVIT
1002
{
1070
     3
1000
578788
1002
}
  0
LINE
  5
2DD
  8
0
 10
231.33070124503541
 20
366.51558324426378
 30
0.0
 11
277.10304722829142
 21
383.17535473470639
 31
0.0
1001
REVIT
1002
{
1070
     3
1000
578788
1002
}
  0
LINE
  5
2DE
  8
0
 10
231.12026114030809
 20
366.45124524756301
 30
0.0
 11
231.3307012450353
 21
366.51558324426378
 31
0.0
1001
REVIT
1002
{
1070
     3
1000
578788
1002
}
  0
LINE
  5
2DF
  8
0
 10
84.796775285265554
 20
329.95274490113462
 30
0.0
 11
231.120261140308
 21
366.45124524756289
 31
0.0
1001
REVIT
1002
{
1070
     3
1000
578788
1002
}
  0
LINE
  5
2E0
  8
0
 10
85.079279336202006
 20
319.51617115015807
 30
0.0
 11
83.093537222414199
 21
327.48054775904279
 31
0.0
1001
REVIT
1002
{
1070
     3
1000
578788
1002
}
  0
LINE
  5
2E1
  8
0
 10
92.593641229761317
 20
318.76171626448178
 30
0.0
 11
87.300653508235087
 21
318.01783535202873
 31
0.0
1001
REVIT
1002
{
1070
     3
1000
578788
1002
}
  0
LINE
  5
2E2
  8
0
 10
57.193147614314483
 20
303.13469705465218
 30
0.0
 11
93.220553509476019
 21
316.24760041832019
 31
0.0
1001
REVIT
1002
{
1070
     3
1000
578788
1002
}
  0
LINE
  5
2E3
  8
0
 10
-89.482346918525806
 20
266.5643889367343
 30
0.0
 11
57.193147614315137
 21
303.13469705465241
 31
0.0
1001
REVIT
1002
{
1070
     3
1000
578788
1002
}
  0
LINE
  5
2E4
  8
0
 10
-88.945368119353603
 20
256.17603744996887
 30
0.0
 11
-90.940653916426527
 21
264.13713010697728
 31
0.0
1001
REVIT
1002
{
1070
     3
1000
578788
1002
}
  0
LINE
  5
2E5
  8
0
 10
-74.143785675362366
 20
258.00777816941462
 30
0.0
 11
-86.575930790493061
 21
254.90809625676769
 31
0.0
1001
REVIT
1002
{
1070
     3
1000
578788
1002
}
  0
ARC
  5
2E6
  8
0
 10
263.92447869428111
 20
388.39143293766119
 30
0.0
 40
3.0037410508294449
 50
104.9883454356477
 51
283.01165456438662
1001
REVIT
1002
{
1070
     3
1000
578788
1002
}
  0
ARC
  5
2E7
  8
0
 10
276.13612085113812
 20
385.62647922236732
 30
0.0
 40
2.6349493112479041
 50
291.52838004182757
 51
102.3019505250937
1001
REVIT
1002
{
1070
     3
1000
578788
1002
}
  0
ARC
  5
2E8
  8
0
 10
85.036259552839837
 20
327.96492283776752
 30
0.0
 40
2.0021961117793401
 50
96.869640961641267
 51
194.00000000002311
1001
REVIT
1002
{
1070
     3
1000
578788
1002
}
  0
ARC
  5
2E9
  8
0
 10
87.022001666628341
 20
320.00054622888302
 30
0.0
 40
2.0021961117799791
 50
194.00000000002629
 51
278.0000000000025
1001
REVIT
1002
{
1070
     3
1000
578788
1002
}
  0
ARC
  5
2EA
  8
0
 10
92.746866652046634
 20
317.46470369707282
 30
0.0
 40
1.3060320172382529
 50
291.26558942057841
 51
96.737534394831357
1001
REVIT
1002
{
1070
     3
1000
578788
1002
}
  0
ARC
  5
2EB
  8
0
 10
-88.997971839801835
 20
264.62166660630868
 30
0.0
 40
2.0021961117790461
 50
104.0000000000036
 51
194.00476075003431
1001
REVIT
1002
{
1070
     3
1000
578788
1002
}
  0
ARC
  5
2EC
  8
0
 10
-87.060305869222049
 20
256.85081858719212
 30
0.0
 40
2.0021961117791012
 50
199.6954505122132
 51
284.00000000015052
1001
REVIT
1002
{
1070
     3
1000
578788
1002
}
  0
LINE
  5
2ED
  8
0
 10
-51.679777018542971
 20
275.22381102513958
 30
0.0
 11
-55.4385475016878
 21
273.85573045183622
 31
0.0
1001
REVIT
1002
{
1070
     3
1000
211597
1002
}
  0
LINE
  5
2EE
  8
0
 10
-44.966337545735321
 20
252.3930810664863
 30
0.0
 11
-52.832800842227087
 21
274.00601134456173
 31
0.0
1001
REVIT
1002
{
1070
     3
1000
211597
1002
}
  0
LINE
  5
2EF
  8
0
 10
-44.75214356947788
 20
250.34268575325129
 30
0.0
 11
-44.966337545735321
 21
252.3930810664863
 31
0.0
1001
REVIT
1002
{
1070
     3
1000
211597
1002
}
  0
LINE
  5
2F0
  8
0
 10
-45.906030166521198
 20
252.05106092316061
 30
0.0
 11
-44.75214356947788
 21
250.34268575325129
 31
0.0
1001
REVIT
1002
{
1070
     3
1000
211597
1002
}
  0
LINE
  5
2F1
  8
0
 10
-53.772493463012971
 20
273.663991201236
 30
0.0
 11
-45.906030166521198
 21
252.05106092316061
 31
0.0
1001
REVIT
1002
{
1070
     3
1000
211597
1002
}
  0
LINE
  5
2F2
  8
0
 10
-54.899996378545403
 20
273.25361370093373
 30
0.0
 11
-53.772493463012971
 21
273.663991201236
 31
0.0
1001
REVIT
1002
{
1070
     3
1000
211597
1002
}
  0
LINE
  5
2F3
  8
0
 10
-52.832800842227087
 20
274.00601134456173
 30
0.0
 11
-51.705297926695081
 21
274.41638884486389
 31
0.0
1001
REVIT
1002
{
1070
     3
1000
211597
1002
}
  0
LINE
  5
2F4
  8
0
 10
-51.679777018542971
 20
275.22381102513958
 30
0.0
 11
-51.705297926695081
 21
274.41638884486389
 31
0.0
1001
REVIT
1002
{
1070
     3
1000
211597
1002
}
  0
LINE
  5
2F5
  8
0
 10
-55.4385475016878
 20
273.85573045183622
 30
0.0
 11
-54.899996378545403
 21
273.25361370093373
 31
0.0
1001
REVIT
1002
{
1070
     3
1000
211597
1002
}
  0
LINE
  5
2F6
  8
0
 10
-425.28795755206772
 20
121.8369417834555
 30
0.0
 11
-411.19256824027912
 21
126.9672439333406
 31
0.0
1001
REVIT
1002
{
1070
     3
1000
578786
1002
}
  0
LINE
  5
2F7
  8
0
 10
-411.19256824027912
 20
126.9672439333406
 30
0.0
 11
-413.92872938688453
 21
134.48478489962801
 31
0.0
1001
REVIT
1002
{
1070
     3
1000
578786
1002
}
  0
LINE
  5
2F8
  8
0
 10
-413.92872938688453
 20
134.4847848996279
 30
0.0
 11
-428.02411869867308
 21
129.354482749743
 31
0.0
1001
REVIT
1002
{
1070
     3
1000
578786
1002
}
  0
LINE
  5
2F9
  8
0
 10
-425.28795755206772
 20
121.8369417834555
 30
0.0
 11
-425.28795755206778
 21
71.836941783455558
 31
0.0
1001
REVIT
1002
{
1070
     3
1000
578786
1002
}
  0
LINE
  5
2FA
  8
0
 10
-425.28795755206778
 20
71.836941783455558
 30
0.0
 11
-430.28795755206778
 21
63.176687745611169
 31
0.0
1001
REVIT
1002
{
1070
     3
1000
578786
1002
}
  0
LINE
  5
2FB
  8
0
 10
-428.02411869867308
 20
129.354482749743
 30
0.0
 11
-430.09467105949318
 21
137.0818893600555
 31
0.0
1001
REVIT
1002
{
1070
     3
1000
578786
1002
}
  0
LINE
  5
2FC
  8
0
 10
-430.09467105949318
 20
137.0818893600555
 30
0.0
 11
-362.33599915308088
 21
149.029571394128
 31
0.0
1001
REVIT
1002
{
1070
     3
1000
578786
1002
}
  0
LINE
  5
2FD
  8
0
 10
-361.33599915308099
 20
149.20589837483641
 30
0.0
 11
-331.61389575827218
 21
154.44670712674761
 31
0.0
1001
REVIT
1002
{
1070
     3
1000
578786
1002
}
  0
ARC
  5
2FE
  8
0
 10
98.000000000000384
 20
182.61516235161761
 30
0.0
 40
1.9999999999999969
 50
0.0
 51
90.0
1001
REVIT
1002
{
1070
     3
1000
224526
1002
}
  0
ARC
  5
2FF
  8
0
 10
2.000000000000433
 20
182.6151623516177
 30
0.0
 40
1.999999999999996
 50
90.0
 51
180.0
1001
REVIT
1002
{
1070
     3
1000
224526
1002
}
  0
ARC
  5
300
  8
0
 10
2.0000000000004401
 20
136.6151623516177
 30
0.0
 40
1.999999999999992
 50
180.0
 51
269.9999999999996
1001
REVIT
1002
{
1070
     3
1000
224526
1002
}
  0
ARC
  5
301
  8
0
 10
98.000000000000426
 20
136.6151623516177
 30
0.0
 40
2.0000000000000071
 50
269.9999999999996
 51
0.0
1001
REVIT
1002
{
1070
     3
1000
224526
1002
}
  0
LINE
  5
302
  8
0
 10
98.000000000000384
 20
184.6151623516177
 30
0.0
 11
2.000000000000433
 21
184.6151623516177
 31
0.0
1001
REVIT
1002
{
1070
     3
1000
224526
1002
}
  0
LINE
  5
303
  8
0
 10
0.0000000000004334
 20
182.6151623516177
 30
0.0
 11
0.0000000000004334
 21
136.6151623516177
 31
0.0
1001
REVIT
1002
{
1070
     3
1000
224526
1002
}
  0
LINE
  5
304
  8
0
 10
2.000000000000433
 20
134.6151623516177
 30
0.0
 11
98.000000000000426
 21
134.6151623516177
 31
0.0
1001
REVIT
1002
{
1070
     3
1000
224526
1002
}
  0
LINE
  5
305
  8
0
 10
100.0000000000004
 20
136.6151623516177
 30
0.0
 11
100.0000000000004
 21
182.61516235161761
 31
0.0
1001
REVIT
1002
{
1070
     3
1000
224526
1002
}
  0
LINE
  5
306
  8
0
 10
2.00000000000027
 20
182.6151623516179
 30
0.0
 11
98.000000000000455
 21
136.6151623516177
 31
0.0
  0
LINE
  5
307
  8
0
 10
98.000000000000455
 20
182.6151623516179
 30
0.0
 11
2.0000000000004761
 21
136.6151623516177
 31
0.0
  0
LINE
  5
308
  8
0
  6
DASH
 10
205.6308167664717
 20
351.8407014075126
 30
0.0
 11
-47.613888234791091
 21
259.66716680152729
 31
0.0
1001
REVIT
1002
{
1070
     3
1000
217411
1002
}
  0
LINE
  5
309
  8
0
  6
DASH
 10
-48.553580855576882
 20
259.32514665820167
 30
0.0
 11
-238.4771703474523
 21
190.19861329816541
 31
0.0
1001
REVIT
1002
{
1070
     3
1000
217411
1002
}
  0
LINE
  5
30A
  8
0
 10
210.39787372003039
 20
351.44741269870781
 30
0.0
 11
-46.929847948176921
 21
257.78778156005779
 31
0.0
  0
LINE
  5
30B
  8
0
 10
-47.869540568962982
 20
257.44576141673252
 30
0.0
 11
-359.45501063109049
 21
144.03792488441499
 31
0.0
  0
LINE
  5
30C
  8
0
 10
-360.39470325187642
 20
143.69590474108981
 30
0.0
 11
-424.25278278111091
 21
120.4534645750731
 31
0.0
  0
LINE
  5
30D
  8
0
 10
-424.25278278111091
 20
120.4534645750731
 30
0.0
 11
-419.12248063123138
 21
106.3580752632823
 31
0.0
  0
LINE
  5
30E
  8
0
 10
-419.12248063123138
 20
106.3580752632823
 30
0.0
 11
215.52817586990989
 21
337.35202338691698
 31
0.0
  0
LINE
  5
30F
  8
0
 10
-421.68763170617109
 20
113.4057699191773
 30
0.0
 11
-357.82955217693319
 21
136.6482100851951
 31
0.0
1001
REVIT
1002
{
1070
     3
1000
456193
1002
}
  0
LINE
  5
310
  8
0
 10
-356.8898595561472
 20
136.99023022852029
 30
0.0
 11
-44.891140953439901
 21
250.54847692896271
 31
0.0
1001
REVIT
1002
{
1070
     3
1000
456193
1002
}
  0
LINE
  5
311
  8
0
 10
-44.77794541381558
 20
250.5896767360376
 30
0.0
 11
212.96302479497041
 21
344.39971804281191
 31
0.0
1001
REVIT
1002
{
1070
     3
1000
456193
1002
}
  0
LINE
  5
312
  8
0
 10
-422.5426820644845
 20
115.7550014711429
 30
0.0
 11
-358.6846025352479
 21
138.99744163716031
 31
0.0
1001
REVIT
1002
{
1070
     3
1000
456193
1002
}
  0
LINE
  5
313
  8
0
 10
-357.74490991446169
 20
139.33946178048561
 30
0.0
 11
-46.15943985233428
 21
252.74729831280311
 31
0.0
1001
REVIT
1002
{
1070
     3
1000
456193
1002
}
  0
LINE
  5
314
  8
0
 10
-45.21974723154824
 20
253.0893184561283
 30
0.0
 11
212.1079744366568
 21
346.74894959477763
 31
0.0
1001
REVIT
1002
{
1070
     3
1000
456193
1002
}
  0
LINE
  5
315
  8
0
 10
-420.83258134785802
 20
111.05653836721289
 30
0.0
 11
-356.97450181861922
 21
134.29897853323121
 31
0.0
1001
REVIT
1002
{
1070
     3
1000
456193
1002
}
  0
LINE
  5
316
  8
0
 10
-356.03480919783323
 20
134.64099867655639
 30
0.0
 11
213.81807515328271
 21
342.05048649084728
 31
0.0
1001
REVIT
1002
{
1070
     3
1000
456193
1002
}
  0
LINE
  5
317
  8
0
 10
-419.97753098954479
 20
108.7073068152478
 30
0.0
 11
-355.97966562124668
 21
132.00062486585551
 31
0.0
1001
REVIT
1002
{
1070
     3
1000
456193
1002
}
  0
LINE
  5
318
  8
0
 10
-355.3195446785777
 20
132.24088924000239
 30
0.0
 11
214.67312551159591
 21
339.7012549388823
 31
0.0
1001
REVIT
1002
{
1070
     3
1000
456193
1002
}
  0
LINE
  5
319
  8
0
 10
-423.39773242279767
 20
118.10423302310799
 30
0.0
 11
-359.53965289356222
 21
141.346673189125
 31
0.0
1001
REVIT
1002
{
1070
     3
1000
456193
1002
}
  0
LINE
  5
31A
  8
0
 10
-358.59996027277617
 20
141.6886933324503
 30
0.0
 11
-47.01449021064866
 21
255.0965298647678
 31
0.0
1001
REVIT
1002
{
1070
     3
1000
456193
1002
}
  0
LINE
  5
31B
  8
0
 10
-46.074797589862669
 20
255.43855000809299
 30
0.0
 11
211.25292407834371
 21
349.09818114674272
 31
0.0
1001
REVIT
1002
{
1070
     3
1000
456193
1002
}
  0
LINE
  5
31C
  8
0
  6
DASH
 10
-238.4771703474523
 20
190.1986132981653
 30
0.0
 11
-362.9740753363501
 21
153.70647569971379
 31
0.0
1001
REVIT
1002
{
1070
     3
1000
217411
1002
}
  0
LINE
  5
31D
  8
0
  6
DASH
 10
-363.93566513243439
 20
153.4246175510707
 30
0.0
 11
-392.01718296032988
 21
145.19345218482869
 31
0.0
1001
REVIT
1002
{
1070
     3
1000
217411
1002
}
  0
INSERT
  5
31E
  8
0
  6
CONTINUOUS
  2
*U39
 10
0.0
 20
0.0
 30
0.0
1001
ACAD
1002
{
1000
R14_HATCH_DATA
1000
31E
1011
1.0
1021
0.0
1031
0.0
1021
0.0
1031
0.0
1011
0.0
1021
0.0
1031
0.0
1021
1.0
1031
0.0
1011
0.0
1021
0.0
1031
0.0
1021
0.0
1031
1.0
1040
0.0
1010
0.0
1020
0.0
1030
1.0
1000
SOLID
1070
     1
1070
     0
1071
        1
1071
        0
1071
      129
1070
     1
1040
-505.82554403644031
1040
27.579763373488049
1040
-421.02676785427718
1040
27.609152443014249
1070
     1
1040
-421.02676785427718
1040
27.609152443014249
1040
-420.5382476259677
1040
27.673467351193089
1070
     1
1040
-420.5382476259677
1040
27.673467351193089
1040
-419.87499999999972
1040
27.948193513080849
1070
     1
1040
-419.87499999999972
1040
27.948193513080849
1040
-419.30545635173689
1040
28.385219725224971
1070
     1
1040
-419.30545635173689
1040
28.385219725224971
1040
-418.86843013959282
1040
28.954763373487872
1070
     1
1040
-418.86843013959282
1040
28.954763373487872
1040
-418.59370397770499
1040
29.618010999455819
1070
     1
1040
-418.59370397770499
1040
29.618010999455819
1040
-418.5
1040
30.32976337348769
1070
     1
1040
-418.5
1040
30.32976337348769
1040
-418.5
1040
101.82976337348791
1070
     1
1040
-418.5
1040
101.82976337348791
1040
-418.57666689084971
1040
102.4121062249688
1070
     1
1040
-418.57666689084971
1040
102.4121062249688
1040
-418.8014428414852
1040
102.9547633734883
1070
     1
1040
-418.8014428414852
1040
102.9547633734883
1040
-419.15900974233062
1040
103.42075363115831
1070
     1
1040
-419.15900974233062
1040
103.42075363115831
1040
-419.62500000000051
1040
103.7783205320036
1070
     1
1040
-419.62500000000051
1040
103.7783205320036
1040
-420.16765714852011
1040
104.00309648263909
1070
     1
1040
-420.16765714852011
1040
104.00309648263909
1040
-420.75000000000102
1040
104.0797633734888
1070
     1
1040
-420.75000000000091
1040
104.0797633734888
1040
-421.33234285148188
1040
104.00309648263909
1070
     1
1040
-421.33234285148188
1040
104.00309648263909
1040
-421.87500000000148
1040
103.7783205320036
1070
     1
1040
-421.87500000000148
1040
103.7783205320036
1040
-422.34099025767142
1040
103.42075363115831
1070
     1
1040
-422.34099025767142
1040
103.42075363115831
1040
-422.69855715851668
1040
102.9547633734883
1070
     1
1040
-422.69855715851668
1040
102.9547633734883
1040
-422.92333310915222
1040
102.4121062249688
1070
     1
1040
-422.92333310915222
1040
102.4121062249688
1040
-423.00000000000188
1040
101.82976337348791
1070
     1
1040
-423.00000000000188
1040
101.82976337348791
1040
-423.00000000000188
1040
96.829763373487879
1070
     1
1040
-423.00000000000188
1040
96.829763373487879
1040
-422.00000000000182
1040
96.829763373487879
1070
     1
1040
-422.00000000000182
1040
96.829763373487879
1040
-421.95740728286307
1040
102.1532871798663
1070
     1
1040
-421.95740728286307
1040
102.1532871798663
1040
-421.83253175473232
1040
102.4547633734883
1070
     1
1040
-421.83253175473232
1040
102.4547633734883
1040
-421.6338834764847
1040
102.7136468499717
1070
     1
1040
-421.6338834764847
1040
102.7136468499717
1040
-421.37500000000142
1040
102.9122951282191
1070
     1
1040
-421.37500000000148
1040
102.9122951282191
1040
-421.0735238063794
1040
103.0371706563501
1070
     1
1040
-421.0735238063794
1040
103.0371706563501
1040
-420.75000000000091
1040
103.0797633734887
1070
     1
1040
-420.75000000000091
1040
103.0797633734887
1040
-420.42647619362248
1040
103.0371706563502
1070
     1
1040
-420.42647619362259
1040
103.0371706563502
1040
-420.12500000000063
1040
102.9122951282193
1070
     1
1040
-420.12500000000063
1040
102.9122951282193
1040
-419.86611652351712
1040
102.7136468499717
1070
     1
1040
-419.86611652351712
1040
102.7136468499717
1040
-419.6674682452695
1040
102.4547633734883
1070
     1
1040
-419.6674682452695
1040
102.4547633734883
1040
-419.54259271713869
1040
102.1532871798663
1070
     1
1040
-419.54259271713869
1040
102.1532871798663
1040
-419.5
1040
101.82976337348791
1070
     1
1040
-419.5
1040
101.82976337348791
1040
-419.5
1040
30.32976337348769
1070
     1
1040
-419.5
1040
30.32976337348769
1040
-419.55962980399408
1040
29.876830044558439
1070
     1
1040
-419.55962980399408
1040
29.876830044558439
1040
-419.73445554337718
1040
29.454763373487889
1070
     1
1040
-419.73445554337718
1040
29.454763373487889
1040
-420.01256313292339
1040
29.09232650641156
1070
     1
1040
-420.01256313292339
1040
29.09232650641156
1040
-420.37499999999972
1040
28.814218916865201
1070
     1
1040
-420.37499999999972
1040
28.814218916865201
1040
-420.79706667107018
1040
28.639393177482312
1070
     1
1040
-420.79706667107018
1040
28.639393177482312
1040
-421.2499999999996
1040
28.579763373488088
1070
     1
1040
-421.2499999999996
1040
28.579763373488088
1040
-506.20148842848772
1040
28.6206215379204
1070
     1
1040
-506.20148842848772
1040
28.6206215379204
1040
-506.5598780802066
1040
28.74128815738754
1070
     1
1040
-506.5598780802066
1040
28.74128815738754
1040
-506.88397797065852
1040
28.936128698655899
1070
     1
1040
-506.88397797065852
1040
28.936128698655899
1040
-507.15865424085342
1040
29.19604507387033
1070
     1
1040
-507.15865424085342
1040
29.19604507387033
1040
-507.53165929623179
1040
29.811240700424651
1070
     1
1040
-507.53165929623179
1040
29.811240700424651
1040
-509.01219600538229
1040
32.598824382050552
1070
     1
1040
-509.01219600538241
1040
32.598824382050552
1040
-509.38939259777578
1040
33.539535772956278
1070
     1
1040
-509.38939259777578
1040
33.539535772956278
1040
-509.55842701320171
1040
34.538856820815411
1070
     1
1040
-509.55842701320171
1040
34.538856820815411
1040
-509.51160353003331
1040
35.55129089359113
1070
     1
1040
-509.51160353003331
1040
35.551290893591137
1040
-509.03670586989529
1040
38.628797378606251
1070
     1
1040
-509.03670586989529
1040
38.628797378606251
1040
-509.02364036180461
1040
39.215800503293273
1070
     1
1040
-509.02364036180461
1040
39.215800503293273
1040
-509.16289155138179
1040
39.786197279314379
1070
     1
1040
-509.16289155138168
1040
39.786197279314379
1040
-509.44497678673753
1040
40.301145136760589
1070
     1
1040
-509.44497678673753
1040
40.301145136760589
1040
-510.17297513037943
1040
41.295434089375028
1070
     1
1040
-510.17297513037943
1040
41.295434089375028
1040
-511.90093776720818
1040
43.32911695873527
1070
     1
1040
-511.90093776720812
1040
43.32911695873527
1040
-513.32427053601486
1040
44.699923505517241
1070
     1
1040
-513.32427053601486
1040
44.699923505517241
1040
-517.21732634137118
1040
48.040724439539289
1070
     1
1040
-517.21732634137118
1040
48.040724439539289
1040
-521.38544660620175
1040
52.428762137489777
1070
     1
1040
-521.38544660620175
1040
52.428762137489777
1040
-524.64565865647796
1040
57.75018527046727
1070
     1
1040
-524.64565865647796
1040
57.750185270467263
1040
-526.76158993427521
1040
63.621743305421909
1070
     1
1040
-526.76158993427521
1040
63.621743305421909
1040
-532.11421778546583
1040
84.563471362838243
1070
     1
1040
-532.11421778546583
1040
84.563471362838243
1040
-533.45388163464077
1040
88.53929774676169
1070
     1
1040
-533.45388163464099
1040
88.53929774676169
1040
-534.91718226849855
1040
91.651786898314626
1070
     1
1040
-534.91718226849855
1040
91.651786898314626
1040
-536.96755145751058
1040
94.873264710560818
1070
     1
1040
-536.96755145751058
1040
94.873264710560818
1040
-539.40304121386725
1040
97.814407813629188
1070
     1
1040
-539.40304121386714
1040
97.814407813629188
1040
-542.170246965209
1040
100.40184962631361
1070
     1
1040
-542.170246965209
1040
100.40184962631361
1040
-545.2869702356561
1040
102.66004567568309
1070
     1
1040
-545.2869702356561
1040
102.66004567568309
1040
-551.04848381425109
1040
106.3515965396535
1070
     1
1040
-551.04848381425131
1040
106.3515965396535
1040
-551.30048257956355
1040
106.68252197999681
1070
     1
1040
-551.30048257956344
1040
106.68252197999681
1040
-551.4672640901133
1040
107.0635717832034
1070
     1
1040
-551.46726409011353
1040
107.0635717832034
1040
-551.5394060741686
1040
107.4732186542053
1070
     1
1040
-551.5394060741686
1040
107.4732186542053
1040
-551.44001215722722
1040
108.2816774816165
1070
     1
1040
-551.44001215722722
1040
108.2816774816165
1040
-549.42687257387524
1040
119.04639555532491
1070
     1
1040
-549.42687257387524
1040
119.04639555532491
1040
-549.21997576354272
1040
119.32103536810089
1070
     1
1040
-549.21997576354272
1040
119.32103536810089
1040
-548.91226247665202
1040
119.4744819384709
1070
     1
1040
-548.91226247665202
1040
119.4744819384709
1040
-548.74033711720244
1040
119.4944533974018
1070
     1
1040
-548.74033711720244
1040
119.4944533974018
1040
-535.71719249341277
1040
119.46889776711851
1070
     1
1040
-535.71719249341277
1040
119.46889776711851
1040
-535.38097669134982
1040
119.2747834832917
1070
     1
1040
-535.38097669134982
1040
119.2747834832917
1040
-535.18686240752288
1040
118.9385676812287
1070
     1
1040
-535.18686240752299
1040
118.9385676812287
1040
-535.1613067772397
1040
118.7444533974018
1070
     1
1040
-535.1613067772397
1040
118.7444533974018
1040
-535.1613067772397
1040
116.0837292962775
1070
     1
1040
-535.1613067772397
1040
116.0837292962775
1040
-534.16130677723982
1040
116.0837292962775
1070
     1
1040
-534.16130677723982
1040
116.0837292962775
1040
-534.16130677723982
1040
118.7444533974018
1070
     1
1040
-534.16130677723982
1040
118.7444533974018
1040
-534.2209365812339
1040
119.1973867263312
1070
     1
1040
-534.2209365812339
1040
119.1973867263312
1040
-534.39576232061688
1040
119.6194533974017
1070
     1
1040
-534.39576232061688
1040
119.6194533974017
1040
-534.67386991016315
1040
119.9818902644782
1070
     1
1040
-534.67386991016315
1040
119.9818902644782
1040
-535.0363067772397
1040
120.2599978540246
1070
     1
1040
-535.0363067772397
1040
120.2599978540246
1040
-535.45837344831034
1040
120.4348235934076
1070
     1
1040
-535.45837344831045
1040
120.4348235934076
1040
-535.91130677723982
1040
120.4944533974018
1070
     1
1040
-535.91130677723982
1040
120.4944533974018
1040
-549.14149628925099
1040
120.44785332656561
1070
     1
1040
-549.14149628925077
1040
120.44785332656561
1040
-549.52129083748991
1040
120.3105349044645
1070
     1
1040
-549.52129083748991
1040
120.3105349044645
1040
-549.8594939586618
1040
120.089811329036
1070
     1
1040
-549.8594939586618
1040
120.089811329036
1040
-550.13809389344885
1040
119.7974377251367
1070
     1
1040
-550.13809389344885
1040
119.7974377251367
1040
-550.34225318277049
1040
119.44898509922599
1070
     1
1040
-550.34225318277049
1040
119.44898509922599
1040
-550.46109886966235
1040
119.0630110707894
1070
     1
1040
-550.46109886966235
1040
119.0630110707894
1040
-552.49612532181641
1040
108.0703526713356
1070
     1
1040
-552.49612532181641
1040
108.0703526713356
1040
-552.53788317976114
1040
107.4180510041963
1070
     1
1040
-552.53788317976114
1040
107.4180510041963
1040
-552.42451720481733
1040
106.7743202069076
1070
     1
1040
-552.42451720481733
1040
106.7743202069076
1040
-552.16243197395306
1040
106.17552765901149
1070
     1
1040
-552.16243197395306
1040
106.17552765901149
1040
-551.76643391417701
1040
105.655501967044
1070
     1
1040
-551.76643391417701
1040
105.655501967044
1040
-551.25889481785703
1040
105.24362182748951
1070
     1
1040
-551.25889481785703
1040
105.24362182748951
1040
-545.82036066419266
1040
101.8141765068718
1070
     1
1040
-545.82036066419266
1040
101.8141765068718
1040
-542.80666956797563
1040
99.630631566572646
1070
     1
1040
-542.80666956797563
1040
99.630631566572646
1040
-540.13094169271096
1040
97.128725020423246
1070
     1
1040
-540.13094169271096
1040
97.128725020423246
1040
-537.77596399441575
1040
94.284809788530552
1070
     1
1040
-537.77596399441575
1040
94.284809788530552
1040
-535.79337560504052
1040
91.169827110573578
1070
     1
1040
-535.79337560504052
1040
91.169827110573578
1040
-534.23481565653572
1040
87.854718226230517
1070
     1
1040
-534.23481565653572
1040
87.854718226230517
1040
-533.08307110491796
1040
84.315836055608827
1070
     1
1040
-533.08307110491808
1040
84.315836055608841
1040
-527.63550125762401
1040
63.002655037347942
1070
     1
1040
-527.63550125762401
1040
63.002655037347942
1040
-525.47796880109786
1040
57.130948878792182
1070
     1
1040
-525.47796880109786
1040
57.130948878792182
1040
-522.17678055315071
1040
51.817377982963251
1070
     1
1040
-522.17678055315071
1040
51.817377982963237
1040
-517.86855540546867
1040
47.281843219535219
1070
     1
1040
-517.86855540546867
1040
47.281843219535219
1040
-513.97549960011224
1040
43.941042285513298
1070
     1
1040
-513.97549960011224
1040
43.941042285513298
1040
-512.35064184144494
1040
42.367638086027171
1070
     1
1040
-512.35064184144494
1040
42.367638086027171
1040
-510.97982372068122
1040
40.704675803501679
1070
     1
1040
-510.97982372068122
1040
40.704675803501672
1040
-510.09511135739717
1040
39.424304707861531
1070
     1
1040
-510.09511135739712
1040
39.424304707861531
1040
-510.01774958540972
1040
39.107417610072119
1070
     1
1040
-510.01774958540972
1040
39.107417610072119
1040
-510.02500820101568
1040
38.78130476302384
1070
     1
1040
-510.02500820101568
1040
38.78130476302384
1040
-510.49990586115382
1040
35.70379827800874
1070
     1
1040
-510.49990586115382
1040
35.70379827800874
1040
-510.5565869197261
1040
34.478220189911809
1070
     1
1040
-510.5565869197261
1040
34.478220189911809
1040
-510.35196631157879
1040
33.268515763555833
1070
     1
1040
-510.35196631157879
1040
33.26851576355584
1040
-509.89535991026048
1040
32.129759869301637
1070
     1
1040
-509.89535991026059
1040
32.129759869301637
1040
-508.25424477485421
1040
29.03983596342777
1070
     1
1040
-508.2542447748541
1040
29.03983596342777
1040
-507.92043150051848
1040
28.548206045517549
1070
     1
1040
-507.92043150051848
1040
28.548206045517549
1040
-507.48879736164082
1040
28.139766027323429
1070
     1
1040
-507.48879736164082
1040
28.139766027323429
1040
-506.97949753378748
1040
27.83358803390167
1070
     1
1040
-506.97949753378748
1040
27.83358803390167
1040
-506.4163137953721
1040
27.643969060453031
1070
     1
1040
-506.4163137953721
1040
27.643969060453031
1040
-505.82554403644031
1040
27.579763373488049
1071
        0
1070
     0
1070
     1
1071
        1
1040
-418.4999999999996
1040
27.579763373488049
1040
0.0
1002
}
  0
LINE
  5
31F
  8
0
 10
-535.16130677723913
 20
116.0837292962773
 30
0.0
 11
-534.16130677723913
 21
116.0837292962773
 31
0.0
1001
REVIT
1002
{
1070
     3
1000
476644
1002
}
  0
LINE
  5
320
  8
0
 10
-534.16130677723913
 20
116.0837292962773
 30
0.0
 11
-534.16130677723913
 21
118.7444533974016
 31
0.0
1001
REVIT
1002
{
1070
     3
1000
476644
1002
}
  0
ARC
  5
321
  8
0
 10
-535.91130677723913
 20
118.7444533974016
 30
0.0
 40
1.75
 50
0.0
 51
90.0
1001
REVIT
1002
{
1070
     3
1000
476644
1002
}
  0
LINE
  5
322
  8
0
 10
-535.91130677723913
 20
120.4944533974016
 30
0.0
 11
-548.74033711720176
 21
120.4944533974016
 31
0.0
1001
REVIT
1002
{
1070
     3
1000
476644
1002
}
  0
ARC
  5
323
  8
0
 10
-548.74033711720176
 20
118.7444533973984
 30
0.0
 40
1.7500000000014491
 50
90.0
 51
169.5118037983689
1001
REVIT
1002
{
1070
     3
1000
476644
1002
}
  0
LINE
  5
324
  8
0
 10
-550.46109886966178
 20
119.0630110707892
 30
0.0
 11
-552.49612532181573
 21
108.0703526713354
 31
0.0
1001
REVIT
1002
{
1070
     3
1000
476644
1002
}
  0
ARC
  5
325
  8
0
 10
-549.79207113937957
 20
107.5697620417213
 30
0.0
 40
2.7500000000013221
 50
169.5118037983689
 51
237.76518004707859
1001
REVIT
1002
{
1070
     3
1000
476644
1002
}
  0
LINE
  5
326
  8
0
 10
-551.25889481785634
 20
105.24362182748931
 30
0.0
 11
-545.82036066419221
 21
101.8141765068717
 31
0.0
1001
REVIT
1002
{
1070
     3
1000
476644
1002
}
  0
ARC
  5
327
  8
0
 10
-561.42203069889138
 20
77.072503319141745
 30
0.0
 40
29.250000000001211
 50
14.33762585345529
 51
57.765180047081607
1001
REVIT
1002
{
1070
     3
1000
476644
1002
}
  0
LINE
  5
328
  8
0
 10
-533.08307110491728
 20
84.315836055608713
 30
0.0
 11
-527.63550125762345
 21
63.002655037347793
 31
0.0
1001
REVIT
1002
{
1070
     3
1000
476644
1002
}
  0
ARC
  5
329
  8
0
 10
-497.84326168447262
 20
70.617440734658857
 30
0.0
 40
30.749999999999812
 50
194.33762585345491
 51
229.3656677408556
1001
REVIT
1002
{
1070
     3
1000
476644
1002
}
  0
LINE
  5
32A
  8
0
 10
-517.8685554054681
 20
47.281843219535219
 30
0.0
 11
-513.97549960011168
 21
43.941042285513198
 31
0.0
1001
REVIT
1002
{
1070
     3
1000
476644
1002
}
  0
ARC
  5
32B
  8
0
 10
-526.51165908398605
 20
29.332578800436831
 30
0.0
 40
19.249999999998529
 50
36.210836948253387
 51
49.365667740855713
1001
REVIT
1002
{
1070
     3
1000
476644
1002
}
  0
LINE
  5
32C
  8
0
 10
-510.9798237206806
 20
40.704675803501573
 30
0.0
 11
-510.25182537703847
 21
39.710386850887012
 31
0.0
1001
REVIT
1002
{
1070
     3
1000
476644
1002
}
  0
ARC
  5
32D
  8
0
 10
-511.26038611491458
 20
38.971938993545692
 30
0.0
 40
1.2499999999989371
 50
351.2277387767702
 51
36.210836948254382
1001
REVIT
1002
{
1070
     3
1000
476644
1002
}
  0
LINE
  5
32E
  8
0
 10
-510.02500820101523
 20
38.781304763023769
 30
0.0
 11
-510.49990586115308
 21
35.70379827800862
 31
0.0
1001
REVIT
1002
{
1070
     3
1000
476644
1002
}
  0
ARC
  5
32F
  8
0
 10
-504.81716745721218
 20
34.826880817607432
 30
0.0
 40
5.7499999999984253
 50
171.22773877677221
 51
207.97358915472461
1001
REVIT
1002
{
1070
     3
1000
476644
1002
}
  0
LINE
  5
330
  8
0
 10
-509.89535991025991
 20
32.129759869301509
 30
0.0
 11
-508.25424477485359
 21
29.039835963427741
 31
0.0
1001
REVIT
1002
{
1070
     3
1000
476644
1002
}
  0
ARC
  5
331
  8
0
 10
-505.82554403643979
 20
30.329763373486891
 30
0.0
 40
2.74999999999884
 50
207.97358915472421
 51
270.0
1001
REVIT
1002
{
1070
     3
1000
476644
1002
}
  0
LINE
  5
332
  8
0
 10
-505.82554403643968
 20
27.579763373488049
 30
0.0
 11
-421.2499999999992
 21
27.579763373488049
 31
0.0
1001
REVIT
1002
{
1070
     3
1000
476644
1002
}
  0
ARC
  5
333
  8
0
 10
-421.24999999999909
 20
30.32976337348758
 30
0.0
 40
2.7499999999995191
 50
270.0
 51
0.0
1001
REVIT
1002
{
1070
     3
1000
476644
1002
}
  0
LINE
  5
334
  8
0
 10
-418.4999999999996
 20
30.32976337348758
 30
0.0
 11
-418.4999999999996
 21
101.82976337348779
 31
0.0
1001
REVIT
1002
{
1070
     3
1000
476644
1002
}
  0
ARC
  5
335
  8
0
 10
-420.7500000000004
 20
101.82976337348779
 30
0.0
 40
2.2500000000009148
 50
0.0000000000002036
 51
179.9999999999996
1001
REVIT
1002
{
1070
     3
1000
476644
1002
}
  0
LINE
  5
336
  8
0
 10
-423.00000000000142
 20
101.82976337348779
 30
0.0
 11
-423.00000000000142
 21
96.829763373487779
 31
0.0
1001
REVIT
1002
{
1070
     3
1000
476644
1002
}
  0
LINE
  5
337
  8
0
 10
-423.00000000000142
 20
96.829763373487779
 30
0.0
 11
-422.00000000000131
 21
96.829763373487779
 31
0.0
1001
REVIT
1002
{
1070
     3
1000
476644
1002
}
  0
LINE
  5
338
  8
0
 10
-422.00000000000131
 20
96.829763373487779
 30
0.0
 11
-422.00000000000131
 21
101.82976337348779
 31
0.0
1001
REVIT
1002
{
1070
     3
1000
476644
1002
}
  0
ARC
  5
339
  8
0
 10
-420.7500000000004
 20
101.82976337348779
 30
0.0
 40
1.2500000000009139
 50
0.0000000000014249
 51
180.0
1001
REVIT
1002
{
1070
     3
1000
476644
1002
}
  0
LINE
  5
33A
  8
0
 10
-419.49999999999949
 20
101.82976337348779
 30
0.0
 11
-419.49999999999949
 21
30.32976337348758
 31
0.0
1001
REVIT
1002
{
1070
     3
1000
476644
1002
}
  0
ARC
  5
33B
  8
0
 10
-421.24999999999909
 20
30.329763373487609
 30
0.0
 40
1.749999999999555
 50
270.0
 51
359.9999999999992
1001
REVIT
1002
{
1070
     3
1000
476644
1002
}
  0
LINE
  5
33C
  8
0
 10
-421.2499999999992
 20
28.579763373488039
 30
0.0
 11
-505.82554403644019
 21
28.579763373488039
 31
0.0
1001
REVIT
1002
{
1070
     3
1000
476644
1002
}
  0
ARC
  5
33D
  8
0
 10
-505.82554403643979
 20
30.32976337348687
 30
0.0
 40
1.7499999999988161
 50
207.97358915472421
 51
270.0
1001
REVIT
1002
{
1070
     3
1000
476644
1002
}
  0
LINE
  5
33E
  8
0
 10
-507.3710808699754
 20
29.508900476176731
 30
0.0
 11
-509.01219600538178
 21
32.598824382050459
 31
0.0
1001
REVIT
1002
{
1070
     3
1000
476644
1002
}
  0
ARC
  5
33F
  8
0
 10
-504.81716745721189
 20
34.826880817607467
 30
0.0
 40
4.7499999999986988
 50
171.22773877677321
 51
207.97358915472401
1001
REVIT
1002
{
1070
     3
1000
476644
1002
}
  0
LINE
  5
340
  8
0
 10
-509.51160353003269
 20
35.551290893590981
 30
0.0
 11
-509.03670586989477
 21
38.628797378606151
 31
0.0
1001
REVIT
1002
{
1070
     3
1000
476644
1002
}
  0
ARC
  5
341
  8
0
 10
-511.26038611491458
 20
38.971938993545692
 30
0.0
 40
2.249999999998916
 50
351.22773877677059
 51
36.210836948253878
1001
REVIT
1002
{
1070
     3
1000
476644
1002
}
  0
LINE
  5
342
  8
0
 10
-509.44497678673679
 20
40.301145136760553
 30
0.0
 11
-510.17297513037892
 21
41.295434089375078
 31
0.0
1001
REVIT
1002
{
1070
     3
1000
476644
1002
}
  0
ARC
  5
343
  8
0
 10
-526.5116590839865
 20
29.332578800436419
 30
0.0
 40
20.24999999999908
 50
36.210836948253061
 51
49.365667740855443
1001
REVIT
1002
{
1070
     3
1000
476644
1002
}
  0
LINE
  5
344
  8
0
 10
-513.32427053601441
 20
44.699923505517198
 30
0.0
 11
-517.21732634137072
 21
48.040724439539268
 31
0.0
1001
REVIT
1002
{
1070
     3
1000
476644
1002
}
  0
ARC
  5
345
  8
0
 10
-497.84326168447262
 20
70.617440734658899
 30
0.0
 40
29.749999999999851
 50
194.33762585345551
 51
229.3656677408558
1001
REVIT
1002
{
1070
     3
1000
476644
1002
}
  0
LINE
  5
346
  8
0
 10
-526.6666479381712
 20
63.250290344577422
 30
0.0
 11
-532.11421778546526
 21
84.563471362838357
 31
0.0
1001
REVIT
1002
{
1070
     3
1000
476644
1002
}
  0
ARC
  5
347
  8
0
 10
-561.42203069889138
 20
77.072503319141759
 30
0.0
 40
30.250000000001151
 50
14.33762585345489
 51
57.765180047078744
1001
REVIT
1002
{
1070
     3
1000
476644
1002
}
  0
LINE
  5
348
  8
0
 10
-545.28697023565553
 20
102.66004567568289
 30
0.0
 11
-550.72550438931955
 21
106.0894909963005
 31
0.0
1001
REVIT
1002
{
1070
     3
1000
476644
1002
}
  0
ARC
  5
349
  8
0
 10
-549.79207113937957
 20
107.5697620417213
 30
0.0
 40
1.750000000001342
 50
169.5118037983697
 51
237.76518004708171
1001
REVIT
1002
{
1070
     3
1000
476644
1002
}
  0
LINE
  5
34A
  8
0
 10
-551.51283289183937
 20
107.8883197151122
 30
0.0
 11
-549.47780643968542
 21
118.88097811456601
 31
0.0
1001
REVIT
1002
{
1070
     3
1000
476644
1002
}
  0
ARC
  5
34B
  8
0
 10
-548.74033711720176
 20
118.7444533973983
 30
0.0
 40
0.7500000000014656
 50
90.000000000003254
 51
169.51180379836609
1001
REVIT
1002
{
1070
     3
1000
476644
1002
}
  0
LINE
  5
34C
  8
0
 10
-548.74033711720176
 20
119.4944533974016
 30
0.0
 11
-535.91130677723913
 21
119.4944533974016
 31
0.0
1001
REVIT
1002
{
1070
     3
1000
476644
1002
}
  0
ARC
  5
34D
  8
0
 10
-535.91130677723925
 20
118.7444533974016
 30
0.0
 40
0.750000000000064
 50
0.0000000000026462
 51
89.999999999996746
1001
REVIT
1002
{
1070
     3
1000
476644
1002
}
  0
LINE
  5
34E
  8
0
 10
-535.16130677723913
 20
118.7444533974016
 30
0.0
 11
-535.16130677723913
 21
116.0837292962773
 31
0.0
1001
REVIT
1002
{
1070
     3
1000
476644
1002
}
  0
INSERT
  5
34F
  8
0
  6
CONTINUOUS
  2
*X40
 10
0.0
 20
0.0
 30
0.0
1001
ACAD
1000
HATCH
1002
{
1070
    19
1000
FP_2
1040
1.0
1040
3.1415926535897931
1000
R14_HATCH_DATA
1000
34F
1011
1.0
1021
0.0
1031
0.0
1021
0.0
1031
0.0
1011
0.0
1021
0.0
1031
0.0
1021
1.0
1031
0.0
1011
0.0
1021
0.0
1031
0.0
1021
0.0
1031
1.0
1040
0.0
1010
0.0
1020
0.0
1030
1.0
1000
FP_2
1070
     0
1070
     0
1071
        1
1071
        0
1071
       20
1070
     1
1040
-400.5000000000004
1040
-36.500000000000007
1040
-400.5000000000004
1040
-22.00000000000032
1070
     1
1040
-400.5000000000004
1040
-22.00000000000032
1040
-408.00000000000028
1040
-22.00000000000032
1070
     1
1040
-408.00000000000028
1040
-22.00000000000032
1040
-408.00000000000028
1040
-17.000000000000369
1070
     1
1040
-408.00000000000028
1040
-17.000000000000369
1040
-400.5000000000004
1040
-14.000000000000391
1070
     1
1040
-400.5000000000004
1040
-14.000000000000391
1040
-400.5000000000004
1040
85.999999999999886
1070
     1
1040
-400.5000000000004
1040
85.999999999999886
1040
-408.00000000000028
1040
88.999999999999886
1070
     1
1040
-408.00000000000028
1040
88.999999999999886
1040
-408.00000000000028
1040
93.999999999999815
1070
     1
1040
-408.00000000000028
1040
93.999999999999815
1040
-400.50000000000028
1040
93.999999999999815
1070
     1
1040
-400.5000000000004
1040
93.999999999999815
1040
-400.5000000000004
1040
108.4999999999992
1070
     1
1040
-400.50000000000028
1040
108.4999999999992
1040
-413.23759078292443
1040
108.4999999999992
1070
     1
1040
-413.23759078292443
1040
108.4999999999992
1040
-418.4882961540502
1040
106.58889953601
1070
     1
1040
-418.4882961540502
1040
106.58889953601
1040
-418.5000000000004
1040
106.3580752632826
1070
     1
1040
-418.5000000000004
1040
106.3580752632826
1040
-418.5000000000004
1040
-34.499999999999922
1070
     1
1040
-418.5000000000004
1040
-34.499999999999922
1040
-418.43185165257847
1040
-35.017638090205033
1070
     1
1040
-418.43185165257847
1040
-35.017638090205033
1040
-418.23205080756918
1040
-35.499999999999822
1070
     1
1040
-418.23205080756918
1040
-35.499999999999822
1040
-417.91421356237339
1040
-35.914213562372971
1070
     1
1040
-417.91421356237339
1040
-35.914213562372971
1040
-417.5000000000004
1040
-36.232050807568747
1070
     1
1040
-417.5000000000004
1040
-36.232050807568747
1040
-417.01763809020542
1040
-36.431851652577961
1070
     1
1040
-417.01763809020531
1040
-36.431851652577961
1040
-416.5000000000004
1040
-36.500000000000007
1070
     1
1040
-416.5000000000004
1040
-36.500000000000007
1040
-400.5000000000004
1040
-36.500000000000007
1071
        0
1070
     0
1070
     2
1040
3.1415926535897931
1040
1.0
1070
     0
1070
     1
1040
0.785398163397448
1040
0.0000000000001137
1040
0.0000000000000568
1040
-3.5355339059327369
1040
3.5355339059327369
1070
     0
1071
        1
1040
-409.49999999999977
1040
53.500000000000107
1040
0.0
1002
}
  0
LINE
  5
350
  8
0
 10
-416.49999999999989
 20
-36.499999999999851
 30
0.0
 11
-400.49999999999989
 21
-36.499999999999851
 31
0.0
1001
REVIT
1002
{
1070
     3
1000
224252
1002
}
  0
LINE
  5
351
  8
0
 10
-400.49999999999989
 20
-36.499999999999851
 30
0.0
 11
-400.49999999999989
 21
-22.000000000000309
 31
0.0
1001
REVIT
1002
{
1070
     3
1000
224252
1002
}
  0
LINE
  5
352
  8
0
 10
-400.49999999999989
 20
-22.000000000000309
 30
0.0
 11
-407.99999999999989
 21
-22.000000000000309
 31
0.0
1001
REVIT
1002
{
1070
     3
1000
224252
1002
}
  0
LINE
  5
353
  8
0
 10
-407.99999999999989
 20
-22.000000000000309
 30
0.0
 11
-407.99999999999989
 21
-17.000000000000298
 31
0.0
1001
REVIT
1002
{
1070
     3
1000
224252
1002
}
  0
LINE
  5
354
  8
0
 10
-407.99999999999989
 20
-17.000000000000298
 30
0.0
 11
-400.49999999999989
 21
-14.000000000000369
 31
0.0
1001
REVIT
1002
{
1070
     3
1000
224252
1002
}
  0
LINE
  5
355
  8
0
 10
-400.49999999999989
 20
-14.000000000000281
 30
0.0
 11
-400.49999999999989
 21
85.999999999999801
 31
0.0
1001
REVIT
1002
{
1070
     3
1000
224252
1002
}
  0
LINE
  5
356
  8
0
 10
-400.49999999999989
 20
85.999999999999801
 30
0.0
 11
-407.99999999999989
 21
88.999999999999815
 31
0.0
1001
REVIT
1002
{
1070
     3
1000
224252
1002
}
  0
LINE
  5
357
  8
0
 10
-407.99999999999989
 20
88.999999999999815
 30
0.0
 11
-407.99999999999989
 21
93.999999999999673
 31
0.0
1001
REVIT
1002
{
1070
     3
1000
224252
1002
}
  0
LINE
  5
358
  8
0
 10
-407.99999999999989
 20
93.999999999999673
 30
0.0
 11
-400.49999999999989
 21
93.999999999999673
 31
0.0
1001
REVIT
1002
{
1070
     3
1000
224252
1002
}
  0
LINE
  5
359
  8
0
 10
-400.49999999999989
 20
93.999999999999673
 30
0.0
 11
-400.49999999999989
 21
108.4999999999991
 31
0.0
1001
REVIT
1002
{
1070
     3
1000
224252
1002
}
  0
LINE
  5
35A
  8
0
 10
-400.49999999999989
 20
108.4999999999991
 30
0.0
 11
-413.23759078292392
 21
108.4999999999991
 31
0.0
1001
REVIT
1002
{
1070
     3
1000
224252
1002
}
  0
ARC
  5
35B
  8
0
 10
-416.49999999999989
 20
106.4999999999991
 30
0.0
 40
2.0
 50
177.42388926666069
 51
180.0
1001
REVIT
1002
{
1070
     3
1000
224252
1002
}
  0
LINE
  5
35C
  8
0
 10
-418.49999999999977
 20
106.4999999999991
 30
0.0
 11
-418.49999999999977
 21
101.82976337348779
 31
0.0
1001
REVIT
1002
{
1070
     3
1000
224252
1002
}
  0
LINE
  5
35D
  8
0
 10
-418.49999999999977
 20
30.329763373487669
 30
0.0
 11
-418.49999999999977
 21
-34.500000000000192
 31
0.0
1001
REVIT
1002
{
1070
     3
1000
224252
1002
}
  0
ARC
  5
35E
  8
0
 10
-416.49999999999989
 20
-34.499999999999822
 30
0.0
 40
2.0000000000000151
 50
180.0000000000004
 51
270.0
1001
REVIT
1002
{
1070
     3
1000
224252
1002
}
  0
LINE
  5
35F
  8
0
 10
-1.999999999999545
 20
-15.49999999999957
 30
0.0
 11
-402.3333333333332
 21
-15.49999999999957
 31
0.0
1001
REVIT
1002
{
1070
     3
1000
211597
1002
}
  0
LINE
  5
360
  8
0
 10
-402.3333333333332
 20
-21.499999999999741
 30
0.0
 11
-1.999999999999545
 21
-21.499999999999741
 31
0.0
1001
REVIT
1002
{
1070
     3
1000
211597
1002
}
  0
LINE
  5
361
  8
0
 10
-1.999999999999545
 20
-15.50000000000003
 30
0.0
 11
-1.999999999999545
 21
-21.500000000000028
 31
0.0
1001
REVIT
1002
{
1070
     3
1000
211597
1002
}
  0
LINE
  5
362
  8
0
 10
-402.3333333333332
 20
-15.499999999999631
 30
0.0
 11
-402.3333333333332
 21
-21.499999999999801
 31
0.0
1001
REVIT
1002
{
1070
     3
1000
211597
1002
}
  0
ARC
  5
363
  8
0
 10
48.999999999999858
 20
-17.000000000000021
 30
0.0
 40
1.9999999999999969
 50
0.0
 51
90.000000000000185
1001
REVIT
1002
{
1070
     3
1000
224526
1002
}
  0
ARC
  5
364
  8
0
 10
2.9999999999999249
 20
-16.99999999999995
 30
0.0
 40
2.0
 50
89.999999999999801
 51
179.9999999999996
1001
REVIT
1002
{
1070
     3
1000
224526
1002
}
  0
ARC
  5
365
  8
0
 10
2.9999999999999361
 20
-87.999999999999986
 30
0.0
 40
1.999999999999994
 50
180.0
 51
269.99999999999977
1001
REVIT
1002
{
1070
     3
1000
224526
1002
}
  0
ARC
  5
366
  8
0
 10
48.999999999999943
 20
-88.0
 30
0.0
 40
1.9999999999999949
 50
269.9999999999996
 51
0.0
1001
REVIT
1002
{
1070
     3
1000
224526
1002
}
  0
LINE
  5
367
  8
0
 10
48.999999999999872
 20
-14.99999999999995
 30
0.0
 11
2.9999999999999361
 21
-14.99999999999995
 31
0.0
1001
REVIT
1002
{
1070
     3
1000
224526
1002
}
  0
LINE
  5
368
  8
0
 10
0.9999999999999253
 20
-16.99999999999994
 30
0.0
 11
0.9999999999999253
 21
-87.999999999999972
 31
0.0
1001
REVIT
1002
{
1070
     3
1000
224526
1002
}
  0
LINE
  5
369
  8
0
 10
2.999999999999921
 20
-90.0
 30
0.0
 11
48.99999999999995
 21
-90.0
 31
0.0
1001
REVIT
1002
{
1070
     3
1000
224526
1002
}
  0
LINE
  5
36A
  8
0
 10
50.999999999999943
 20
-88.0
 30
0.0
 11
50.999999999999943
 21
-17.000000000000028
 31
0.0
1001
REVIT
1002
{
1070
     3
1000
224526
1002
}
  0
LINE
  5
36B
  8
0
 10
2.9999999999997651
 20
-16.999999999999769
 30
0.0
 11
48.999999999999972
 21
-87.999999999999915
 31
0.0
  0
LINE
  5
36C
  8
0
 10
48.99999999999995
 20
-16.999999999999769
 30
0.0
 11
2.999999999999968
 21
-88.0
 31
0.0
  0
ARC
  5
36D
  8
0
 10
-2.9999999999999281
 20
58.499999999999979
 30
0.0
 40
1.9999999999999969
 50
0.0000000000002036
 51
90.000000000000185
1001
REVIT
1002
{
1070
     3
1000
224526
1002
}
  0
ARC
  5
36E
  8
0
 10
-48.999999999999872
 20
58.50000000000005
 30
0.0
 40
2.0
 50
89.999999999999801
 51
179.9999999999998
1001
REVIT
1002
{
1070
     3
1000
224526
1002
}
  0
ARC
  5
36F
  8
0
 10
-48.999999999999858
 20
-12.49999999999998
 30
0.0
 40
1.999999999999994
 50
180.0000000000002
 51
269.99999999999977
1001
REVIT
1002
{
1070
     3
1000
224526
1002
}
  0
ARC
  5
370
  8
0
 10
-2.9999999999998539
 20
-12.49999999999998
 30
0.0
 40
1.9999999999999949
 50
269.9999999999996
 51
0.0
1001
REVIT
1002
{
1070
     3
1000
224526
1002
}
  0
LINE
  5
371
  8
0
 10
-2.9999999999999249
 20
60.500000000000057
 30
0.0
 11
-48.999999999999858
 21
60.500000000000057
 31
0.0
1001
REVIT
1002
{
1070
     3
1000
224526
1002
}
  0
LINE
  5
372
  8
0
 10
-50.999999999999872
 20
58.500000000000057
 30
0.0
 11
-50.999999999999872
 21
-12.49999999999997
 31
0.0
1001
REVIT
1002
{
1070
     3
1000
224526
1002
}
  0
LINE
  5
373
  8
0
 10
-48.999999999999872
 20
-14.49999999999998
 30
0.0
 11
-2.9999999999998499
 21
-14.49999999999998
 31
0.0
1001
REVIT
1002
{
1070
     3
1000
224526
1002
}
  0
LINE
  5
374
  8
0
 10
-0.9999999999998543
 20
-12.49999999999998
 30
0.0
 11
-0.9999999999998543
 21
58.499999999999972
 31
0.0
1001
REVIT
1002
{
1070
     3
1000
224526
1002
}
  0
LINE
  5
375
  8
0
 10
-49.000000000000028
 20
58.500000000000227
 30
0.0
 11
-2.9999999999998219
 21
-12.499999999999909
 31
0.0
  0
LINE
  5
376
  8
0
 10
-2.999999999999829
 20
58.500000000000227
 30
0.0
 11
-48.999999999999822
 21
-12.49999999999998
 31
0.0
  0
LINE
  5
377
  8
0
  6
DASH
 10
-2.000000000000028
 20
-14.499999999999901
 30
0.0
 11
-2.0000000000000302
 21
-15.49999999999959
 31
0.0
1001
REVIT
1002
{
1070
     3
1000
217411
1002
}
  0
LINE
  5
378
  8
0
  6
DASH
 10
-2.0000000000000422
 20
-21.499999999999702
 30
0.0
 11
-2.0000000000004481
 21
-228.78154087428649
 31
0.0
1001
REVIT
1002
{
1070
     3
1000
217411
1002
}
  0
LINE
  5
379
  8
0
 10
-50.999999999999261
 20
60.500000000000597
 30
0.0
 11
-399.99999999999972
 21
60.500000000000597
 31
0.0
1001
REVIT
1002
{
1070
     3
1000
206265
1002
}
  0
LINE
  5
37A
  8
0
 10
-399.99999999999972
 20
-14.499999999999559
 30
0.0
 11
-50.999999999999261
 21
-14.499999999999559
 31
0.0
1001
REVIT
1002
{
1070
     3
1000
206265
1002
}
  0
INSERT
  5
37B
  8
0
  6
CONTINUOUS
  2
*X41
 10
0.0
 20
0.0
 30
0.0
1001
ACAD
1000
HATCH
1002
{
1070
    19
1000
FP_1
1040
1.0
1040
0.0
1000
R14_HATCH_DATA
1000
37B
1011
1.0
1021
0.0
1031
0.0
1021
0.0
1031
0.0
1011
0.0
1021
0.0
1031
0.0
1021
1.0
1031
0.0
1011
0.0
1021
0.0
1031
0.0
1021
0.0
1031
1.0
1040
0.0
1010
0.0
1020
0.0
1030
1.0
1000
FP_1
1070
     0
1070
     0
1071
        1
1071
        0
1071
        4
1070
     1
1040
-25.00000000000049
1040
-243.28154087428669
1040
-25.000000000001162
1040
-23.499999999999918
1070
     1
1040
-25.000000000001162
1040
-23.499999999999918
1040
-65.000000000001265
1040
-23.50000000000006
1070
     1
1040
-65.000000000001265
1040
-23.50000000000006
1040
-65.000000000000327
1040
-243.28154087428669
1070
     1
1040
-65.000000000000327
1040
-243.28154087428669
1040
-25.00000000000048
1040
-243.28154087428669
1071
        0
1070
     0
1070
     2
1040
0.0
1040
1.0
1070
     0
1070
     1
1040
0.0
1040
0.0
1040
0.0004591257135758
1040
0.0
1040
15.0
1070
     0
1071
        1
1040
-45.0
1040
-243.28154087428649
1040
0.0
1002
}
  0
LINE
  5
37C
  8
0
 10
-25.000000000001162
 20
-23.499999999999972
 30
0.0
 11
-65.000000000001151
 21
-23.500000000000082
 31
0.0
1001
REVIT
1002
{
1070
     3
1000
224526
1002
}
  0
LINE
  5
37D
  8
0
 10
-65.000000000001151
 20
-23.500000000000082
 30
0.0
 11
-65.000000000000426
 21
-243.28154087428661
 31
0.0
1001
REVIT
1002
{
1070
     3
1000
224526
1002
}
  0
LINE
  5
37E
  8
0
 10
-25.00000000000043
 20
-243.28154087428649
 30
0.0
 11
-25.000000000001162
 21
-23.499999999999972
 31
0.0
1001
REVIT
1002
{
1070
     3
1000
224526
1002
}
  0
LINE
  5
37F
  8
0
 10
100.0000000000006
 20
-228.78154087428709
 30
0.0
 11
100.00000000000129
 21
134.6151623516177
 31
0.0
1001
REVIT
1002
{
1070
     3
1000
206265
1002
}
  0
LINE
  5
380
  8
0
 10
0.0000000000012079
 20
134.61516235161781
 30
0.0
 11
0.0000000000004974
 21
-228.78154087428689
 31
0.0
1001
REVIT
1002
{
1070
     3
1000
206265
1002
}
  0
LINE
  5
381
  8
0
 10
216.06437667600699
 20
333.27691796793351
 30
0.0
 11
-400.00136133997353
 21
109.0473269788767
 31
0.0
1001
REVIT
1002
{
1070
     3
1000
206265
1002
}
  0
LINE
  5
382
  8
0
 10
-241.0036059730067
 20
60.500000000000497
 30
0.0
 11
0.0000000000005116
 21
148.2181389249952
 31
0.0
1001
REVIT
1002
{
1070
     3
1000
206265
1002
}
  0
LINE
  5
383
  8
0
 10
100.0000000000007
 20
184.6151623516154
 30
0.0
 11
216.0643766760067
 21
226.859140720342
 31
0.0
1001
REVIT
1002
{
1070
     3
1000
206265
1002
}
  0
LINE
  5
384
  8
0
 10
-399.99999999999972
 20
-0.9999999999996732
 30
0.0
 11
-400.49999999999989
 21
-0.9999999999996732
 31
0.0
1001
REVIT
1002
{
1070
     3
1000
211597
1002
}
  0
LINE
  5
385
  8
0
 10
-400.49999999999989
 20
-6.9999999999998357
 30
0.0
 11
-399.99999999999972
 21
-6.9999999999998357
 31
0.0
1001
REVIT
1002
{
1070
     3
1000
211597
1002
}
  0
VIEWPORT
  5
2A1
 67
     1
  8
0
 10
128.5
 20
97.5
 30
0.0
 40
620.98982300884961
 41
222.18000000000001
 68
     1
 69
     1
1001
ACAD
1000
MVIEW
1002
{
1070
    16
1010
0.0
1020
0.0
1030
0.0
1010
0.0
1020
0.0
1030
1.0
1040
0.0
1040
222.18000000000001
1040
128.5
1040
97.5
1040
50.0
1040
0.0
1040
0.0
1070
     0
1070
   100
1070
     1
1070
     1
1070
     0
1070
     0
1070
     0
1070
     0
1040
0.0
1040
0.0
1040
0.0
1040
10.0
1040
10.0
1040
10.0
1040
10.0
1070
     0
1002
{
1002
}
1002
}
  0
VIEWPORT
  5
2A5
 67
     1
  8
0
 10
128.5
 20
97.5
 30
0.0
 40
205.59999999999999
 41
156.0
 68
     2
 69
     2
1001
ACAD
1000
MVIEW
1002
{
1070
    16
1010
0.0
1020
0.0
1030
0.0
1010
0.0
1020
0.0
1030
1.0
1040
0.0
1040
796.85306431978836
1040
-210.26039247541061
1040
111.897399194659
1040
50.0
1040
0.0
1040
0.0
1070
     0
1070
  1000
1070
     1
1070
     1
1070
     0
1070
     0
1070
     0
1070
     0
1040
0.0
1040
0.0
1040
0.0
1040
1.0
1040
1.0
1040
0.0
1040
0.0
1070
     0
1002
{
1002
}
1002
}
  0
ENDSEC
  0
EOF
