  0
SECTION
  2
HEADER
  9
$ACADVER
  1
AC1009
  9
$INSBASE
 10
0.0
 20
0.0
 30
0.0
  9
$EXTMIN
 10
-717.97784598581336
 20
-224.4675550490681
 30
0.0
  9
$EXTMAX
 10
717.97784598581575
 20
365.66252920553143
 30
0.0
  9
$LIMMIN
 10
0.0
 20
0.0
  9
$LIMMAX
 10
12.0
 20
9.0
  9
$ORTHOMODE
 70
     0
  9
$REGENMODE
 70
     1
  9
$FILLMODE
 70
     1
  9
$QTEXTMODE
 70
     0
  9
$MIRRTEXT
 70
     0
  9
$DRAGMODE
 70
     2
  9
$LTSCALE
 40
1.0
  9
$OSMODE
 70
     0
  9
$ATTMODE
 70
     1
  9
$TEXTSIZE
 40
0.2
  9
$TRACEWID
 40
0.05
  9
$TEXTSTYLE
  7
STANDARD
  9
$CLAYER
  8
0
  9
$CELTYPE
  6
BYLAYER
  9
$CECOLOR
 62
   256
  9
$DIMSCALE
 40
1.0
  9
$DIMASZ
 40
0.18
  9
$DIMEXO
 40
0.0625
  9
$DIMDLI
 40
0.38
  9
$DIMRND
 40
0.0
  9
$DIMDLE
 40
0.0
  9
$DIMEXE
 40
0.18
  9
$DIMTP
 40
0.0
  9
$DIMTM
 40
0.0
  9
$DIMTXT
 40
0.18
  9
$DIMCEN
 40
0.09
  9
$DIMTSZ
 40
0.0
  9
$DIMTOL
 70
     0
  9
$DIMLIM
 70
     0
  9
$DIMTIH
 70
     1
  9
$DIMTOH
 70
     1
  9
$DIMSE1
 70
     0
  9
$DIMSE2
 70
     0
  9
$DIMTAD
 70
     0
  9
$DIMZIN
 70
     0
  9
$DIMBLK
  1

  9
$DIMASO
 70
     1
  9
$DIMSHO
 70
     1
  9
$DIMPOST
  1

  9
$DIMAPOST
  1

  9
$DIMALT
 70
     0
  9
$DIMALTD
 70
     2
  9
$DIMALTF
 40
25.399999999999999
  9
$DIMLFAC
 40
1.0
  9
$DIMTOFL
 70
     0
  9
$DIMTVP
 40
0.0
  9
$DIMTIX
 70
     0
  9
$DIMSOXD
 70
     0
  9
$DIMSAH
 70
     0
  9
$DIMBLK1
  1

  9
$DIMBLK2
  1

  9
$DIMSTYLE
  2
STANDARD
  9
$DIMCLRD
 70
     0
  9
$DIMCLRE
 70
     0
  9
$DIMCLRT
 70
     0
  9
$DIMTFAC
 40
1.0
  9
$DIMGAP
 40
0.09
  9
$LUNITS
 70
     2
  9
$LUPREC
 70
     4
  9
$SKETCHINC
 40
0.1
  9
$FILLETRAD
 40
0.0
  9
$AUNITS
 70
     0
  9
$AUPREC
 70
     0
  9
$MENU
  1
.
  9
$ELEVATION
 40
0.0
  9
$PELEVATION
 40
0.0
  9
$THICKNESS
 40
0.0
  9
$LIMCHECK
 70
     0
  9
$BLIPMODE
 70
     0
  9
$CHAMFERA
 40
0.0
  9
$CHAMFERB
 40
0.0
  9
$SKPOLY
 70
     0
  9
$TDCREATE
 40
2458206.6262037042
  9
$TDUPDATE
 40
2458206.6488872799
  9
$TDINDWG
 40
0.0001013426
  9
$TDUSRTIMER
 40
0.0001013426
  9
$USRTIMER
 70
     1
  9
$ANGBASE
 50
0.0
  9
$ANGDIR
 70
     0
  9
$PDMODE
 70
     0
  9
$PDSIZE
 40
0.0
  9
$PLINEWID
 40
0.0
  9
$COORDS
 70
     2
  9
$SPLFRAME
 70
     0
  9
$SPLINETYPE
 70
     6
  9
$SPLINESEGS
 70
     8
  9
$ATTDIA
 70
     1
  9
$ATTREQ
 70
     0
  9
$HANDLING
 70
     1
  9
$HANDSEED
  5
5D1
  9
$SURFTAB1
 70
     6
  9
$SURFTAB2
 70
     6
  9
$SURFTYPE
 70
     6
  9
$SURFU
 70
     6
  9
$SURFV
 70
     6
  9
$UCSNAME
  2

  9
$UCSORG
 10
0.0
 20
0.0
 30
0.0
  9
$UCSXDIR
 10
1.0
 20
0.0
 30
0.0
  9
$UCSYDIR
 10
0.0
 20
1.0
 30
0.0
  9
$PUCSNAME
  2

  9
$PUCSORG
 10
0.0
 20
0.0
 30
0.0
  9
$PUCSXDIR
 10
1.0
 20
0.0
 30
0.0
  9
$PUCSYDIR
 10
0.0
 20
1.0
 30
0.0
  9
$USERI1
 70
     0
  9
$USERI2
 70
     0
  9
$USERI3
 70
     0
  9
$USERI4
 70
     0
  9
$USERI5
 70
     0
  9
$USERR1
 40
0.0
  9
$USERR2
 40
0.0
  9
$USERR3
 40
0.0
  9
$USERR4
 40
0.0
  9
$USERR5
 40
0.0
  9
$WORLDVIEW
 70
     1
  9
$SHADEDGE
 70
     3
  9
$SHADEDIF
 70
    70
  9
$TILEMODE
 70
     1
  9
$MAXACTVP
 70
    64
  9
$PLIMCHECK
 70
     0
  9
$PEXTMIN
 10
25.699999999999989
 20
19.5
 30
0.0
  9
$PEXTMAX
 10
231.30000000000001
 20
175.5
 30
0.0
  9
$PLIMMIN
 10
-20.0
 20
-7.5
  9
$PLIMMAX
 10
277.0
 20
202.5
  9
$UNITMODE
 70
     0
  9
$VISRETAIN
 70
     1
  9
$PLINEGEN
 70
     0
  9
$PSLTSCALE
 70
     1
  0
ENDSEC
  0
SECTION
  2
TABLES
  0
TABLE
  2
VPORT
 70
     1
  0
VPORT
  2
*ACTIVE
 70
     0
 10
0.0
 20
0.0
 11
1.0
 21
1.0
 12
98.150160036165857
 22
68.943326095966938
 13
0.0
 23
0.0
 14
1.0
 24
1.0
 15
0.0
 25
0.0
 16
0.0
 26
0.0
 36
1.0
 17
0.0
 27
0.0
 37
0.0
 40
586.8217622900703
 41
2.7949852507374628
 42
50.0
 43
0.0
 44
0.0
 50
0.0
 51
0.0
 71
     0
 72
  1000
 73
     1
 74
     1
 75
     0
 76
     0
 77
     0
 78
     0
  0
ENDTAB
  0
TABLE
  2
LTYPE
 70
     2
  0
LTYPE
  2
CONTINUOUS
 70
     0
  3
Solid line
 72
    65
 73
     0
 40
0.0
  0
LTYPE
  2
DASH
 70
     0
  3

 72
    65
 73
     2
 40
6.3499999999999996
 49
3.1749999999999998
 49
-3.1749999999999998
  0
ENDTAB
  0
TABLE
  2
LAYER
 70
     7
  0
LAYER
  2
0
 70
     0
 62
     7
  6
CONTINUOUS
  0
ENDTAB
  0
TABLE
  2
STYLE
 70
     8
  0
STYLE
  2
STANDARD
 70
     0
 40
0.0
 41
1.0
 50
0.0
 71
     0
 42
0.2
  3
txt
  4

  0
STYLE
  2
ARIAL
 70
     0
 40
12.5
 41
1.0
 50
0.0
 71
     0
 42
0.2
  3
txt
  4

  0
ENDTAB
  0
TABLE
  2
VIEW
 70
     1
  0
ENDTAB
  0
TABLE
  2
UCS
 70
     0
  0
ENDTAB
  0
TABLE
  2
APPID
 70
     6
  0
APPID
  2
ACAD
 70
     0
  0
APPID
  2
ACADANNOTATIVE
 70
     0
  0
APPID
  2
REVIT
 70
     0
  0
APPID
  2
ACAD_PSEXT
 70
     0
  0
APPID
  2
ACAD_NAV_VCDISPLAY
 70
     0
  0
APPID
  2
ACAD_MLEADERVER
 70
     0
  0
ENDTAB
  0
TABLE
  2
DIMSTYLE
 70
     2
  0
DIMSTYLE
  2
STANDARD
 70
     0
  3

  4

  5

  6

  7

 40
1.0
 41
0.18
 42
0.0625
 43
0.38
 44
0.18
 45
0.0
 46
0.0
 47
0.0
 48
0.0
140
0.18
141
0.09
142
0.0
143
25.399999999999999
144
1.0
145
0.0
146
1.0
147
0.09
 71
     0
 72
     0
 73
     1
 74
     1
 75
     0
 76
     0
 77
     0
 78
     0
170
     0
171
     2
172
     0
173
     0
174
     0
175
     0
176
     0
177
     0
178
     0
  0
ENDTAB
  0
ENDSEC
  0
SECTION
  2
BLOCKS
  0
BLOCK
  8
0
  2
$MODEL_SPACE
 70
     0
 10
0.0
 20
0.0
 30
0.0
  3
$MODEL_SPACE
  1

  0
ENDBLK
  5
72
  8
0
  0
BLOCK
 67
     1
  8
0
  2
$PAPER_SPACE
 70
     0
 10
0.0
 20
0.0
 30
0.0
  3
$PAPER_SPACE
  1

  0
ENDBLK
  5
76
 67
     1
  8
0
  0
BLOCK
  8
0
  2
*U28
 70
     1
 10
0.0
 20
0.0
 30
0.0
  3
*U28
  1

  0
SOLID
  5
4C2
  8
0
  6
CONTINUOUS
 10
16.449667196628649
 20
169.8982697971237
 30
0.0
 11
15.492958615715921
 21
169.70796862840189
 31
0.0
 12
17.406375777541371
 22
169.70796862840189
 32
0.0
 13
17.406375777541371
 23
169.70796862840189
 33
0.0
210
0.0
220
0.0
230
1.0
  0
SOLID
  5
4C3
  8
0
  6
CONTINUOUS
 10
15.492958615715921
 20
169.70796862840189
 30
0.0
 11
14.68190024366228
 21
169.16603675009
 31
0.0
 12
18.217434149595011
 22
169.16603675009
 32
0.0
 13
18.217434149595011
 23
169.16603675009
 33
0.0
210
0.0
220
0.0
230
1.0
  0
SOLID
  5
4C4
  8
0
  6
CONTINUOUS
 10
-15.492958615715921
 20
169.70796862840189
 30
0.0
 11
-17.406375777541371
 21
169.70796862840189
 31
0.0
 12
-18.217434149595011
 22
169.16603675009
 32
0.0
 13
-18.217434149595011
 23
169.16603675009
 33
0.0
210
0.0
220
0.0
230
-1.0
  0
SOLID
  5
4C5
  8
0
  6
CONTINUOUS
 10
14.68190024366228
 20
169.16603675009
 30
0.0
 11
14.13996836535043
 21
168.35497837803641
 31
0.0
 12
18.759366027906861
 22
168.35497837803641
 32
0.0
 13
18.759366027906861
 23
168.35497837803641
 33
0.0
210
0.0
220
0.0
230
1.0
  0
SOLID
  5
4C6
  8
0
  6
CONTINUOUS
 10
-14.68190024366228
 20
169.16603675009
 30
0.0
 11
-18.217434149595011
 21
169.16603675009
 31
0.0
 12
-18.759366027906861
 22
168.35497837803641
 32
0.0
 13
-18.759366027906861
 23
168.35497837803641
 33
0.0
210
0.0
220
0.0
230
-1.0
  0
SOLID
  5
4C7
  8
0
  6
CONTINUOUS
 10
14.13996836535043
 20
168.35497837803641
 30
0.0
 11
13.949667196628649
 21
167.3982697971237
 31
0.0
 12
18.949667196628639
 22
167.3982697971237
 32
0.0
 13
18.949667196628639
 23
167.3982697971237
 33
0.0
210
0.0
220
0.0
230
1.0
  0
SOLID
  5
4C8
  8
0
  6
CONTINUOUS
 10
-14.13996836535043
 20
168.35497837803641
 30
0.0
 11
-18.759366027906861
 21
168.35497837803641
 31
0.0
 12
-18.949667196628639
 22
167.3982697971237
 32
0.0
 13
-18.949667196628639
 23
167.3982697971237
 33
0.0
210
0.0
220
0.0
230
-1.0
  0
SOLID
  5
4C9
  8
0
  6
CONTINUOUS
 10
13.949667196628649
 20
167.3982697971237
 30
0.0
 11
14.13996836535043
 21
166.44156121621091
 31
0.0
 12
18.759366027906861
 22
166.44156121621091
 32
0.0
 13
18.759366027906861
 23
166.44156121621091
 33
0.0
210
0.0
220
0.0
230
1.0
  0
SOLID
  5
4CA
  8
0
  6
CONTINUOUS
 10
-13.949667196628649
 20
167.3982697971237
 30
0.0
 11
-18.949667196628639
 21
167.3982697971237
 31
0.0
 12
-18.759366027906861
 22
166.44156121621091
 32
0.0
 13
-18.759366027906861
 23
166.44156121621091
 33
0.0
210
0.0
220
0.0
230
-1.0
  0
SOLID
  5
4CB
  8
0
  6
CONTINUOUS
 10
14.13996836535043
 20
166.44156121621091
 30
0.0
 11
14.68190024366228
 21
165.63050284415729
 31
0.0
 12
18.217434149595011
 22
165.63050284415729
 32
0.0
 13
18.217434149595011
 23
165.63050284415729
 33
0.0
210
0.0
220
0.0
230
1.0
  0
SOLID
  5
4CC
  8
0
  6
CONTINUOUS
 10
-14.13996836535043
 20
166.44156121621091
 30
0.0
 11
-18.759366027906861
 21
166.44156121621091
 31
0.0
 12
-18.217434149595011
 22
165.63050284415729
 32
0.0
 13
-18.217434149595011
 23
165.63050284415729
 33
0.0
210
0.0
220
0.0
230
-1.0
  0
SOLID
  5
4CD
  8
0
  6
CONTINUOUS
 10
-15.492958615715921
 20
165.08857096584541
 30
0.0
 11
-17.406375777541371
 21
165.08857096584541
 31
0.0
 12
-16.449667196628649
 22
164.89826979712359
 32
0.0
 13
-16.449667196628649
 23
164.89826979712359
 33
0.0
210
0.0
220
0.0
230
-1.0
  0
SOLID
  5
4CE
  8
0
  6
CONTINUOUS
 10
14.68190024366228
 20
165.63050284415729
 30
0.0
 11
15.492958615715921
 21
165.08857096584541
 31
0.0
 12
17.406375777541371
 22
165.08857096584541
 32
0.0
 13
17.406375777541371
 23
165.08857096584541
 33
0.0
210
0.0
220
0.0
230
1.0
  0
SOLID
  5
4CF
  8
0
  6
CONTINUOUS
 10
-14.68190024366228
 20
165.63050284415729
 30
0.0
 11
-18.217434149595011
 21
165.63050284415729
 31
0.0
 12
-17.406375777541371
 22
165.08857096584541
 32
0.0
 13
-17.406375777541371
 23
165.08857096584541
 33
0.0
210
0.0
220
0.0
230
-1.0
  0
LINE
  5
4D0
  8
0
  6
CONTINUOUS
 10
16.449667196628649
 20
169.8982697971237
 30
0.0
 11
15.492958615715921
 21
169.70796862840189
 31
0.0
  0
LINE
  5
4D1
  8
0
  6
CONTINUOUS
 10
17.406375777541371
 20
169.70796862840189
 30
0.0
 11
16.449667196628649
 21
169.8982697971237
 31
0.0
  0
LINE
  5
4D2
  8
0
  6
CONTINUOUS
 10
15.492958615715921
 20
169.70796862840189
 30
0.0
 11
14.68190024366228
 21
169.16603675009
 31
0.0
  0
LINE
  5
4D3
  8
0
  6
CONTINUOUS
 10
17.406375777541371
 20
169.70796862840189
 30
0.0
 11
18.217434149595011
 21
169.16603675009
 31
0.0
  0
LINE
  5
4D4
  8
0
  6
CONTINUOUS
 10
14.68190024366228
 20
169.16603675009
 30
0.0
 11
14.13996836535043
 21
168.35497837803641
 31
0.0
  0
LINE
  5
4D5
  8
0
  6
CONTINUOUS
 10
18.217434149595011
 20
169.16603675009
 30
0.0
 11
18.759366027906861
 21
168.35497837803641
 31
0.0
  0
LINE
  5
4D6
  8
0
  6
CONTINUOUS
 10
14.13996836535043
 20
168.35497837803641
 30
0.0
 11
13.949667196628649
 21
167.3982697971237
 31
0.0
  0
LINE
  5
4D7
  8
0
  6
CONTINUOUS
 10
18.759366027906861
 20
168.35497837803641
 30
0.0
 11
18.949667196628639
 21
167.3982697971237
 31
0.0
  0
LINE
  5
4D8
  8
0
  6
CONTINUOUS
 10
13.949667196628649
 20
167.3982697971237
 30
0.0
 11
14.13996836535043
 21
166.44156121621091
 31
0.0
  0
LINE
  5
4D9
  8
0
  6
CONTINUOUS
 10
18.949667196628639
 20
167.3982697971237
 30
0.0
 11
18.759366027906861
 21
166.44156121621091
 31
0.0
  0
LINE
  5
4DA
  8
0
  6
CONTINUOUS
 10
14.13996836535043
 20
166.44156121621091
 30
0.0
 11
14.68190024366228
 21
165.63050284415729
 31
0.0
  0
LINE
  5
4DB
  8
0
  6
CONTINUOUS
 10
18.759366027906861
 20
166.44156121621091
 30
0.0
 11
18.217434149595011
 21
165.63050284415729
 31
0.0
  0
LINE
  5
4DC
  8
0
  6
CONTINUOUS
 10
17.406375777541371
 20
165.08857096584541
 30
0.0
 11
16.449667196628649
 21
164.89826979712359
 31
0.0
  0
LINE
  5
4DD
  8
0
  6
CONTINUOUS
 10
16.449667196628649
 20
164.89826979712359
 30
0.0
 11
15.492958615715921
 21
165.08857096584541
 31
0.0
  0
LINE
  5
4DE
  8
0
  6
CONTINUOUS
 10
14.68190024366228
 20
165.63050284415729
 30
0.0
 11
15.492958615715921
 21
165.08857096584541
 31
0.0
  0
LINE
  5
4DF
  8
0
  6
CONTINUOUS
 10
18.217434149595011
 20
165.63050284415729
 30
0.0
 11
17.406375777541371
 21
165.08857096584541
 31
0.0
  0
ENDBLK
  5
4E1
  8
0
  0
BLOCK
  8
0
  2
*U29
 70
     1
 10
0.0
 20
0.0
 30
0.0
  3
*U29
  1

  0
TEXT
  5
4E3
  8
0
 10
320.6001476183805
 20
349.85420724100209
 30
0.0
 40
12.5
  1
Ridge Trim
  7
ARIAL
  0
ENDBLK
  5
4E5
  8
0
  0
BLOCK
  8
0
  2
*U30
 70
     1
 10
0.0
 20
0.0
 30
0.0
  3
*U30
  1

  0
SOLID
  5
4E7
  8
0
  6
CONTINUOUS
 10
66.979319876752072
 20
138.59463497106
 30
0.0
 11
66.022611295839354
 21
138.40433380233819
 31
0.0
 12
67.936028457664776
 22
138.40433380233819
 32
0.0
 13
67.936028457664776
 23
138.40433380233819
 33
0.0
210
0.0
220
0.0
230
1.0
  0
SOLID
  5
4E8
  8
0
  6
CONTINUOUS
 10
66.022611295839354
 20
138.40433380233819
 30
0.0
 11
65.211552923785703
 21
137.86240192402639
 31
0.0
 12
68.747086829718427
 22
137.86240192402639
 32
0.0
 13
68.747086829718427
 23
137.86240192402639
 33
0.0
210
0.0
220
0.0
230
1.0
  0
SOLID
  5
4E9
  8
0
  6
CONTINUOUS
 10
-66.022611295839354
 20
138.40433380233819
 30
0.0
 11
-67.936028457664776
 21
138.40433380233819
 31
0.0
 12
-68.747086829718427
 22
137.86240192402639
 32
0.0
 13
-68.747086829718427
 23
137.86240192402639
 33
0.0
210
0.0
220
0.0
230
-1.0
  0
SOLID
  5
4EA
  8
0
  6
CONTINUOUS
 10
65.211552923785703
 20
137.86240192402639
 30
0.0
 11
64.66962104547386
 21
137.05134355197271
 31
0.0
 12
69.289018708030284
 22
137.05134355197271
 32
0.0
 13
69.289018708030284
 23
137.05134355197271
 33
0.0
  0
SOLID
  5
4EB
  8
0
  6
CONTINUOUS
 10
-65.211552923785703
 20
137.86240192402639
 30
0.0
 11
-68.747086829718427
 21
137.86240192402639
 31
0.0
 12
-69.289018708030284
 22
137.05134355197271
 32
0.0
 13
-69.289018708030284
 23
137.05134355197271
 33
0.0
210
0.0
220
0.0
230
-1.0
  0
SOLID
  5
4EC
  8
0
  6
CONTINUOUS
 10
64.66962104547386
 20
137.05134355197271
 30
0.0
 11
64.479319876752086
 21
136.09463497106
 31
0.0
 12
69.479319876752058
 22
136.09463497106
 32
0.0
 13
69.479319876752058
 23
136.09463497106
 33
0.0
210
0.0
220
0.0
230
1.0
  0
SOLID
  5
4ED
  8
0
  6
CONTINUOUS
 10
-64.66962104547386
 20
137.05134355197271
 30
0.0
 11
-69.289018708030284
 21
137.05134355197271
 31
0.0
 12
-69.479319876752058
 22
136.09463497106
 32
0.0
 13
-69.479319876752058
 23
136.09463497106
 33
0.0
210
0.0
220
0.0
230
-1.0
  0
SOLID
  5
4EE
  8
0
  6
CONTINUOUS
 10
64.479319876752086
 20
136.09463497106
 30
0.0
 11
64.66962104547386
 21
135.1379263901473
 31
0.0
 12
69.289018708030284
 22
135.1379263901473
 32
0.0
 13
69.289018708030284
 23
135.1379263901473
 33
0.0
210
0.0
220
0.0
230
1.0
  0
SOLID
  5
4EF
  8
0
  6
CONTINUOUS
 10
-64.479319876752086
 20
136.09463497106
 30
0.0
 11
-69.479319876752058
 21
136.09463497106
 31
0.0
 12
-69.289018708030284
 22
135.1379263901473
 32
0.0
 13
-69.289018708030284
 23
135.1379263901473
 33
0.0
210
0.0
220
0.0
230
-1.0
  0
SOLID
  5
4F0
  8
0
  6
CONTINUOUS
 10
64.66962104547386
 20
135.1379263901473
 30
0.0
 11
65.211552923785717
 21
134.32686801809371
 31
0.0
 12
68.747086829718441
 22
134.32686801809371
 32
0.0
 13
68.747086829718441
 23
134.32686801809371
 33
0.0
210
0.0
220
0.0
230
1.0
  0
SOLID
  5
4F1
  8
0
  6
CONTINUOUS
 10
-64.66962104547386
 20
135.1379263901473
 30
0.0
 11
-69.289018708030284
 21
135.1379263901473
 31
0.0
 12
-68.747086829718441
 22
134.32686801809371
 32
0.0
 13
-68.747086829718441
 23
134.32686801809371
 33
0.0
210
0.0
220
0.0
230
-1.0
  0
SOLID
  5
4F2
  8
0
  6
CONTINUOUS
 10
-66.022611295839354
 20
133.78493613978179
 30
0.0
 11
-67.936028457664776
 21
133.78493613978179
 31
0.0
 12
-66.979319876752072
 22
133.59463497106
 32
0.0
 13
-66.979319876752072
 23
133.59463497106
 33
0.0
210
0.0
220
0.0
230
-1.0
  0
SOLID
  5
4F3
  8
0
  6
CONTINUOUS
 10
65.211552923785717
 20
134.32686801809371
 30
0.0
 11
66.022611295839354
 21
133.78493613978179
 31
0.0
 12
67.936028457664776
 22
133.78493613978179
 32
0.0
 13
67.936028457664776
 23
133.78493613978179
 33
0.0
  0
SOLID
  5
4F4
  8
0
  6
CONTINUOUS
 10
-65.211552923785717
 20
134.32686801809371
 30
0.0
 11
-68.747086829718441
 21
134.32686801809371
 31
0.0
 12
-67.936028457664776
 22
133.78493613978179
 32
0.0
 13
-67.936028457664776
 23
133.78493613978179
 33
0.0
210
0.0
220
0.0
230
-1.0
  0
LINE
  5
4F5
  8
0
  6
CONTINUOUS
 10
66.979319876752072
 20
138.59463497106
 30
0.0
 11
66.022611295839354
 21
138.40433380233819
 31
0.0
  0
LINE
  5
4F6
  8
0
  6
CONTINUOUS
 10
67.936028457664776
 20
138.40433380233819
 30
0.0
 11
66.979319876752072
 21
138.59463497106
 31
0.0
  0
LINE
  5
4F7
  8
0
  6
CONTINUOUS
 10
66.022611295839354
 20
138.40433380233819
 30
0.0
 11
65.211552923785703
 21
137.86240192402639
 31
0.0
  0
LINE
  5
4F8
  8
0
  6
CONTINUOUS
 10
67.936028457664776
 20
138.40433380233819
 30
0.0
 11
68.747086829718427
 21
137.86240192402639
 31
0.0
  0
LINE
  5
4F9
  8
0
  6
CONTINUOUS
 10
65.211552923785703
 20
137.86240192402639
 30
0.0
 11
64.66962104547386
 21
137.05134355197271
 31
0.0
  0
LINE
  5
4FA
  8
0
  6
CONTINUOUS
 10
68.747086829718427
 20
137.86240192402639
 30
0.0
 11
69.289018708030284
 21
137.05134355197271
 31
0.0
  0
LINE
  5
4FB
  8
0
  6
CONTINUOUS
 10
64.66962104547386
 20
137.05134355197271
 30
0.0
 11
64.479319876752086
 21
136.09463497106
 31
0.0
  0
LINE
  5
4FC
  8
0
  6
CONTINUOUS
 10
69.289018708030284
 20
137.05134355197271
 30
0.0
 11
69.479319876752058
 21
136.09463497106
 31
0.0
  0
LINE
  5
4FD
  8
0
  6
CONTINUOUS
 10
64.479319876752086
 20
136.09463497106
 30
0.0
 11
64.66962104547386
 21
135.1379263901473
 31
0.0
  0
LINE
  5
4FE
  8
0
  6
CONTINUOUS
 10
69.479319876752058
 20
136.09463497106
 30
0.0
 11
69.289018708030284
 21
135.1379263901473
 31
0.0
  0
LINE
  5
4FF
  8
0
  6
CONTINUOUS
 10
64.66962104547386
 20
135.1379263901473
 30
0.0
 11
65.211552923785717
 21
134.32686801809371
 31
0.0
  0
LINE
  5
500
  8
0
  6
CONTINUOUS
 10
69.289018708030284
 20
135.1379263901473
 30
0.0
 11
68.747086829718441
 21
134.32686801809371
 31
0.0
  0
LINE
  5
501
  8
0
  6
CONTINUOUS
 10
67.936028457664776
 20
133.78493613978179
 30
0.0
 11
66.979319876752072
 21
133.59463497106
 31
0.0
  0
LINE
  5
502
  8
0
  6
CONTINUOUS
 10
66.979319876752072
 20
133.59463497106
 30
0.0
 11
66.022611295839354
 21
133.78493613978179
 31
0.0
  0
LINE
  5
503
  8
0
  6
CONTINUOUS
 10
65.211552923785717
 20
134.32686801809371
 30
0.0
 11
66.022611295839354
 21
133.78493613978179
 31
0.0
  0
LINE
  5
504
  8
0
  6
CONTINUOUS
 10
68.747086829718441
 20
134.32686801809371
 30
0.0
 11
67.936028457664776
 21
133.78493613978179
 31
0.0
  0
ENDBLK
  5
506
  8
0
  0
BLOCK
  8
0
  2
*U31
 70
     1
 10
0.0
 20
0.0
 30
0.0
  3
*U31
  1

  0
TEXT
  5
508
  8
0
 10
321.97293070160032
 20
301.6057004502631
 30
0.0
 40
12.5
  1
Aluband 150mm
  7
ARIAL
  0
ENDBLK
  5
50A
  8
0
  0
BLOCK
  8
0
  2
*U32
 70
     1
 10
0.0
 20
0.0
 30
0.0
  3
*U32
  1

  0
SOLID
  5
50C
  8
0
  6
CONTINUOUS
 10
198.7279316067569
 20
71.42876492418165
 30
0.0
 11
197.77122302584419
 21
71.238463755459861
 31
0.0
 12
199.6846401876696
 22
71.238463755459861
 32
0.0
 13
199.6846401876696
 23
71.238463755459861
 33
0.0
210
0.0
220
0.0
230
1.0
  0
SOLID
  5
50D
  8
0
  6
CONTINUOUS
 10
197.77122302584419
 20
71.238463755459861
 30
0.0
 11
196.96016465379051
 21
70.696531877148018
 31
0.0
 12
200.49569855972331
 22
70.696531877148018
 32
0.0
 13
200.49569855972331
 23
70.696531877148018
 33
0.0
210
0.0
220
0.0
230
1.0
  0
SOLID
  5
50E
  8
0
  6
CONTINUOUS
 10
-197.77122302584419
 20
71.238463755459861
 30
0.0
 11
-199.6846401876696
 21
71.238463755459861
 31
0.0
 12
-200.49569855972331
 22
70.696531877148018
 32
0.0
 13
-200.49569855972331
 23
70.696531877148018
 33
0.0
210
0.0
220
0.0
230
-1.0
  0
SOLID
  5
50F
  8
0
  6
CONTINUOUS
 10
196.96016465379051
 20
70.696531877148018
 30
0.0
 11
196.41823277547871
 21
69.885473505094382
 31
0.0
 12
201.03763043803511
 22
69.885473505094382
 32
0.0
 13
201.03763043803511
 23
69.885473505094382
 33
0.0
210
0.0
220
0.0
230
1.0
  0
SOLID
  5
510
  8
0
  6
CONTINUOUS
 10
-196.96016465379051
 20
70.696531877148018
 30
0.0
 11
-200.49569855972331
 21
70.696531877148018
 31
0.0
 12
-201.03763043803511
 22
69.885473505094382
 32
0.0
 13
-201.03763043803511
 23
69.885473505094382
 33
0.0
210
0.0
220
0.0
230
-1.0
  0
SOLID
  5
511
  8
0
  6
CONTINUOUS
 10
196.41823277547871
 20
69.885473505094382
 30
0.0
 11
196.2279316067569
 21
68.928764924181664
 31
0.0
 12
201.2279316067569
 22
68.928764924181664
 32
0.0
 13
201.2279316067569
 23
68.928764924181664
 33
0.0
210
0.0
220
0.0
230
1.0
  0
SOLID
  5
512
  8
0
  6
CONTINUOUS
 10
-196.41823277547871
 20
69.885473505094382
 30
0.0
 11
-201.03763043803511
 21
69.885473505094382
 31
0.0
 12
-201.2279316067569
 22
68.928764924181664
 32
0.0
 13
-201.2279316067569
 23
68.928764924181664
 33
0.0
210
0.0
220
0.0
230
-1.0
  0
SOLID
  5
513
  8
0
  6
CONTINUOUS
 10
196.2279316067569
 20
68.928764924181664
 30
0.0
 11
196.41823277547871
 21
67.972056343268946
 31
0.0
 12
201.03763043803511
 22
67.972056343268946
 32
0.0
 13
201.03763043803511
 23
67.972056343268946
 33
0.0
210
0.0
220
0.0
230
1.0
  0
SOLID
  5
514
  8
0
  6
CONTINUOUS
 10
-196.2279316067569
 20
68.928764924181664
 30
0.0
 11
-201.2279316067569
 21
68.928764924181664
 31
0.0
 12
-201.03763043803511
 22
67.972056343268946
 32
0.0
 13
-201.03763043803511
 23
67.972056343268946
 33
0.0
210
0.0
220
0.0
230
-1.0
  0
SOLID
  5
515
  8
0
  6
CONTINUOUS
 10
196.41823277547871
 20
67.972056343268946
 30
0.0
 11
196.96016465379051
 21
67.160997971215309
 31
0.0
 12
200.49569855972331
 22
67.160997971215309
 32
0.0
 13
200.49569855972331
 23
67.160997971215309
 33
0.0
210
0.0
220
0.0
230
1.0
  0
SOLID
  5
516
  8
0
  6
CONTINUOUS
 10
-196.41823277547871
 20
67.972056343268946
 30
0.0
 11
-201.03763043803511
 21
67.972056343268946
 31
0.0
 12
-200.49569855972331
 22
67.160997971215309
 32
0.0
 13
-200.49569855972331
 23
67.160997971215309
 33
0.0
210
0.0
220
0.0
230
-1.0
  0
SOLID
  5
517
  8
0
  6
CONTINUOUS
 10
-197.77122302584419
 20
66.619066092903466
 30
0.0
 11
-199.6846401876696
 21
66.619066092903466
 31
0.0
 12
-198.7279316067569
 22
66.428764924181664
 32
0.0
 13
-198.7279316067569
 23
66.428764924181664
 33
0.0
210
0.0
220
0.0
230
-1.0
  0
SOLID
  5
518
  8
0
  6
CONTINUOUS
 10
196.96016465379051
 20
67.160997971215309
 30
0.0
 11
197.77122302584419
 21
66.619066092903466
 31
0.0
 12
199.6846401876696
 22
66.619066092903466
 32
0.0
 13
199.6846401876696
 23
66.619066092903466
 33
0.0
210
0.0
220
0.0
230
1.0
  0
SOLID
  5
519
  8
0
  6
CONTINUOUS
 10
-196.96016465379051
 20
67.160997971215309
 30
0.0
 11
-200.49569855972331
 21
67.160997971215309
 31
0.0
 12
-199.6846401876696
 22
66.619066092903466
 32
0.0
 13
-199.6846401876696
 23
66.619066092903466
 33
0.0
210
0.0
220
0.0
230
-1.0
  0
LINE
  5
51A
  8
0
  6
CONTINUOUS
 10
198.7279316067569
 20
71.42876492418165
 30
0.0
 11
197.77122302584419
 21
71.238463755459861
 31
0.0
  0
LINE
  5
51B
  8
0
  6
CONTINUOUS
 10
199.6846401876696
 20
71.238463755459861
 30
0.0
 11
198.7279316067569
 21
71.42876492418165
 31
0.0
  0
LINE
  5
51C
  8
0
  6
CONTINUOUS
 10
197.77122302584419
 20
71.238463755459861
 30
0.0
 11
196.96016465379051
 21
70.696531877148018
 31
0.0
  0
LINE
  5
51D
  8
0
  6
CONTINUOUS
 10
199.6846401876696
 20
71.238463755459861
 30
0.0
 11
200.49569855972331
 21
70.696531877148018
 31
0.0
  0
LINE
  5
51E
  8
0
  6
CONTINUOUS
 10
196.96016465379051
 20
70.696531877148018
 30
0.0
 11
196.41823277547871
 21
69.885473505094382
 31
0.0
  0
LINE
  5
51F
  8
0
  6
CONTINUOUS
 10
200.49569855972331
 20
70.696531877148018
 30
0.0
 11
201.03763043803511
 21
69.885473505094382
 31
0.0
  0
LINE
  5
520
  8
0
  6
CONTINUOUS
 10
196.41823277547871
 20
69.885473505094382
 30
0.0
 11
196.2279316067569
 21
68.928764924181664
 31
0.0
  0
LINE
  5
521
  8
0
  6
CONTINUOUS
 10
201.03763043803511
 20
69.885473505094382
 30
0.0
 11
201.2279316067569
 21
68.928764924181664
 31
0.0
  0
LINE
  5
522
  8
0
  6
CONTINUOUS
 10
196.2279316067569
 20
68.928764924181664
 30
0.0
 11
196.41823277547871
 21
67.972056343268946
 31
0.0
  0
LINE
  5
523
  8
0
  6
CONTINUOUS
 10
201.2279316067569
 20
68.928764924181664
 30
0.0
 11
201.03763043803511
 21
67.972056343268946
 31
0.0
  0
LINE
  5
524
  8
0
  6
CONTINUOUS
 10
196.41823277547871
 20
67.972056343268946
 30
0.0
 11
196.96016465379051
 21
67.160997971215309
 31
0.0
  0
LINE
  5
525
  8
0
  6
CONTINUOUS
 10
201.03763043803511
 20
67.972056343268946
 30
0.0
 11
200.49569855972331
 21
67.160997971215309
 31
0.0
  0
LINE
  5
526
  8
0
  6
CONTINUOUS
 10
199.6846401876696
 20
66.619066092903466
 30
0.0
 11
198.7279316067569
 21
66.428764924181664
 31
0.0
  0
LINE
  5
527
  8
0
  6
CONTINUOUS
 10
198.7279316067569
 20
66.428764924181664
 30
0.0
 11
197.77122302584419
 21
66.619066092903466
 31
0.0
  0
LINE
  5
528
  8
0
  6
CONTINUOUS
 10
196.96016465379051
 20
67.160997971215309
 30
0.0
 11
197.77122302584419
 21
66.619066092903466
 31
0.0
  0
LINE
  5
529
  8
0
  6
CONTINUOUS
 10
200.49569855972331
 20
67.160997971215309
 30
0.0
 11
199.6846401876696
 21
66.619066092903466
 31
0.0
  0
ENDBLK
  5
52B
  8
0
  0
BLOCK
  8
0
  2
*U33
 70
     1
 10
0.0
 20
0.0
 30
0.0
  3
*U33
  1

  0
TEXT
  5
52D
  8
0
 10
320.62572742738462
 20
140.39203078359861
 30
0.0
 40
12.5
  1
Plywood underlay 15mm
  7
ARIAL
  0
TEXT
  5
52E
  8
0
 10
321.66597299355101
 20
120.771657707503
 30
0.0
 40
12.5
  1
thickness minimum
  7
ARIAL
  0
ENDBLK
  5
530
  8
0
  0
BLOCK
  8
0
  2
*U34
 70
     1
 10
0.0
 20
0.0
 30
0.0
  3
*U34
  1

  0
SOLID
  5
532
  8
0
  6
CONTINUOUS
 10
143.91349115220191
 20
110.17536879827441
 30
0.0
 11
142.95678257128921
 21
109.9850676295527
 31
0.0
 12
144.87019973311459
 22
109.9850676295527
 32
0.0
 13
144.87019973311459
 23
109.9850676295527
 33
0.0
  0
SOLID
  5
533
  8
0
  6
CONTINUOUS
 10
142.95678257128921
 20
109.9850676295527
 30
0.0
 11
142.1457241992355
 21
109.4431357512408
 31
0.0
 12
145.6812581051683
 22
109.4431357512408
 32
0.0
 13
145.6812581051683
 23
109.4431357512408
 33
0.0
210
0.0
220
0.0
230
1.0
  0
SOLID
  5
534
  8
0
  6
CONTINUOUS
 10
-142.95678257128921
 20
109.9850676295527
 30
0.0
 11
-144.87019973311459
 21
109.9850676295527
 31
0.0
 12
-145.6812581051683
 22
109.4431357512408
 32
0.0
 13
-145.6812581051683
 23
109.4431357512408
 33
0.0
210
0.0
220
0.0
230
-1.0
  0
SOLID
  5
535
  8
0
  6
CONTINUOUS
 10
142.1457241992355
 20
109.4431357512408
 30
0.0
 11
141.6037923209237
 21
108.63207737918719
 31
0.0
 12
146.2231899834801
 22
108.63207737918719
 32
0.0
 13
146.2231899834801
 23
108.63207737918719
 33
0.0
  0
SOLID
  5
536
  8
0
  6
CONTINUOUS
 10
-142.1457241992355
 20
109.4431357512408
 30
0.0
 11
-145.6812581051683
 21
109.4431357512408
 31
0.0
 12
-146.2231899834801
 22
108.63207737918719
 32
0.0
 13
-146.2231899834801
 23
108.63207737918719
 33
0.0
210
0.0
220
0.0
230
-1.0
  0
SOLID
  5
537
  8
0
  6
CONTINUOUS
 10
141.6037923209237
 20
108.63207737918719
 30
0.0
 11
141.41349115220191
 21
107.6753687982745
 31
0.0
 12
146.41349115220191
 22
107.6753687982745
 32
0.0
 13
146.41349115220191
 23
107.6753687982745
 33
0.0
210
0.0
220
0.0
230
1.0
  0
SOLID
  5
538
  8
0
  6
CONTINUOUS
 10
-141.6037923209237
 20
108.63207737918719
 30
0.0
 11
-146.2231899834801
 21
108.63207737918719
 31
0.0
 12
-146.41349115220191
 22
107.6753687982745
 32
0.0
 13
-146.41349115220191
 23
107.6753687982745
 33
0.0
210
0.0
220
0.0
230
-1.0
  0
SOLID
  5
539
  8
0
  6
CONTINUOUS
 10
141.41349115220191
 20
107.6753687982745
 30
0.0
 11
141.6037923209237
 21
106.7186602173617
 31
0.0
 12
146.2231899834801
 22
106.7186602173617
 32
0.0
 13
146.2231899834801
 23
106.7186602173617
 33
0.0
  0
SOLID
  5
53A
  8
0
  6
CONTINUOUS
 10
-141.41349115220191
 20
107.6753687982745
 30
0.0
 11
-146.41349115220191
 21
107.6753687982745
 31
0.0
 12
-146.2231899834801
 22
106.7186602173617
 32
0.0
 13
-146.2231899834801
 23
106.7186602173617
 33
0.0
210
0.0
220
0.0
230
-1.0
  0
SOLID
  5
53B
  8
0
  6
CONTINUOUS
 10
141.6037923209237
 20
106.7186602173617
 30
0.0
 11
142.1457241992355
 21
105.90760184530809
 31
0.0
 12
145.6812581051683
 22
105.90760184530809
 32
0.0
 13
145.6812581051683
 23
105.90760184530809
 33
0.0
210
0.0
220
0.0
230
1.0
  0
SOLID
  5
53C
  8
0
  6
CONTINUOUS
 10
-141.6037923209237
 20
106.7186602173617
 30
0.0
 11
-146.2231899834801
 21
106.7186602173617
 31
0.0
 12
-145.6812581051683
 22
105.90760184530809
 32
0.0
 13
-145.6812581051683
 23
105.90760184530809
 33
0.0
210
0.0
220
0.0
230
-1.0
  0
SOLID
  5
53D
  8
0
  6
CONTINUOUS
 10
-142.95678257128921
 20
105.36566996699619
 30
0.0
 11
-144.87019973311459
 21
105.36566996699619
 31
0.0
 12
-143.91349115220191
 22
105.17536879827441
 32
0.0
 13
-143.91349115220191
 23
105.17536879827441
 33
0.0
210
0.0
220
0.0
230
-1.0
  0
SOLID
  5
53E
  8
0
  6
CONTINUOUS
 10
142.1457241992355
 20
105.90760184530809
 30
0.0
 11
142.95678257128921
 21
105.36566996699619
 31
0.0
 12
144.87019973311459
 22
105.36566996699619
 32
0.0
 13
144.87019973311459
 23
105.36566996699619
 33
0.0
210
0.0
220
0.0
230
1.0
  0
SOLID
  5
53F
  8
0
  6
CONTINUOUS
 10
-142.1457241992355
 20
105.90760184530809
 30
0.0
 11
-145.6812581051683
 21
105.90760184530809
 31
0.0
 12
-144.87019973311459
 22
105.36566996699619
 32
0.0
 13
-144.87019973311459
 23
105.36566996699619
 33
0.0
210
0.0
220
0.0
230
-1.0
  0
LINE
  5
540
  8
0
  6
CONTINUOUS
 10
143.91349115220191
 20
110.17536879827441
 30
0.0
 11
142.95678257128921
 21
109.9850676295527
 31
0.0
  0
LINE
  5
541
  8
0
  6
CONTINUOUS
 10
144.87019973311459
 20
109.9850676295527
 30
0.0
 11
143.91349115220191
 21
110.17536879827441
 31
0.0
  0
LINE
  5
542
  8
0
  6
CONTINUOUS
 10
142.95678257128921
 20
109.9850676295527
 30
0.0
 11
142.1457241992355
 21
109.4431357512408
 31
0.0
  0
LINE
  5
543
  8
0
  6
CONTINUOUS
 10
144.87019973311459
 20
109.9850676295527
 30
0.0
 11
145.6812581051683
 21
109.4431357512408
 31
0.0
  0
LINE
  5
544
  8
0
  6
CONTINUOUS
 10
142.1457241992355
 20
109.4431357512408
 30
0.0
 11
141.6037923209237
 21
108.63207737918719
 31
0.0
  0
LINE
  5
545
  8
0
  6
CONTINUOUS
 10
145.6812581051683
 20
109.4431357512408
 30
0.0
 11
146.2231899834801
 21
108.63207737918719
 31
0.0
  0
LINE
  5
546
  8
0
  6
CONTINUOUS
 10
141.6037923209237
 20
108.63207737918719
 30
0.0
 11
141.41349115220191
 21
107.6753687982745
 31
0.0
  0
LINE
  5
547
  8
0
  6
CONTINUOUS
 10
146.2231899834801
 20
108.63207737918719
 30
0.0
 11
146.41349115220191
 21
107.6753687982745
 31
0.0
  0
LINE
  5
548
  8
0
  6
CONTINUOUS
 10
141.41349115220191
 20
107.6753687982745
 30
0.0
 11
141.6037923209237
 21
106.7186602173617
 31
0.0
  0
LINE
  5
549
  8
0
  6
CONTINUOUS
 10
146.41349115220191
 20
107.6753687982745
 30
0.0
 11
146.2231899834801
 21
106.7186602173617
 31
0.0
  0
LINE
  5
54A
  8
0
  6
CONTINUOUS
 10
141.6037923209237
 20
106.7186602173617
 30
0.0
 11
142.1457241992355
 21
105.90760184530809
 31
0.0
  0
LINE
  5
54B
  8
0
  6
CONTINUOUS
 10
146.2231899834801
 20
106.7186602173617
 30
0.0
 11
145.6812581051683
 21
105.90760184530809
 31
0.0
  0
LINE
  5
54C
  8
0
  6
CONTINUOUS
 10
144.87019973311459
 20
105.36566996699619
 30
0.0
 11
143.91349115220191
 21
105.17536879827441
 31
0.0
  0
LINE
  5
54D
  8
0
  6
CONTINUOUS
 10
143.91349115220191
 20
105.17536879827441
 30
0.0
 11
142.95678257128921
 21
105.36566996699619
 31
0.0
  0
LINE
  5
54E
  8
0
  6
CONTINUOUS
 10
142.1457241992355
 20
105.90760184530809
 30
0.0
 11
142.95678257128921
 21
105.36566996699619
 31
0.0
  0
LINE
  5
54F
  8
0
  6
CONTINUOUS
 10
145.6812581051683
 20
105.90760184530809
 30
0.0
 11
144.87019973311459
 21
105.36566996699619
 31
0.0
  0
ENDBLK
  5
551
  8
0
  0
BLOCK
  8
0
  2
*U35
 70
     1
 10
0.0
 20
0.0
 30
0.0
  3
*U35
  1

  0
TEXT
  5
553
  8
0
 10
321.31506946911207
 20
258.71382835663258
 30
0.0
 40
12.5
  1
CF Shingle Panel
  7
ARIAL
  0
ENDBLK
  5
555
  8
0
  0
BLOCK
  8
0
  2
*U36
 70
     1
 10
0.0
 20
0.0
 30
0.0
  3
*U36
  1

  0
SOLID
  5
557
  8
0
  6
CONTINUOUS
 10
159.54131791644861
 20
104.10864297682529
 30
0.0
 11
158.5846093355359
 21
103.91834180810351
 31
0.0
 12
160.49802649736131
 22
103.91834180810351
 32
0.0
 13
160.49802649736131
 23
103.91834180810351
 33
0.0
  0
SOLID
  5
558
  8
0
  6
CONTINUOUS
 10
158.5846093355359
 20
103.91834180810351
 30
0.0
 11
157.77355096348219
 21
103.37640992979161
 31
0.0
 12
161.3090848694149
 22
103.37640992979161
 32
0.0
 13
161.3090848694149
 23
103.37640992979161
 33
0.0
210
0.0
220
0.0
230
1.0
  0
SOLID
  5
559
  8
0
  6
CONTINUOUS
 10
-158.5846093355359
 20
103.91834180810351
 30
0.0
 11
-160.49802649736131
 21
103.91834180810351
 31
0.0
 12
-161.3090848694149
 22
103.37640992979161
 32
0.0
 13
-161.3090848694149
 23
103.37640992979161
 33
0.0
210
0.0
220
0.0
230
-1.0
  0
SOLID
  5
55A
  8
0
  6
CONTINUOUS
 10
157.77355096348219
 20
103.37640992979161
 30
0.0
 11
157.23161908517039
 21
102.565351557738
 31
0.0
 12
161.85101674772679
 22
102.565351557738
 32
0.0
 13
161.85101674772679
 23
102.565351557738
 33
0.0
210
0.0
220
0.0
230
1.0
  0
SOLID
  5
55B
  8
0
  6
CONTINUOUS
 10
-157.77355096348219
 20
103.37640992979161
 30
0.0
 11
-161.3090848694149
 21
103.37640992979161
 31
0.0
 12
-161.85101674772679
 22
102.565351557738
 32
0.0
 13
-161.85101674772679
 23
102.565351557738
 33
0.0
210
0.0
220
0.0
230
-1.0
  0
SOLID
  5
55C
  8
0
  6
CONTINUOUS
 10
157.23161908517039
 20
102.565351557738
 30
0.0
 11
157.04131791644861
 21
101.60864297682529
 31
0.0
 12
162.04131791644861
 22
101.60864297682529
 32
0.0
 13
162.04131791644861
 23
101.60864297682529
 33
0.0
210
0.0
220
0.0
230
1.0
  0
SOLID
  5
55D
  8
0
  6
CONTINUOUS
 10
-157.23161908517039
 20
102.565351557738
 30
0.0
 11
-161.85101674772679
 21
102.565351557738
 31
0.0
 12
-162.04131791644861
 22
101.60864297682529
 32
0.0
 13
-162.04131791644861
 23
101.60864297682529
 33
0.0
210
0.0
220
0.0
230
-1.0
  0
SOLID
  5
55E
  8
0
  6
CONTINUOUS
 10
157.04131791644861
 20
101.60864297682529
 30
0.0
 11
157.23161908517039
 21
100.6519343959126
 31
0.0
 12
161.85101674772679
 22
100.6519343959126
 32
0.0
 13
161.85101674772679
 23
100.6519343959126
 33
0.0
  0
SOLID
  5
55F
  8
0
  6
CONTINUOUS
 10
-157.04131791644861
 20
101.60864297682529
 30
0.0
 11
-162.04131791644861
 21
101.60864297682529
 31
0.0
 12
-161.85101674772679
 22
100.6519343959126
 32
0.0
 13
-161.85101674772679
 23
100.6519343959126
 33
0.0
210
0.0
220
0.0
230
-1.0
  0
SOLID
  5
560
  8
0
  6
CONTINUOUS
 10
157.23161908517039
 20
100.6519343959126
 30
0.0
 11
157.77355096348219
 21
99.840876023858954
 31
0.0
 12
161.3090848694149
 22
99.840876023858954
 32
0.0
 13
161.3090848694149
 23
99.840876023858954
 33
0.0
210
0.0
220
0.0
230
1.0
  0
SOLID
  5
561
  8
0
  6
CONTINUOUS
 10
-157.23161908517039
 20
100.6519343959126
 30
0.0
 11
-161.85101674772679
 21
100.6519343959126
 31
0.0
 12
-161.3090848694149
 22
99.840876023858954
 32
0.0
 13
-161.3090848694149
 23
99.840876023858954
 33
0.0
210
0.0
220
0.0
230
-1.0
  0
SOLID
  5
562
  8
0
  6
CONTINUOUS
 10
-158.5846093355359
 20
99.298944145547097
 30
0.0
 11
-160.49802649736131
 21
99.298944145547097
 31
0.0
 12
-159.54131791644861
 22
99.108642976825323
 32
0.0
 13
-159.54131791644861
 23
99.108642976825323
 33
0.0
210
0.0
220
0.0
230
-1.0
  0
SOLID
  5
563
  8
0
  6
CONTINUOUS
 10
157.77355096348219
 20
99.840876023858954
 30
0.0
 11
158.5846093355359
 21
99.298944145547097
 31
0.0
 12
160.49802649736131
 22
99.298944145547097
 32
0.0
 13
160.49802649736131
 23
99.298944145547097
 33
0.0
  0
SOLID
  5
564
  8
0
  6
CONTINUOUS
 10
-157.77355096348219
 20
99.840876023858954
 30
0.0
 11
-161.3090848694149
 21
99.840876023858954
 31
0.0
 12
-160.49802649736131
 22
99.298944145547097
 32
0.0
 13
-160.49802649736131
 23
99.298944145547097
 33
0.0
210
0.0
220
0.0
230
-1.0
  0
LINE
  5
565
  8
0
  6
CONTINUOUS
 10
159.54131791644861
 20
104.10864297682529
 30
0.0
 11
158.5846093355359
 21
103.91834180810351
 31
0.0
  0
LINE
  5
566
  8
0
  6
CONTINUOUS
 10
160.49802649736131
 20
103.91834180810351
 30
0.0
 11
159.54131791644861
 21
104.10864297682529
 31
0.0
  0
LINE
  5
567
  8
0
  6
CONTINUOUS
 10
158.5846093355359
 20
103.91834180810351
 30
0.0
 11
157.77355096348219
 21
103.37640992979161
 31
0.0
  0
LINE
  5
568
  8
0
  6
CONTINUOUS
 10
160.49802649736131
 20
103.91834180810351
 30
0.0
 11
161.3090848694149
 21
103.37640992979161
 31
0.0
  0
LINE
  5
569
  8
0
  6
CONTINUOUS
 10
157.77355096348219
 20
103.37640992979161
 30
0.0
 11
157.23161908517039
 21
102.565351557738
 31
0.0
  0
LINE
  5
56A
  8
0
  6
CONTINUOUS
 10
161.3090848694149
 20
103.37640992979161
 30
0.0
 11
161.85101674772679
 21
102.565351557738
 31
0.0
  0
LINE
  5
56B
  8
0
  6
CONTINUOUS
 10
157.23161908517039
 20
102.565351557738
 30
0.0
 11
157.04131791644861
 21
101.60864297682529
 31
0.0
  0
LINE
  5
56C
  8
0
  6
CONTINUOUS
 10
161.85101674772679
 20
102.565351557738
 30
0.0
 11
162.04131791644861
 21
101.60864297682529
 31
0.0
  0
LINE
  5
56D
  8
0
  6
CONTINUOUS
 10
157.04131791644861
 20
101.60864297682529
 30
0.0
 11
157.23161908517039
 21
100.6519343959126
 31
0.0
  0
LINE
  5
56E
  8
0
  6
CONTINUOUS
 10
162.04131791644861
 20
101.60864297682529
 30
0.0
 11
161.85101674772679
 21
100.6519343959126
 31
0.0
  0
LINE
  5
56F
  8
0
  6
CONTINUOUS
 10
157.23161908517039
 20
100.6519343959126
 30
0.0
 11
157.77355096348219
 21
99.840876023858954
 31
0.0
  0
LINE
  5
570
  8
0
  6
CONTINUOUS
 10
161.85101674772679
 20
100.6519343959126
 30
0.0
 11
161.3090848694149
 21
99.840876023858954
 31
0.0
  0
LINE
  5
571
  8
0
  6
CONTINUOUS
 10
160.49802649736131
 20
99.298944145547097
 30
0.0
 11
159.54131791644861
 21
99.108642976825323
 31
0.0
  0
LINE
  5
572
  8
0
  6
CONTINUOUS
 10
159.54131791644861
 20
99.108642976825323
 30
0.0
 11
158.5846093355359
 21
99.298944145547097
 31
0.0
  0
LINE
  5
573
  8
0
  6
CONTINUOUS
 10
157.77355096348219
 20
99.840876023858954
 30
0.0
 11
158.5846093355359
 21
99.298944145547097
 31
0.0
  0
LINE
  5
574
  8
0
  6
CONTINUOUS
 10
161.3090848694149
 20
99.840876023858954
 30
0.0
 11
160.49802649736131
 21
99.298944145547097
 31
0.0
  0
ENDBLK
  5
576
  8
0
  0
BLOCK
  8
0
  2
*U37
 70
     1
 10
0.0
 20
0.0
 30
0.0
  3
*U37
  1

  0
TEXT
  5
578
  8
0
 10
320.6427806333873
 20
208.24632312066711
 30
0.0
 40
12.5
  1
Nails/Staples inside bitumen
  7
ARIAL
  0
TEXT
  5
579
  8
0
 10
321.81092524457421
 20
188.62595004457151
 30
0.0
 40
12.5
  1
foam
  7
ARIAL
  0
ENDBLK
  5
57B
  8
0
  0
BLOCK
  8
0
  2
*U38
 70
     1
 10
0.0
 20
0.0
 30
0.0
  3
*U38
  1

  0
SOLID
  5
57D
  8
0
  6
CONTINUOUS
 10
300.09574461265782
 20
39.740464093000561
 30
0.0
 11
299.13903603174509
 21
39.55016292427878
 31
0.0
 12
301.0524531935705
 22
39.55016292427878
 32
0.0
 13
301.0524531935705
 23
39.55016292427878
 33
0.0
  0
SOLID
  5
57E
  8
0
  6
CONTINUOUS
 10
299.13903603174509
 20
39.55016292427878
 30
0.0
 11
298.32797765969138
 21
39.00823104596693
 31
0.0
 12
301.86351156562421
 22
39.00823104596693
 32
0.0
 13
301.86351156562421
 23
39.00823104596693
 33
0.0
210
0.0
220
0.0
230
1.0
  0
SOLID
  5
57F
  8
0
  6
CONTINUOUS
 10
-299.13903603174509
 20
39.55016292427878
 30
0.0
 11
-301.0524531935705
 21
39.55016292427878
 31
0.0
 12
-301.86351156562421
 22
39.00823104596693
 32
0.0
 13
-301.86351156562421
 23
39.00823104596693
 33
0.0
210
0.0
220
0.0
230
-1.0
  0
SOLID
  5
580
  8
0
  6
CONTINUOUS
 10
298.32797765969138
 20
39.00823104596693
 30
0.0
 11
297.78604578137958
 21
38.197172673913293
 31
0.0
 12
302.40544344393601
 22
38.197172673913293
 32
0.0
 13
302.40544344393601
 23
38.197172673913293
 33
0.0
210
0.0
220
0.0
230
1.0
  0
SOLID
  5
581
  8
0
  6
CONTINUOUS
 10
-298.32797765969138
 20
39.00823104596693
 30
0.0
 11
-301.86351156562421
 21
39.00823104596693
 31
0.0
 12
-302.40544344393601
 22
38.197172673913293
 32
0.0
 13
-302.40544344393601
 23
38.197172673913293
 33
0.0
210
0.0
220
0.0
230
-1.0
  0
SOLID
  5
582
  8
0
  6
CONTINUOUS
 10
297.78604578137958
 20
38.197172673913293
 30
0.0
 11
297.59574461265782
 21
37.240464093000583
 31
0.0
 12
302.59574461265782
 22
37.240464093000583
 32
0.0
 13
302.59574461265782
 23
37.240464093000583
 33
0.0
210
0.0
220
0.0
230
1.0
  0
SOLID
  5
583
  8
0
  6
CONTINUOUS
 10
-297.78604578137958
 20
38.197172673913293
 30
0.0
 11
-302.40544344393601
 21
38.197172673913293
 31
0.0
 12
-302.59574461265782
 22
37.240464093000583
 32
0.0
 13
-302.59574461265782
 23
37.240464093000583
 33
0.0
210
0.0
220
0.0
230
-1.0
  0
SOLID
  5
584
  8
0
  6
CONTINUOUS
 10
297.59574461265782
 20
37.240464093000583
 30
0.0
 11
297.78604578137958
 21
36.283755512087858
 31
0.0
 12
302.40544344393601
 22
36.283755512087858
 32
0.0
 13
302.40544344393601
 23
36.283755512087858
 33
0.0
210
0.0
220
0.0
230
1.0
  0
SOLID
  5
585
  8
0
  6
CONTINUOUS
 10
-297.59574461265782
 20
37.240464093000583
 30
0.0
 11
-302.59574461265782
 21
37.240464093000583
 31
0.0
 12
-302.40544344393601
 22
36.283755512087858
 32
0.0
 13
-302.40544344393601
 23
36.283755512087858
 33
0.0
210
0.0
220
0.0
230
-1.0
  0
SOLID
  5
586
  8
0
  6
CONTINUOUS
 10
297.78604578137958
 20
36.283755512087858
 30
0.0
 11
298.32797765969138
 21
35.472697140034221
 31
0.0
 12
301.86351156562421
 22
35.472697140034221
 32
0.0
 13
301.86351156562421
 23
35.472697140034221
 33
0.0
210
0.0
220
0.0
230
1.0
  0
SOLID
  5
587
  8
0
  6
CONTINUOUS
 10
-297.78604578137958
 20
36.283755512087858
 30
0.0
 11
-302.40544344393601
 21
36.283755512087858
 31
0.0
 12
-301.86351156562421
 22
35.472697140034221
 32
0.0
 13
-301.86351156562421
 23
35.472697140034221
 33
0.0
210
0.0
220
0.0
230
-1.0
  0
SOLID
  5
588
  8
0
  6
CONTINUOUS
 10
-299.13903603174509
 20
34.930765261722371
 30
0.0
 11
-301.0524531935705
 21
34.930765261722371
 31
0.0
 12
-300.09574461265782
 22
34.74046409300059
 32
0.0
 13
-300.09574461265782
 23
34.74046409300059
 33
0.0
210
0.0
220
0.0
230
-1.0
  0
SOLID
  5
589
  8
0
  6
CONTINUOUS
 10
298.32797765969138
 20
35.472697140034221
 30
0.0
 11
299.13903603174509
 21
34.930765261722371
 31
0.0
 12
301.0524531935705
 22
34.930765261722371
 32
0.0
 13
301.0524531935705
 23
34.930765261722371
 33
0.0
210
0.0
220
0.0
230
1.0
  0
SOLID
  5
58A
  8
0
  6
CONTINUOUS
 10
-298.32797765969138
 20
35.472697140034221
 30
0.0
 11
-301.86351156562421
 21
35.472697140034221
 31
0.0
 12
-301.0524531935705
 22
34.930765261722371
 32
0.0
 13
-301.0524531935705
 23
34.930765261722371
 33
0.0
210
0.0
220
0.0
230
-1.0
  0
LINE
  5
58B
  8
0
  6
CONTINUOUS
 10
300.09574461265782
 20
39.740464093000561
 30
0.0
 11
299.13903603174509
 21
39.55016292427878
 31
0.0
  0
LINE
  5
58C
  8
0
  6
CONTINUOUS
 10
301.0524531935705
 20
39.55016292427878
 30
0.0
 11
300.09574461265782
 21
39.740464093000561
 31
0.0
  0
LINE
  5
58D
  8
0
  6
CONTINUOUS
 10
299.13903603174509
 20
39.55016292427878
 30
0.0
 11
298.32797765969138
 21
39.00823104596693
 31
0.0
  0
LINE
  5
58E
  8
0
  6
CONTINUOUS
 10
301.0524531935705
 20
39.55016292427878
 30
0.0
 11
301.86351156562421
 21
39.00823104596693
 31
0.0
  0
LINE
  5
58F
  8
0
  6
CONTINUOUS
 10
298.32797765969138
 20
39.00823104596693
 30
0.0
 11
297.78604578137958
 21
38.197172673913293
 31
0.0
  0
LINE
  5
590
  8
0
  6
CONTINUOUS
 10
301.86351156562421
 20
39.00823104596693
 30
0.0
 11
302.40544344393601
 21
38.197172673913293
 31
0.0
  0
LINE
  5
591
  8
0
  6
CONTINUOUS
 10
297.78604578137958
 20
38.197172673913293
 30
0.0
 11
297.59574461265782
 21
37.240464093000583
 31
0.0
  0
LINE
  5
592
  8
0
  6
CONTINUOUS
 10
302.40544344393601
 20
38.197172673913293
 30
0.0
 11
302.59574461265782
 21
37.240464093000583
 31
0.0
  0
LINE
  5
593
  8
0
  6
CONTINUOUS
 10
297.59574461265782
 20
37.240464093000583
 30
0.0
 11
297.78604578137958
 21
36.283755512087858
 31
0.0
  0
LINE
  5
594
  8
0
  6
CONTINUOUS
 10
302.59574461265782
 20
37.240464093000583
 30
0.0
 11
302.40544344393601
 21
36.283755512087858
 31
0.0
  0
LINE
  5
595
  8
0
  6
CONTINUOUS
 10
297.78604578137958
 20
36.283755512087858
 30
0.0
 11
298.32797765969138
 21
35.472697140034221
 31
0.0
  0
LINE
  5
596
  8
0
  6
CONTINUOUS
 10
302.40544344393601
 20
36.283755512087858
 30
0.0
 11
301.86351156562421
 21
35.472697140034221
 31
0.0
  0
LINE
  5
597
  8
0
  6
CONTINUOUS
 10
301.0524531935705
 20
34.930765261722371
 30
0.0
 11
300.09574461265782
 21
34.74046409300059
 31
0.0
  0
LINE
  5
598
  8
0
  6
CONTINUOUS
 10
300.09574461265782
 20
34.74046409300059
 30
0.0
 11
299.13903603174509
 21
34.930765261722371
 31
0.0
  0
LINE
  5
599
  8
0
  6
CONTINUOUS
 10
298.32797765969138
 20
35.472697140034221
 30
0.0
 11
299.13903603174509
 21
34.930765261722371
 31
0.0
  0
LINE
  5
59A
  8
0
  6
CONTINUOUS
 10
301.86351156562421
 20
35.472697140034221
 30
0.0
 11
301.0524531935705
 21
34.930765261722371
 31
0.0
  0
ENDBLK
  5
59C
  8
0
  0
BLOCK
  8
0
  2
*U39
 70
     1
 10
0.0
 20
0.0
 30
0.0
  3
*U39
  1

  0
TEXT
  5
59E
  8
0
 10
385.37275345524012
 20
87.549860898888639
 30
0.0
 40
12.5
  1
Breather underlay over
  7
ARIAL
  0
TEXT
  5
59F
  8
0
 10
385.50065250026051
 20
67.929487822793064
 30
0.0
 40
12.5
  1
plywood
  7
ARIAL
  0
ENDBLK
  5
5A1
  8
0
  0
BLOCK
  8
0
  2
*U40
 70
     1
 10
0.0
 20
0.0
 30
0.0
  3
*U40
  1

  0
SOLID
  5
5A3
  8
0
  6
CONTINUOUS
 10
-192.10519320626361
 20
91.084335293311284
 30
0.0
 11
-193.06190178717631
 21
90.894034124589496
 31
0.0
 12
-191.1484846253509
 22
90.894034124589496
 32
0.0
 13
-191.1484846253509
 23
90.894034124589496
 33
0.0
210
0.0
220
0.0
230
1.0
  0
SOLID
  5
5A4
  8
0
  6
CONTINUOUS
 10
-193.06190178717631
 20
90.894034124589496
 30
0.0
 11
-193.87296015922999
 21
90.352102246277667
 31
0.0
 12
-190.3374262532972
 22
90.352102246277667
 32
0.0
 13
-190.3374262532972
 23
90.352102246277667
 33
0.0
210
0.0
220
0.0
230
1.0
  0
SOLID
  5
5A5
  8
0
  6
CONTINUOUS
 10
193.06190178717631
 20
90.894034124589496
 30
0.0
 11
191.1484846253509
 21
90.894034124589496
 31
0.0
 12
190.3374262532972
 22
90.352102246277667
 32
0.0
 13
190.3374262532972
 23
90.352102246277667
 33
0.0
210
0.0
220
0.0
230
-1.0
  0
SOLID
  5
5A6
  8
0
  6
CONTINUOUS
 10
-193.87296015922999
 20
90.352102246277667
 30
0.0
 11
-194.41489203754179
 21
89.541043874224002
 31
0.0
 12
-189.7954943749854
 22
89.541043874224002
 32
0.0
 13
-189.7954943749854
 23
89.541043874224002
 33
0.0
210
0.0
220
0.0
230
1.0
  0
SOLID
  5
5A7
  8
0
  6
CONTINUOUS
 10
193.87296015922999
 20
90.352102246277667
 30
0.0
 11
190.3374262532972
 21
90.352102246277667
 31
0.0
 12
189.7954943749854
 22
89.541043874224002
 32
0.0
 13
189.7954943749854
 23
89.541043874224002
 33
0.0
210
0.0
220
0.0
230
-1.0
  0
SOLID
  5
5A8
  8
0
  6
CONTINUOUS
 10
-194.41489203754179
 20
89.541043874224002
 30
0.0
 11
-194.60519320626361
 21
88.584335293311284
 31
0.0
 12
-189.60519320626361
 22
88.584335293311284
 32
0.0
 13
-189.60519320626361
 23
88.584335293311284
 33
0.0
210
0.0
220
0.0
230
1.0
  0
SOLID
  5
5A9
  8
0
  6
CONTINUOUS
 10
194.41489203754179
 20
89.541043874224002
 30
0.0
 11
189.7954943749854
 21
89.541043874224002
 31
0.0
 12
189.60519320626361
 22
88.584335293311284
 32
0.0
 13
189.60519320626361
 23
88.584335293311284
 33
0.0
210
0.0
220
0.0
230
-1.0
  0
SOLID
  5
5AA
  8
0
  6
CONTINUOUS
 10
-194.60519320626361
 20
88.584335293311284
 30
0.0
 11
-194.41489203754179
 21
87.627626712398566
 31
0.0
 12
-189.7954943749854
 22
87.627626712398566
 32
0.0
 13
-189.7954943749854
 23
87.627626712398566
 33
0.0
  0
SOLID
  5
5AB
  8
0
  6
CONTINUOUS
 10
194.60519320626361
 20
88.584335293311284
 30
0.0
 11
189.60519320626361
 21
88.584335293311284
 31
0.0
 12
189.7954943749854
 22
87.627626712398566
 32
0.0
 13
189.7954943749854
 23
87.627626712398566
 33
0.0
210
0.0
220
0.0
230
-1.0
  0
SOLID
  5
5AC
  8
0
  6
CONTINUOUS
 10
-194.41489203754179
 20
87.627626712398566
 30
0.0
 11
-193.87296015922999
 21
86.816568340344915
 31
0.0
 12
-190.3374262532972
 22
86.816568340344915
 32
0.0
 13
-190.3374262532972
 23
86.816568340344915
 33
0.0
210
0.0
220
0.0
230
1.0
  0
SOLID
  5
5AD
  8
0
  6
CONTINUOUS
 10
194.41489203754179
 20
87.627626712398566
 30
0.0
 11
189.7954943749854
 21
87.627626712398566
 31
0.0
 12
190.3374262532972
 22
86.816568340344915
 32
0.0
 13
190.3374262532972
 23
86.816568340344915
 33
0.0
210
0.0
220
0.0
230
-1.0
  0
SOLID
  5
5AE
  8
0
  6
CONTINUOUS
 10
193.06190178717631
 20
86.274636462033087
 30
0.0
 11
191.1484846253509
 21
86.274636462033087
 31
0.0
 12
192.10519320626361
 22
86.084335293311284
 32
0.0
 13
192.10519320626361
 23
86.084335293311284
 33
0.0
210
0.0
220
0.0
230
-1.0
  0
SOLID
  5
5AF
  8
0
  6
CONTINUOUS
 10
-193.87296015922999
 20
86.816568340344915
 30
0.0
 11
-193.06190178717631
 21
86.274636462033087
 31
0.0
 12
-191.1484846253509
 22
86.274636462033087
 32
0.0
 13
-191.1484846253509
 23
86.274636462033087
 33
0.0
210
0.0
220
0.0
230
1.0
  0
SOLID
  5
5B0
  8
0
  6
CONTINUOUS
 10
193.87296015922999
 20
86.816568340344915
 30
0.0
 11
190.3374262532972
 21
86.816568340344915
 31
0.0
 12
191.1484846253509
 22
86.274636462033087
 32
0.0
 13
191.1484846253509
 23
86.274636462033087
 33
0.0
210
0.0
220
0.0
230
-1.0
  0
LINE
  5
5B1
  8
0
  6
CONTINUOUS
 10
-192.10519320626361
 20
91.084335293311284
 30
0.0
 11
-193.06190178717631
 21
90.894034124589496
 31
0.0
  0
LINE
  5
5B2
  8
0
  6
CONTINUOUS
 10
-191.1484846253509
 20
90.894034124589496
 30
0.0
 11
-192.10519320626361
 21
91.084335293311284
 31
0.0
  0
LINE
  5
5B3
  8
0
  6
CONTINUOUS
 10
-193.06190178717631
 20
90.894034124589496
 30
0.0
 11
-193.87296015922999
 21
90.352102246277667
 31
0.0
  0
LINE
  5
5B4
  8
0
  6
CONTINUOUS
 10
-191.1484846253509
 20
90.894034124589496
 30
0.0
 11
-190.3374262532972
 21
90.352102246277667
 31
0.0
  0
LINE
  5
5B5
  8
0
  6
CONTINUOUS
 10
-193.87296015922999
 20
90.352102246277667
 30
0.0
 11
-194.41489203754179
 21
89.541043874224002
 31
0.0
  0
LINE
  5
5B6
  8
0
  6
CONTINUOUS
 10
-190.3374262532972
 20
90.352102246277667
 30
0.0
 11
-189.7954943749854
 21
89.541043874224002
 31
0.0
  0
LINE
  5
5B7
  8
0
  6
CONTINUOUS
 10
-194.41489203754179
 20
89.541043874224002
 30
0.0
 11
-194.60519320626361
 21
88.584335293311284
 31
0.0
  0
LINE
  5
5B8
  8
0
  6
CONTINUOUS
 10
-189.7954943749854
 20
89.541043874224002
 30
0.0
 11
-189.60519320626361
 21
88.584335293311284
 31
0.0
  0
LINE
  5
5B9
  8
0
  6
CONTINUOUS
 10
-194.60519320626361
 20
88.584335293311284
 30
0.0
 11
-194.41489203754179
 21
87.627626712398566
 31
0.0
  0
LINE
  5
5BA
  8
0
  6
CONTINUOUS
 10
-189.60519320626361
 20
88.584335293311284
 30
0.0
 11
-189.7954943749854
 21
87.627626712398566
 31
0.0
  0
LINE
  5
5BB
  8
0
  6
CONTINUOUS
 10
-194.41489203754179
 20
87.627626712398566
 30
0.0
 11
-193.87296015922999
 21
86.816568340344915
 31
0.0
  0
LINE
  5
5BC
  8
0
  6
CONTINUOUS
 10
-189.7954943749854
 20
87.627626712398566
 30
0.0
 11
-190.3374262532972
 21
86.816568340344915
 31
0.0
  0
LINE
  5
5BD
  8
0
  6
CONTINUOUS
 10
-191.1484846253509
 20
86.274636462033087
 30
0.0
 11
-192.10519320626361
 21
86.084335293311284
 31
0.0
  0
LINE
  5
5BE
  8
0
  6
CONTINUOUS
 10
-192.10519320626361
 20
86.084335293311284
 30
0.0
 11
-193.06190178717631
 21
86.274636462033087
 31
0.0
  0
LINE
  5
5BF
  8
0
  6
CONTINUOUS
 10
-193.87296015922999
 20
86.816568340344915
 30
0.0
 11
-193.06190178717631
 21
86.274636462033087
 31
0.0
  0
LINE
  5
5C0
  8
0
  6
CONTINUOUS
 10
-190.3374262532972
 20
86.816568340344915
 30
0.0
 11
-191.1484846253509
 21
86.274636462033087
 31
0.0
  0
ENDBLK
  5
5C2
  8
0
  0
BLOCK
  8
0
  2
*U41
 70
     1
 10
0.0
 20
0.0
 30
0.0
  3
*U41
  1

  0
TEXT
  5
5C4
  8
0
 10
-431.5396943301925
 20
138.32661167122501
 30
0.0
 40
12.5
  1
CF Shingle lapped together
  7
ARIAL
  0
ENDBLK
  5
5C6
  8
0
  0
ENDSEC
  0
SECTION
  2
ENTITIES
  0
LINE
  5
11F
  8
0
 10
0.0000000000012098
 20
120.1677772475895
 30
0.0
 11
0.0000000000011509
 21
83.750000000000085
 31
0.0
1001
REVIT
1002
{
1070
     1
1000
575963
1002
}
1002
{
1070
     2
1000
-2000051
1002
}
1002
{
1070
     3
1000
-2000042
1002
}
  0
LINE
  5
120
  8
0
 10
0.000000000001054
 20
23.750000000000028
 30
0.0
 11
0.0000000000010378
 21
13.750000000000091
 31
0.0
1001
REVIT
1002
{
1070
     1
1000
575963
1002
}
1002
{
1070
     2
1000
-2000051
1002
}
1002
{
1070
     3
1000
-2000042
1002
}
  0
CIRCLE
  5
224
  8
0
 10
16.449667196628649
 20
167.3982697971237
 30
0.0
 40
2.4999999999999969
1001
REVIT
1002
{
1070
     1
1000
575951
1002
}
1002
{
1070
     5
1000
233013
1002
}
1002
{
1070
     2
1000
-2005028
1002
}
  0
INSERT
  5
225
  8
0
  6
CONTINUOUS
  2
*U28
 10
0.0
 20
0.0
 30
0.0
1001
REVIT
1002
{
1070
     1
1000
575951
1002
}
1002
{
1070
     5
1000
233013
1002
}
1002
{
1070
     2
1000
-2005028
1002
}
1001
ACAD
1002
{
1000
R14_HATCH_DATA
1000
225
1011
1.0
1021
0.0
1031
0.0
1021
0.0
1031
0.0
1011
0.0
1021
0.0
1031
0.0
1021
1.0
1031
0.0
1011
0.0
1021
0.0
1031
0.0
1021
0.0
1031
1.0
1040
0.0
1010
0.0
1020
0.0
1030
1.0
1000
SOLID
1070
     1
1070
     0
1071
        1
1071
        0
1071
        1
1070
     2
1040
16.449667196628649
1040
167.3982697971237
1040
2.4999999999999969
1040
0.0
1040
6.2831853071795862
1070
     1
1071
        0
1070
     0
1070
     1
1071
        1
1040
0.0
1040
0.0
1040
0.0
1002
}
  0
LINE
  5
226
  8
0
 10
153.9392967566535
 20
355.6361752310321
 30
0.0
 11
319.60654744709922
 21
355.6422172984503
 31
0.0
1001
REVIT
1002
{
1070
     1
1000
575951
1002
}
1002
{
1070
     5
1000
233013
1002
}
1002
{
1070
     2
1000
-2005028
1002
}
  0
LINE
  5
227
  8
0
 10
16.449667196628649
 20
167.3982697971237
 30
0.0
 11
153.9392967566535
 21
355.6361752310321
 31
0.0
1001
REVIT
1002
{
1070
     1
1000
575951
1002
}
1002
{
1070
     5
1000
233013
1002
}
1002
{
1070
     2
1000
-2005028
1002
}
  0
INSERT
  5
229
  8
0
  2
*U29
 10
0.0
 20
0.0
 30
0.0
  0
CIRCLE
  5
22A
  8
0
 10
66.979319876752072
 20
136.09463497106
 30
0.0
 40
2.4999999999999898
1001
REVIT
1002
{
1070
     1
1000
575952
1002
}
1002
{
1070
     5
1000
233013
1002
}
1002
{
1070
     2
1000
-2005028
1002
}
  0
INSERT
  5
22B
  8
0
  6
CONTINUOUS
  2
*U30
 10
0.0
 20
0.0
 30
0.0
1001
REVIT
1002
{
1070
     1
1000
575952
1002
}
1002
{
1070
     5
1000
233013
1002
}
1002
{
1070
     2
1000
-2005028
1002
}
1001
ACAD
1002
{
1000
R14_HATCH_DATA
1000
22B
1011
1.0
1021
0.0
1031
0.0
1021
0.0
1031
0.0
1011
0.0
1021
0.0
1031
0.0
1021
1.0
1031
0.0
1011
0.0
1021
0.0
1031
0.0
1021
0.0
1031
1.0
1040
0.0
1010
0.0
1020
0.0
1030
1.0
1000
SOLID
1070
     1
1070
     0
1071
        1
1071
        0
1071
        1
1070
     2
1040
66.979319876752072
1040
136.09463497106
1040
2.4999999999999898
1040
0.0
1040
6.2831853071795862
1070
     1
1071
        0
1070
     0
1070
     1
1071
        1
1040
0.0
1040
0.0
1040
0.0
1002
}
  0
LINE
  5
22C
  8
0
 10
180.11268731459339
 20
307.38766844029311
 30
0.0
 11
319.60654744709927
 21
307.39371050771132
 31
0.0
1001
REVIT
1002
{
1070
     1
1000
575952
1002
}
1002
{
1070
     5
1000
233013
1002
}
1002
{
1070
     2
1000
-2005028
1002
}
  0
LINE
  5
22D
  8
0
 10
66.979319876752072
 20
136.09463497106
 30
0.0
 11
180.11268731459339
 21
307.38766844029311
 31
0.0
1001
REVIT
1002
{
1070
     1
1000
575952
1002
}
1002
{
1070
     5
1000
233013
1002
}
1002
{
1070
     2
1000
-2005028
1002
}
  0
INSERT
  5
22E
  8
0
  2
*U31
 10
0.0
 20
0.0
 30
0.0
  0
CIRCLE
  5
22F
  8
0
 10
198.7279316067569
 20
68.928764924181664
 30
0.0
 40
2.4999999999999831
1001
REVIT
1002
{
1070
     1
1000
575953
1002
}
1002
{
1070
     5
1000
233013
1002
}
1002
{
1070
     2
1000
-2005028
1002
}
  0
INSERT
  5
230
  8
0
  6
CONTINUOUS
  2
*U32
 10
0.0
 20
0.0
 30
0.0
1001
REVIT
1002
{
1070
     1
1000
575953
1002
}
1002
{
1070
     5
1000
233013
1002
}
1002
{
1070
     2
1000
-2005028
1002
}
1001
ACAD
1002
{
1000
R14_HATCH_DATA
1000
230
1011
1.0
1021
0.0
1031
0.0
1021
0.0
1031
0.0
1011
0.0
1021
0.0
1031
0.0
1021
1.0
1031
0.0
1011
0.0
1021
0.0
1031
0.0
1021
0.0
1031
1.0
1040
0.0
1010
0.0
1020
0.0
1030
1.0
1000
SOLID
1070
     1
1070
     0
1071
        1
1071
        0
1071
        1
1070
     2
1040
198.7279316067569
1040
68.928764924181664
1040
2.4999999999999831
1040
0.0
1040
6.2831853071795862
1070
     1
1071
        0
1070
     0
1070
     1
1071
        1
1040
0.0
1040
0.0
1040
0.0
1002
}
  0
LINE
  5
231
  8
0
 10
254.32425916414891
 20
136.0695066394394
 30
0.0
 11
319.60654744709922
 21
136.0755487068576
 31
0.0
1001
REVIT
1002
{
1070
     1
1000
575953
1002
}
1002
{
1070
     5
1000
233013
1002
}
1002
{
1070
     2
1000
-2005028
1002
}
  0
LINE
  5
232
  8
0
 10
198.7279316067569
 20
68.928764924181664
 30
0.0
 11
254.32425916414891
 21
136.0695066394394
 31
0.0
1001
REVIT
1002
{
1070
     1
1000
575953
1002
}
1002
{
1070
     5
1000
233013
1002
}
1002
{
1070
     2
1000
-2005028
1002
}
  0
INSERT
  5
233
  8
0
  2
*U33
 10
0.0
 20
0.0
 30
0.0
  0
CIRCLE
  5
234
  8
0
 10
143.91349115220191
 20
107.6753687982745
 30
0.0
 40
2.5000000000000022
1001
REVIT
1002
{
1070
     1
1000
575954
1002
}
1002
{
1070
     5
1000
233013
1002
}
1002
{
1070
     2
1000
-2005028
1002
}
  0
INSERT
  5
235
  8
0
  6
CONTINUOUS
  2
*U34
 10
0.0
 20
0.0
 30
0.0
1001
REVIT
1002
{
1070
     1
1000
575954
1002
}
1002
{
1070
     5
1000
233013
1002
}
1002
{
1070
     2
1000
-2005028
1002
}
1001
ACAD
1002
{
1000
R14_HATCH_DATA
1000
235
1011
1.0
1021
0.0
1031
0.0
1021
0.0
1031
0.0
1011
0.0
1021
0.0
1031
0.0
1021
1.0
1031
0.0
1011
0.0
1021
0.0
1031
0.0
1021
0.0
1031
1.0
1040
0.0
1010
0.0
1020
0.0
1030
1.0
1000
SOLID
1070
     1
1070
     0
1071
        1
1071
        0
1071
        1
1070
     2
1040
143.91349115220191
1040
107.6753687982745
1040
2.5000000000000022
1040
0.0
1040
6.2831853071795862
1070
     1
1071
        0
1070
     0
1070
     1
1071
        1
1040
0.0
1040
0.0
1040
0.0
1002
}
  0
LINE
  5
236
  8
0
 10
212.0498614766561
 20
264.50183841408079
 30
0.0
 11
319.81839972075022
 21
264.50183841408079
 31
0.0
1001
REVIT
1002
{
1070
     1
1000
575954
1002
}
1002
{
1070
     5
1000
233013
1002
}
1002
{
1070
     2
1000
-2005028
1002
}
  0
LINE
  5
237
  8
0
 10
143.91349115220191
 20
107.6753687982745
 30
0.0
 11
212.0498614766561
 21
264.50183841408079
 31
0.0
1001
REVIT
1002
{
1070
     1
1000
575954
1002
}
1002
{
1070
     5
1000
233013
1002
}
1002
{
1070
     2
1000
-2005028
1002
}
  0
INSERT
  5
238
  8
0
  2
*U35
 10
0.0
 20
0.0
 30
0.0
  0
CIRCLE
  5
239
  8
0
 10
159.54131791644861
 20
101.60864297682529
 30
0.0
 40
2.4999999999999871
1001
REVIT
1002
{
1070
     1
1000
575955
1002
}
1002
{
1070
     5
1000
233011
1002
}
1002
{
1070
     2
1000
-2005028
1002
}
  0
INSERT
  5
23A
  8
0
  6
CONTINUOUS
  2
*U36
 10
0.0
 20
0.0
 30
0.0
1001
REVIT
1002
{
1070
     1
1000
575955
1002
}
1002
{
1070
     5
1000
233011
1002
}
1002
{
1070
     2
1000
-2005028
1002
}
1001
ACAD
1002
{
1000
R14_HATCH_DATA
1000
23A
1011
1.0
1021
0.0
1031
0.0
1021
0.0
1031
0.0
1011
0.0
1021
0.0
1031
0.0
1021
1.0
1031
0.0
1011
0.0
1021
0.0
1031
0.0
1021
0.0
1031
1.0
1040
0.0
1010
0.0
1020
0.0
1030
1.0
1000
SOLID
1070
     1
1070
     0
1071
        1
1071
        0
1071
        1
1070
     2
1040
159.54131791644861
1040
101.60864297682529
1040
2.4999999999999871
1040
0.0
1040
6.2831853071795862
1070
     1
1071
        0
1070
     0
1070
     1
1071
        1
1040
0.0
1040
0.0
1040
0.0
1002
}
  0
LINE
  5
23B
  8
0
 10
235.495125658642
 20
203.9237989765079
 30
0.0
 11
319.60654744709922
 21
203.9298410439261
 31
0.0
1001
REVIT
1002
{
1070
     1
1000
575955
1002
}
1002
{
1070
     5
1000
233011
1002
}
1002
{
1070
     2
1000
-2005028
1002
}
  0
LINE
  5
23C
  8
0
 10
159.54131791644861
 20
101.60864297682529
 30
0.0
 11
235.495125658642
 21
203.9237989765079
 31
0.0
1001
REVIT
1002
{
1070
     1
1000
575955
1002
}
1002
{
1070
     5
1000
233011
1002
}
1002
{
1070
     2
1000
-2005028
1002
}
  0
INSERT
  5
23D
  8
0
  2
*U37
 10
0.0
 20
0.0
 30
0.0
  0
CIRCLE
  5
23E
  8
0
 10
300.09574461265782
 20
37.240464093000583
 30
0.0
 40
2.499999999999984
1001
REVIT
1002
{
1070
     1
1000
575962
1002
}
1002
{
1070
     5
1000
233011
1002
}
1002
{
1070
     2
1000
-2005028
1002
}
  0
INSERT
  5
23F
  8
0
  6
CONTINUOUS
  2
*U38
 10
0.0
 20
0.0
 30
0.0
1001
REVIT
1002
{
1070
     1
1000
575962
1002
}
1002
{
1070
     5
1000
233011
1002
}
1002
{
1070
     2
1000
-2005028
1002
}
1001
ACAD
1002
{
1000
R14_HATCH_DATA
1000
23F
1011
1.0
1021
0.0
1031
0.0
1021
0.0
1031
0.0
1011
0.0
1021
0.0
1031
0.0
1021
1.0
1031
0.0
1011
0.0
1021
0.0
1031
0.0
1021
0.0
1031
1.0
1040
0.0
1010
0.0
1020
0.0
1030
1.0
1000
SOLID
1070
     1
1070
     0
1071
        1
1071
        0
1071
        1
1070
     2
1040
300.09574461265782
1040
37.240464093000583
1040
2.499999999999984
1040
0.0
1040
6.2831853071795862
1070
     1
1071
        0
1070
     0
1070
     1
1071
        1
1040
0.0
1040
0.0
1040
0.0
1002
}
  0
LINE
  5
240
  8
0
 10
335.34795506569571
 20
83.233378822147614
 30
0.0
 11
384.28536065094369
 21
83.233378822147628
 31
0.0
1001
REVIT
1002
{
1070
     1
1000
575962
1002
}
1002
{
1070
     5
1000
233011
1002
}
1002
{
1070
     2
1000
-2005028
1002
}
  0
LINE
  5
241
  8
0
 10
300.09574461265782
 20
37.240464093000583
 30
0.0
 11
335.34795506569571
 21
83.233378822147614
 31
0.0
1001
REVIT
1002
{
1070
     1
1000
575962
1002
}
1002
{
1070
     5
1000
233011
1002
}
1002
{
1070
     2
1000
-2005028
1002
}
  0
INSERT
  5
242
  8
0
  2
*U39
 10
0.0
 20
0.0
 30
0.0
  0
CIRCLE
  5
259
  8
0
 10
-192.10519320626361
 20
88.584335293311284
 30
0.0
 40
2.4999999999999938
1001
REVIT
1002
{
1070
     1
1000
576994
1002
}
1002
{
1070
     5
1000
578834
1002
}
1002
{
1070
     2
1000
-2005028
1002
}
  0
INSERT
  5
25A
  8
0
  6
CONTINUOUS
  2
*U40
 10
0.0
 20
0.0
 30
0.0
1001
REVIT
1002
{
1070
     1
1000
576994
1002
}
1002
{
1070
     5
1000
578834
1002
}
1002
{
1070
     2
1000
-2005028
1002
}
1001
ACAD
1002
{
1000
R14_HATCH_DATA
1000
25A
1011
1.0
1021
0.0
1031
0.0
1021
0.0
1031
0.0
1011
0.0
1021
0.0
1031
0.0
1021
1.0
1031
0.0
1011
0.0
1021
0.0
1031
0.0
1021
0.0
1031
1.0
1040
0.0
1010
0.0
1020
0.0
1030
1.0
1000
SOLID
1070
     1
1070
     0
1071
        1
1071
        0
1071
        1
1070
     2
1040
-192.10519320626361
1040
88.584335293311284
1040
2.4999999999999938
1040
0.0
1040
6.2831853071795862
1070
     1
1071
        0
1070
     0
1070
     1
1071
        1
1040
0.0
1040
0.0
1040
0.0
1002
}
  0
LINE
  5
25B
  8
0
 10
-214.8257202212385
 20
144.10857966125511
 30
0.0
 11
-218.84035739309101
 21
144.11462172867331
 31
0.0
1001
REVIT
1002
{
1070
     1
1000
576994
1002
}
1002
{
1070
     5
1000
578834
1002
}
1002
{
1070
     2
1000
-2005028
1002
}
  0
LINE
  5
25C
  8
0
 10
-192.10519320626361
 20
88.584335293311284
 30
0.0
 11
-214.8257202212385
 21
144.10857966125511
 31
0.0
1001
REVIT
1002
{
1070
     1
1000
576994
1002
}
1002
{
1070
     5
1000
578834
1002
}
1002
{
1070
     2
1000
-2005028
1002
}
  0
INSERT
  5
25D
  8
0
  2
*U41
 10
0.0
 20
0.0
 30
0.0
  0
LINE
  5
2C1
  8
0
 10
529.1785286527263
 20
-224.4675550490681
 30
0.0
 11
529.17852865272562
 21
-103.0215481906682
 31
0.0
  0
LINE
  5
2C2
  8
0
 10
529.17852865272505
 20
25.532444950931879
 30
0.0
 11
529.17852865272562
 21
-95.913561907468022
 31
0.0
  0
LINE
  5
2C3
  8
0
 10
529.17852865272505
 20
25.532444950931879
 30
0.0
 11
529.17852865272562
 21
-95.913561907468022
 31
0.0
  0
LINE
  5
2C4
  8
0
 10
529.17852865272562
 20
-95.913561907468022
 30
0.0
 11
539.48614781360652
 21
-97.731073272398774
 31
0.0
  0
LINE
  5
2C5
  8
0
 10
539.48614781360652
 20
-97.731073272398774
 30
0.0
 11
518.87090949184483
 21
-101.2040368257375
 31
0.0
  0
LINE
  5
2C6
  8
0
 10
518.87090949184483
 20
-101.2040368257375
 30
0.0
 11
529.17852865272562
 21
-103.0215481906682
 31
0.0
  0
LINE
  5
2C7
  8
0
 10
529.17852865272562
 20
-103.0215481906682
 30
0.0
 11
529.1785286527263
 21
-224.4675550490681
 31
0.0
  0
LINE
  5
2C8
  8
0
 10
-529.1785286527238
 20
-224.4675550490681
 30
0.0
 11
-529.17852865272312
 21
-103.0215481906682
 31
0.0
  0
LINE
  5
2C9
  8
0
 10
-529.17852865272243
 20
25.532444950931879
 30
0.0
 11
-529.17852865272312
 21
-95.913561907468022
 31
0.0
  0
LINE
  5
2CA
  8
0
 10
-529.1785286527238
 20
-224.4675550490681
 30
0.0
 11
-529.17852865272312
 21
-103.0215481906682
 31
0.0
  0
LINE
  5
2CB
  8
0
 10
-529.17852865272312
 20
-103.0215481906682
 30
0.0
 11
-518.8709094918421
 21
-101.2040368257375
 31
0.0
  0
LINE
  5
2CC
  8
0
 10
-518.8709094918421
 20
-101.2040368257375
 30
0.0
 11
-539.48614781360379
 21
-97.731073272398774
 31
0.0
  0
LINE
  5
2CD
  8
0
 10
-539.48614781360379
 20
-97.731073272398774
 30
0.0
 11
-529.17852865272312
 21
-95.913561907468022
 31
0.0
  0
LINE
  5
2CE
  8
0
 10
-529.17852865272312
 20
-95.913561907468022
 30
0.0
 11
-529.17852865272243
 21
25.532444950931879
 31
0.0
  0
LINE
  5
2CF
  8
0
 10
250.0
 20
-166.89078604315341
 30
0.0
 11
3.5539931416000998
 21
-166.89078604315341
 31
0.0
  0
LINE
  5
2D0
  8
0
 10
-250.0
 20
-166.89078604315341
 30
0.0
 11
-3.5539931416000998
 21
-166.89078604315341
 31
0.0
  0
LINE
  5
2D1
  8
0
 10
250.0
 20
-166.89078604315341
 30
0.0
 11
3.5539931416000998
 21
-166.89078604315341
 31
0.0
  0
LINE
  5
2D2
  8
0
 10
3.5539931416000998
 20
-166.89078604315341
 30
0.0
 11
1.7364817766693119
 21
-156.58316688227251
 31
0.0
  0
LINE
  5
2D3
  8
0
 10
1.7364817766693119
 20
-156.58316688227239
 30
0.0
 11
-1.7364817766693119
 21
-177.1984052040342
 31
0.0
  0
LINE
  5
2D4
  8
0
 10
-1.7364817766693119
 20
-177.1984052040342
 30
0.0
 11
-3.5539931416000998
 21
-166.89078604315341
 31
0.0
  0
LINE
  5
2D5
  8
0
 10
-3.5539931416000998
 20
-166.89078604315341
 30
0.0
 11
-250.0
 21
-166.89078604315341
 31
0.0
  0
ARC
  5
2D6
  8
0
 10
713.56875804127958
 20
-105.8472618620678
 30
0.0
 40
2.000426076871288
 50
261.99999999999272
 51
345.9999999999751
1001
REVIT
1002
{
1070
     3
1000
578788
1002
}
  0
ARC
  5
2D7
  8
0
 10
715.55274466626236
 20
-97.889926134214306
 30
0.0
 40
2.000426076870601
 50
345.9999999999751
 51
83.130359038351486
1001
REVIT
1002
{
1070
     3
1000
578788
1002
}
  0
ARC
  5
2D8
  8
0
 10
524.62182457385222
 20
-40.27934525950127
 30
0.0
 40
2.6326198929475821
 50
77.698049474927458
 51
248.47161995817211
1001
REVIT
1002
{
1070
     3
1000
578788
1002
}
  0
ARC
  5
2D9
  8
0
 10
536.82267106849417
 20
-37.516835892474973
 30
0.0
 40
3.001085603400742
 50
256.9883454356239
 51
75.011654564352554
1001
REVIT
1002
{
1070
     3
1000
578788
1002
}
  0
LINE
  5
2DA
  8
0
 10
715.50976291439883
 20
-106.33120873059239
 30
0.0
 11
717.49374953938093
 21
-98.373873002738705
 31
0.0
1001
REVIT
1002
{
1070
     3
1000
578788
1002
}
  0
LINE
  5
2DB
  8
0
 10
715.79201721855532
 20
-95.903861398425661
 30
0.0
 11
569.59788816148262
 21
-59.437627431573397
 31
0.0
1001
REVIT
1002
{
1070
     3
1000
578788
1002
}
  0
LINE
  5
2DC
  8
0
 10
569.59788816148318
 20
-59.43762743157356
 30
0.0
 11
569.38763409563967
 21
-59.373346312667522
 31
0.0
1001
REVIT
1002
{
1070
     3
1000
578788
1002
}
  0
LINE
  5
2DD
  8
0
 10
569.38763409563364
 20
-59.373346312665291
 30
0.0
 11
523.65575300479247
 21
-42.728302838594473
 31
0.0
1001
REVIT
1002
{
1070
     3
1000
578788
1002
}
  0
LINE
  5
2DE
  8
0
 10
525.182740171506
 20
-37.707174737733339
 30
0.0
 11
536.14697890527202
 21
-40.440866483884562
 31
0.0
1001
REVIT
1002
{
1070
     3
1000
578788
1002
}
  0
LINE
  5
2DF
  8
0
 10
537.59881951084719
 20
-34.617851864514108
 30
0.0
 11
490.92759532297077
 21
-22.981408747505011
 31
0.0
1001
REVIT
1002
{
1070
     3
1000
578788
1002
}
  0
LINE
  5
2E0
  8
0
 10
700.86919802292141
 20
-104.7312782808575
 30
0.0
 11
713.29035254091991
 21
-107.82821992987139
 31
0.0
1001
REVIT
1002
{
1070
     3
1000
578788
1002
}
  0
ARC
  5
2E1
  8
0
 10
189.2289647498369
 20
84.989883062748078
 30
0.0
 40
2.000426076871288
 50
261.99999999999261
 51
345.9999999999747
1001
REVIT
1002
{
1070
     3
1000
578788
1002
}
  0
ARC
  5
2E2
  8
0
 10
191.21295137481971
 20
92.947218790601625
 30
0.0
 40
2.0004260768706161
 50
345.9999999999747
 51
83.130359038354712
1001
REVIT
1002
{
1070
     3
1000
578788
1002
}
  0
LINE
  5
2E3
  8
0
 10
191.1699696229561
 20
84.505936194223523
 30
0.0
 11
193.1539562479382
 21
92.463271922077197
 31
0.0
1001
REVIT
1002
{
1070
     3
1000
578788
1002
}
  0
LINE
  5
2E4
  8
0
 10
191.4522239271125
 20
94.933283526390255
 30
0.0
 11
45.25809487003982
 21
131.39951749324251
 31
0.0
1001
REVIT
1002
{
1070
     3
1000
578788
1002
}
  0
LINE
  5
2E5
  8
0
 10
45.258094870040587
 20
131.39951749324231
 30
0.0
 11
45.047840804197101
 21
131.46379861214839
 31
0.0
1001
REVIT
1002
{
1070
     3
1000
578788
1002
}
  0
LINE
  5
2E6
  8
0
 10
45.047840804189313
 20
131.46379861215121
 30
0.0
 11
1.1557798813568629
 21
147.43920230866411
 31
0.0
1001
REVIT
1002
{
1070
     3
1000
578788
1002
}
  0
LINE
  5
2E7
  8
0
 10
176.52940473147871
 20
86.105866643958365
 30
0.0
 11
188.9505592494771
 21
83.008924994944522
 31
0.0
1001
REVIT
1002
{
1070
     3
1000
578788
1002
}
  0
LINE
  5
2E8
  8
0
 10
45.047840804189313
 20
131.46379861215121
 30
0.0
 11
1.1557798813568629
 21
147.43920230866411
 31
0.0
1001
REVIT
1002
{
1070
     3
1000
578788
1002
}
  0
LINE
  5
2E9
  8
0
 10
1.1557798813572611
 20
152.43920230866399
 30
0.0
 11
1.15577988135692
 21
147.43920230866399
 31
0.0
1001
REVIT
1002
{
1070
     3
1000
578788
1002
}
  0
LINE
  5
2EA
  8
0
 10
188.07446062886549
 20
92.603345190867515
 30
0.0
 11
141.36194039061229
 21
104.2500845696423
 31
0.0
1001
REVIT
1002
{
1070
     3
1000
578788
1002
}
  0
LINE
  5
2EB
  8
0
 10
175.64739518305771
 20
89.511288795328539
 30
0.0
 11
186.62133539268791
 21
86.775178199575436
 31
0.0
1001
REVIT
1002
{
1070
     3
1000
578788
1002
}
  0
LINE
  5
2EC
  8
0
 10
219.89140287714551
 20
67.825946364510656
 30
0.0
 11
174.11905689388939
 21
84.485717854953293
 31
0.0
1001
REVIT
1002
{
1070
     3
1000
578788
1002
}
  0
LINE
  5
2ED
  8
0
 10
220.10184298187269
 20
67.761608367809856
 30
0.0
 11
219.89140287714551
 21
67.825946364510656
 31
0.0
1001
REVIT
1002
{
1070
     3
1000
578788
1002
}
  0
LINE
  5
2EE
  8
0
 10
366.42532883691518
 20
31.26310802138136
 30
0.0
 11
220.10184298187281
 21
67.761608367809771
 31
0.0
1001
REVIT
1002
{
1070
     3
1000
578788
1002
}
  0
LINE
  5
2EF
  8
0
 10
366.1428247859788
 20
20.826534270404881
 30
0.0
 11
368.12856689976661
 21
28.790910879289608
 31
0.0
1001
REVIT
1002
{
1070
     3
1000
578788
1002
}
  0
LINE
  5
2F0
  8
0
 10
358.62846289241952
 20
20.072079384728632
 30
0.0
 11
363.92145061394569
 21
19.32819847227556
 31
0.0
1001
REVIT
1002
{
1070
     3
1000
578788
1002
}
  0
LINE
  5
2F1
  8
0
 10
394.02895650786638
 20
4.4450601748990053
 30
0.0
 11
358.00155061270482
 21
17.557963538567101
 31
0.0
1001
REVIT
1002
{
1070
     3
1000
578788
1002
}
  0
LINE
  5
2F2
  8
0
 10
540.70445104070654
 20
-32.125247943018941
 30
0.0
 11
394.0289565078657
 21
4.4450601748992113
 31
0.0
1001
REVIT
1002
{
1070
     3
1000
578788
1002
}
  0
LINE
  5
2F3
  8
0
 10
540.16747224153426
 20
-42.513599429784357
 30
0.0
 11
542.16275803860731
 21
-34.552506772775963
 31
0.0
1001
REVIT
1002
{
1070
     3
1000
578788
1002
}
  0
LINE
  5
2F4
  8
0
 10
525.36588979754322
 20
-40.681858710338588
 30
0.0
 11
537.79803491267387
 21
-43.781540622985467
 31
0.0
1001
REVIT
1002
{
1070
     3
1000
578788
1002
}
  0
ARC
  5
2F5
  8
0
 10
187.2976254278997
 20
89.701796057907984
 30
0.0
 40
3.0037410508294449
 50
256.98834543561048
 51
75.01165456435244
1001
REVIT
1002
{
1070
     3
1000
578788
1002
}
  0
ARC
  5
2F6
  8
0
 10
175.08598327104261
 20
86.936842342614199
 30
0.0
 40
2.6349493112479041
 50
77.698049474907492
 51
248.4716199581722
1001
REVIT
1002
{
1070
     3
1000
578788
1002
}
  0
ARC
  5
2F7
  8
0
 10
366.18584456934087
 20
29.275285958014361
 30
0.0
 40
2.0021961117793401
 50
345.9999999999755
 51
83.130359038358009
1001
REVIT
1002
{
1070
     3
1000
578788
1002
}
  0
ARC
  5
2F8
  8
0
 10
364.2001024555525
 20
21.31090934912983
 30
0.0
 40
2.0021961117799791
 50
261.9999999999992
 51
345.9999999999755
1001
REVIT
1002
{
1070
     3
1000
578788
1002
}
  0
ARC
  5
2F9
  8
0
 10
358.47523747013418
 20
18.775066817319608
 30
0.0
 40
1.3060320172382529
 50
83.262465605170163
 51
248.73441057941841
1001
REVIT
1002
{
1070
     3
1000
578788
1002
}
  0
ARC
  5
2FA
  8
0
 10
540.22007596198262
 20
-34.067970273444537
 30
0.0
 40
2.0021961117790461
 50
345.99523924996322
 51
75.999999999997016
1001
REVIT
1002
{
1070
     3
1000
578788
1002
}
  0
ARC
  5
2FB
  8
0
 10
538.2824099914028
 20
-41.838818292561101
 30
0.0
 40
2.0021961117791012
 50
255.99999999984939
 51
340.30454948778703
1001
REVIT
1002
{
1070
     3
1000
578788
1002
}
  0
LINE
  5
2FC
  8
0
 10
158.86414308753649
 20
101.4106678637085
 30
0.0
 11
155.1053726043917
 21
102.7787484370119
 31
0.0
1001
REVIT
1002
{
1070
     3
1000
211597
1002
}
  0
LINE
  5
2FD
  8
0
 10
149.33162575237199
 20
79.605998335032155
 30
0.0
 11
157.19808904886381
 21
101.21892861310759
 31
0.0
1001
REVIT
1002
{
1070
     3
1000
211597
1002
}
  0
LINE
  5
2FE
  8
0
 10
148.17773915532661
 20
77.897623165123662
 30
0.0
 11
149.33162575237199
 21
79.605998335032155
 31
0.0
1001
REVIT
1002
{
1070
     3
1000
211597
1002
}
  0
LINE
  5
2FF
  8
0
 10
148.3919331315862
 20
79.948018478357895
 30
0.0
 11
148.17773915532661
 21
77.897623165123662
 31
0.0
1001
REVIT
1002
{
1070
     3
1000
211597
1002
}
  0
LINE
  5
300
  8
0
 10
156.2583964280779
 20
101.56094875643331
 30
0.0
 11
148.3919331315862
 21
79.948018478357895
 31
0.0
1001
REVIT
1002
{
1070
     3
1000
211597
1002
}
  0
LINE
  5
301
  8
0
 10
155.1308935125455
 20
101.97132625673549
 30
0.0
 11
156.2583964280779
 21
101.56094875643331
 31
0.0
1001
REVIT
1002
{
1070
     3
1000
211597
1002
}
  0
LINE
  5
302
  8
0
 10
157.19808904886381
 20
101.21892861310759
 30
0.0
 11
158.32559196439581
 21
100.8085511128055
 31
0.0
1001
REVIT
1002
{
1070
     3
1000
211597
1002
}
  0
LINE
  5
303
  8
0
 10
158.86414308753649
 20
101.4106678637085
 30
0.0
 11
158.32559196439581
 21
100.8085511128055
 31
0.0
1001
REVIT
1002
{
1070
     3
1000
211597
1002
}
  0
LINE
  5
304
  8
0
 10
155.1053726043917
 20
102.7787484370119
 30
0.0
 11
155.1308935125455
 21
101.97132625673549
 31
0.0
1001
REVIT
1002
{
1070
     3
1000
211597
1002
}
  0
ARC
  5
305
  8
0
 10
-713.56875804127719
 20
-105.8472618620678
 30
0.0
 40
2.000426076871288
 50
194.0000000000241
 51
278.00000000000728
1001
REVIT
1002
{
1070
     3
1000
578788
1002
}
  0
ARC
  5
306
  8
0
 10
-715.55274466626008
 20
-97.889926134214306
 30
0.0
 40
2.000426076870601
 50
96.869640961648557
 51
194.0000000000241
1001
REVIT
1002
{
1070
     3
1000
578788
1002
}
  0
ARC
  5
307
  8
0
 10
-524.62182457384984
 20
-40.279345259501319
 30
0.0
 40
2.6326198929475542
 50
291.52838004182797
 51
102.3019505250725
1001
REVIT
1002
{
1070
     3
1000
578788
1002
}
  0
ARC
  5
308
  8
0
 10
-536.82267106849179
 20
-37.516835892475022
 30
0.0
 40
3.001085603400742
 50
104.9883454356474
 51
283.0116545643761
1001
REVIT
1002
{
1070
     3
1000
578788
1002
}
  0
LINE
  5
309
  8
0
 10
-715.50976291439645
 20
-106.33120873059239
 30
0.0
 11
-717.49374953937854
 21
-98.373873002738705
 31
0.0
1001
REVIT
1002
{
1070
     3
1000
578788
1002
}
  0
LINE
  5
30A
  8
0
 10
-715.79201721855293
 20
-95.903861398425661
 30
0.0
 11
-569.59788816148023
 21
-59.437627431573439
 31
0.0
1001
REVIT
1002
{
1070
     3
1000
578788
1002
}
  0
LINE
  5
30B
  8
0
 10
-569.5978881614808
 20
-59.437627431573603
 30
0.0
 11
-569.38763409563728
 21
-59.373346312667557
 31
0.0
1001
REVIT
1002
{
1070
     3
1000
578788
1002
}
  0
LINE
  5
30C
  8
0
 10
-569.38763409563126
 20
-59.373346312665333
 30
0.0
 11
-523.6557530047902
 21
-42.728302838594523
 31
0.0
1001
REVIT
1002
{
1070
     3
1000
578788
1002
}
  0
LINE
  5
30D
  8
0
 10
-525.1827401715035
 20
-37.707174737733403
 30
0.0
 11
-536.14697890526963
 21
-40.440866483884598
 31
0.0
1001
REVIT
1002
{
1070
     3
1000
578788
1002
}
  0
LINE
  5
30E
  8
0
 10
-537.59881951084481
 20
-34.617851864514151
 30
0.0
 11
-490.9275953229685
 21
-22.981408747505071
 31
0.0
1001
REVIT
1002
{
1070
     3
1000
578788
1002
}
  0
LINE
  5
30F
  8
0
 10
-700.86919802291902
 20
-104.7312782808575
 30
0.0
 11
-713.29035254091752
 21
-107.82821992987139
 31
0.0
1001
REVIT
1002
{
1070
     3
1000
578788
1002
}
  0
ARC
  5
310
  8
0
 10
-189.2289647498344
 20
84.989883062748063
 30
0.0
 40
2.000426076871288
 50
194.0000000000249
 51
278.00000000000728
1001
REVIT
1002
{
1070
     3
1000
578788
1002
}
  0
ARC
  5
311
  8
0
 10
-191.21295137481729
 20
92.947218790601596
 30
0.0
 40
2.0004260768706161
 50
96.869640961645302
 51
194.0000000000249
1001
REVIT
1002
{
1070
     3
1000
578788
1002
}
  0
LINE
  5
312
  8
0
 10
-191.1699696229536
 20
84.505936194223494
 30
0.0
 11
-193.1539562479357
 21
92.463271922077197
 31
0.0
1001
REVIT
1002
{
1070
     3
1000
578788
1002
}
  0
LINE
  5
313
  8
0
 10
-191.45222392711011
 20
94.933283526390227
 30
0.0
 11
-45.258094870037382
 21
131.3995174932424
 31
0.0
1001
REVIT
1002
{
1070
     3
1000
578788
1002
}
  0
LINE
  5
314
  8
0
 10
-45.258094870038143
 20
131.39951749324231
 30
0.0
 11
-45.047840804194657
 21
131.46379861214831
 31
0.0
1001
REVIT
1002
{
1070
     3
1000
578788
1002
}
  0
LINE
  5
315
  8
0
 10
-45.047840804186869
 20
131.46379861215109
 30
0.0
 11
-1.1557798813544189
 21
147.43920230866399
 31
0.0
1001
REVIT
1002
{
1070
     3
1000
578788
1002
}
  0
LINE
  5
316
  8
0
 10
-176.52940473147621
 20
86.105866643958336
 30
0.0
 11
-188.95055924947471
 21
83.008924994944493
 31
0.0
1001
REVIT
1002
{
1070
     3
1000
578788
1002
}
  0
LINE
  5
317
  8
0
 10
-45.047840804186869
 20
131.46379861215109
 30
0.0
 11
-1.1557798813544189
 21
147.43920230866399
 31
0.0
1001
REVIT
1002
{
1070
     3
1000
578788
1002
}
  0
LINE
  5
318
  8
0
 10
-1.155779881354817
 20
152.43920230866399
 30
0.0
 11
-1.155779881354476
 21
147.43920230866399
 31
0.0
1001
REVIT
1002
{
1070
     3
1000
578788
1002
}
  0
LINE
  5
319
  8
0
 10
75.0
 20
83.750000000000028
 30
0.0
 11
-75.0
 21
83.750000000000028
 31
0.0
1001
REVIT
1002
{
1070
     3
1000
211597
1002
}
  0
LINE
  5
31A
  8
0
 10
-75.0
 20
83.750000000000028
 30
0.0
 11
-75.0
 21
23.750000000000021
 31
0.0
1001
REVIT
1002
{
1070
     3
1000
211597
1002
}
  0
LINE
  5
31B
  8
0
 10
-75.0
 20
23.750000000000021
 30
0.0
 11
75.0
 21
23.750000000000021
 31
0.0
1001
REVIT
1002
{
1070
     3
1000
211597
1002
}
  0
LINE
  5
31C
  8
0
 10
75.0
 20
23.750000000000021
 30
0.0
 11
75.0
 21
83.750000000000028
 31
0.0
1001
REVIT
1002
{
1070
     3
1000
211597
1002
}
  0
LINE
  5
31D
  8
0
 10
-48.0
 20
53.750000000000021
 30
0.0
 11
-50.0
 21
56.250000000000021
 31
0.0
1001
REVIT
1002
{
1070
     3
1000
211597
1002
}
  0
LINE
  5
31E
  8
0
 10
-50.0
 20
56.250000000000021
 30
0.0
 11
-70.0
 21
56.250000000000021
 31
0.0
1001
REVIT
1002
{
1070
     3
1000
211597
1002
}
  0
LINE
  5
31F
  8
0
 10
-70.0
 20
56.250000000000021
 30
0.0
 11
-70.0
 21
51.250000000000021
 31
0.0
1001
REVIT
1002
{
1070
     3
1000
211597
1002
}
  0
LINE
  5
320
  8
0
 10
-70.0
 20
51.250000000000021
 30
0.0
 11
-50.0
 21
51.250000000000021
 31
0.0
1001
REVIT
1002
{
1070
     3
1000
211597
1002
}
  0
LINE
  5
321
  8
0
 10
-50.0
 20
51.250000000000021
 30
0.0
 11
-48.0
 21
53.750000000000021
 31
0.0
1001
REVIT
1002
{
1070
     3
1000
211597
1002
}
  0
LINE
  5
322
  8
0
 10
-18.0
 20
53.750000000000021
 30
0.0
 11
-20.0
 21
56.250000000000021
 31
0.0
1001
REVIT
1002
{
1070
     3
1000
211597
1002
}
  0
LINE
  5
323
  8
0
 10
-20.0
 20
56.250000000000021
 30
0.0
 11
-40.0
 21
56.250000000000021
 31
0.0
1001
REVIT
1002
{
1070
     3
1000
211597
1002
}
  0
LINE
  5
324
  8
0
 10
-40.0
 20
56.250000000000021
 30
0.0
 11
-40.0
 21
51.250000000000021
 31
0.0
1001
REVIT
1002
{
1070
     3
1000
211597
1002
}
  0
LINE
  5
325
  8
0
 10
-40.0
 20
51.250000000000021
 30
0.0
 11
-20.0
 21
51.250000000000021
 31
0.0
1001
REVIT
1002
{
1070
     3
1000
211597
1002
}
  0
LINE
  5
326
  8
0
 10
-20.0
 20
51.250000000000021
 30
0.0
 11
-18.0
 21
53.750000000000021
 31
0.0
1001
REVIT
1002
{
1070
     3
1000
211597
1002
}
  0
LINE
  5
327
  8
0
 10
12.0
 20
53.750000000000021
 30
0.0
 11
10.0
 21
56.250000000000021
 31
0.0
1001
REVIT
1002
{
1070
     3
1000
211597
1002
}
  0
LINE
  5
328
  8
0
 10
10.0
 20
56.250000000000021
 30
0.0
 11
-10.0
 21
56.250000000000021
 31
0.0
1001
REVIT
1002
{
1070
     3
1000
211597
1002
}
  0
LINE
  5
329
  8
0
 10
-10.0
 20
56.250000000000021
 30
0.0
 11
-10.0
 21
51.250000000000021
 31
0.0
1001
REVIT
1002
{
1070
     3
1000
211597
1002
}
  0
LINE
  5
32A
  8
0
 10
-10.0
 20
51.250000000000021
 30
0.0
 11
10.0
 21
51.250000000000021
 31
0.0
1001
REVIT
1002
{
1070
     3
1000
211597
1002
}
  0
LINE
  5
32B
  8
0
 10
10.0
 20
51.250000000000021
 30
0.0
 11
12.0
 21
53.750000000000021
 31
0.0
1001
REVIT
1002
{
1070
     3
1000
211597
1002
}
  0
LINE
  5
32C
  8
0
 10
42.0
 20
53.750000000000021
 30
0.0
 11
40.0
 21
56.250000000000021
 31
0.0
1001
REVIT
1002
{
1070
     3
1000
211597
1002
}
  0
LINE
  5
32D
  8
0
 10
40.0
 20
56.250000000000021
 30
0.0
 11
20.0
 21
56.250000000000021
 31
0.0
1001
REVIT
1002
{
1070
     3
1000
211597
1002
}
  0
LINE
  5
32E
  8
0
 10
20.0
 20
56.250000000000021
 30
0.0
 11
20.0
 21
51.250000000000021
 31
0.0
1001
REVIT
1002
{
1070
     3
1000
211597
1002
}
  0
LINE
  5
32F
  8
0
 10
20.0
 20
51.250000000000021
 30
0.0
 11
40.0
 21
51.250000000000021
 31
0.0
1001
REVIT
1002
{
1070
     3
1000
211597
1002
}
  0
LINE
  5
330
  8
0
 10
40.0
 20
51.250000000000021
 30
0.0
 11
42.0
 21
53.750000000000021
 31
0.0
1001
REVIT
1002
{
1070
     3
1000
211597
1002
}
  0
LINE
  5
331
  8
0
 10
72.0
 20
53.750000000000021
 30
0.0
 11
70.0
 21
56.250000000000021
 31
0.0
1001
REVIT
1002
{
1070
     3
1000
211597
1002
}
  0
LINE
  5
332
  8
0
 10
70.0
 20
56.250000000000021
 30
0.0
 11
50.0
 21
56.250000000000021
 31
0.0
1001
REVIT
1002
{
1070
     3
1000
211597
1002
}
  0
LINE
  5
333
  8
0
 10
50.0
 20
56.250000000000021
 30
0.0
 11
50.0
 21
51.250000000000021
 31
0.0
1001
REVIT
1002
{
1070
     3
1000
211597
1002
}
  0
LINE
  5
334
  8
0
 10
50.0
 20
51.250000000000021
 30
0.0
 11
70.0
 21
51.250000000000021
 31
0.0
1001
REVIT
1002
{
1070
     3
1000
211597
1002
}
  0
LINE
  5
335
  8
0
 10
70.0
 20
51.250000000000021
 30
0.0
 11
72.0
 21
53.750000000000021
 31
0.0
1001
REVIT
1002
{
1070
     3
1000
211597
1002
}
  0
LINE
  5
336
  8
0
 10
-48.0
 20
73.750000000000028
 30
0.0
 11
-50.0
 21
76.250000000000028
 31
0.0
1001
REVIT
1002
{
1070
     3
1000
211597
1002
}
  0
LINE
  5
337
  8
0
 10
-50.0
 20
76.250000000000028
 30
0.0
 11
-70.0
 21
76.250000000000028
 31
0.0
1001
REVIT
1002
{
1070
     3
1000
211597
1002
}
  0
LINE
  5
338
  8
0
 10
-70.0
 20
76.250000000000028
 30
0.0
 11
-70.0
 21
71.250000000000028
 31
0.0
1001
REVIT
1002
{
1070
     3
1000
211597
1002
}
  0
LINE
  5
339
  8
0
 10
-70.0
 20
71.250000000000028
 30
0.0
 11
-50.0
 21
71.250000000000028
 31
0.0
1001
REVIT
1002
{
1070
     3
1000
211597
1002
}
  0
LINE
  5
33A
  8
0
 10
-50.0
 20
71.250000000000028
 30
0.0
 11
-48.0
 21
73.750000000000028
 31
0.0
1001
REVIT
1002
{
1070
     3
1000
211597
1002
}
  0
LINE
  5
33B
  8
0
 10
-18.0
 20
73.750000000000028
 30
0.0
 11
-20.0
 21
76.250000000000028
 31
0.0
1001
REVIT
1002
{
1070
     3
1000
211597
1002
}
  0
LINE
  5
33C
  8
0
 10
-20.0
 20
76.250000000000028
 30
0.0
 11
-40.0
 21
76.250000000000028
 31
0.0
1001
REVIT
1002
{
1070
     3
1000
211597
1002
}
  0
LINE
  5
33D
  8
0
 10
-40.0
 20
76.250000000000028
 30
0.0
 11
-40.0
 21
71.250000000000028
 31
0.0
1001
REVIT
1002
{
1070
     3
1000
211597
1002
}
  0
LINE
  5
33E
  8
0
 10
-40.0
 20
71.250000000000028
 30
0.0
 11
-20.0
 21
71.250000000000028
 31
0.0
1001
REVIT
1002
{
1070
     3
1000
211597
1002
}
  0
LINE
  5
33F
  8
0
 10
-20.0
 20
71.250000000000028
 30
0.0
 11
-18.0
 21
73.750000000000028
 31
0.0
1001
REVIT
1002
{
1070
     3
1000
211597
1002
}
  0
LINE
  5
340
  8
0
 10
12.0
 20
73.750000000000028
 30
0.0
 11
10.0
 21
76.250000000000028
 31
0.0
1001
REVIT
1002
{
1070
     3
1000
211597
1002
}
  0
LINE
  5
341
  8
0
 10
10.0
 20
76.250000000000028
 30
0.0
 11
-10.0
 21
76.250000000000028
 31
0.0
1001
REVIT
1002
{
1070
     3
1000
211597
1002
}
  0
LINE
  5
342
  8
0
 10
-10.0
 20
76.250000000000028
 30
0.0
 11
-10.0
 21
71.250000000000028
 31
0.0
1001
REVIT
1002
{
1070
     3
1000
211597
1002
}
  0
LINE
  5
343
  8
0
 10
-10.0
 20
71.250000000000028
 30
0.0
 11
10.0
 21
71.250000000000028
 31
0.0
1001
REVIT
1002
{
1070
     3
1000
211597
1002
}
  0
LINE
  5
344
  8
0
 10
10.0
 20
71.250000000000028
 30
0.0
 11
12.0
 21
73.750000000000028
 31
0.0
1001
REVIT
1002
{
1070
     3
1000
211597
1002
}
  0
LINE
  5
345
  8
0
 10
42.0
 20
73.750000000000028
 30
0.0
 11
40.0
 21
76.250000000000028
 31
0.0
1001
REVIT
1002
{
1070
     3
1000
211597
1002
}
  0
LINE
  5
346
  8
0
 10
40.0
 20
76.250000000000028
 30
0.0
 11
20.0
 21
76.250000000000028
 31
0.0
1001
REVIT
1002
{
1070
     3
1000
211597
1002
}
  0
LINE
  5
347
  8
0
 10
20.0
 20
76.250000000000028
 30
0.0
 11
20.0
 21
71.250000000000028
 31
0.0
1001
REVIT
1002
{
1070
     3
1000
211597
1002
}
  0
LINE
  5
348
  8
0
 10
20.0
 20
71.250000000000028
 30
0.0
 11
40.0
 21
71.250000000000028
 31
0.0
1001
REVIT
1002
{
1070
     3
1000
211597
1002
}
  0
LINE
  5
349
  8
0
 10
40.0
 20
71.250000000000028
 30
0.0
 11
42.0
 21
73.750000000000028
 31
0.0
1001
REVIT
1002
{
1070
     3
1000
211597
1002
}
  0
LINE
  5
34A
  8
0
 10
72.0
 20
73.750000000000028
 30
0.0
 11
70.0
 21
76.250000000000028
 31
0.0
1001
REVIT
1002
{
1070
     3
1000
211597
1002
}
  0
LINE
  5
34B
  8
0
 10
70.0
 20
76.250000000000028
 30
0.0
 11
50.0
 21
76.250000000000028
 31
0.0
1001
REVIT
1002
{
1070
     3
1000
211597
1002
}
  0
LINE
  5
34C
  8
0
 10
50.0
 20
76.250000000000028
 30
0.0
 11
50.0
 21
71.250000000000028
 31
0.0
1001
REVIT
1002
{
1070
     3
1000
211597
1002
}
  0
LINE
  5
34D
  8
0
 10
50.0
 20
71.250000000000028
 30
0.0
 11
70.0
 21
71.250000000000028
 31
0.0
1001
REVIT
1002
{
1070
     3
1000
211597
1002
}
  0
LINE
  5
34E
  8
0
 10
70.0
 20
71.250000000000028
 30
0.0
 11
72.0
 21
73.750000000000028
 31
0.0
1001
REVIT
1002
{
1070
     3
1000
211597
1002
}
  0
LINE
  5
34F
  8
0
 10
-48.0
 20
33.750000000000021
 30
0.0
 11
-50.0
 21
36.250000000000021
 31
0.0
1001
REVIT
1002
{
1070
     3
1000
211597
1002
}
  0
LINE
  5
350
  8
0
 10
-50.0
 20
36.250000000000021
 30
0.0
 11
-70.0
 21
36.250000000000021
 31
0.0
1001
REVIT
1002
{
1070
     3
1000
211597
1002
}
  0
LINE
  5
351
  8
0
 10
-70.0
 20
36.250000000000021
 30
0.0
 11
-70.0
 21
31.250000000000021
 31
0.0
1001
REVIT
1002
{
1070
     3
1000
211597
1002
}
  0
LINE
  5
352
  8
0
 10
-70.0
 20
31.250000000000021
 30
0.0
 11
-50.0
 21
31.250000000000021
 31
0.0
1001
REVIT
1002
{
1070
     3
1000
211597
1002
}
  0
LINE
  5
353
  8
0
 10
-50.0
 20
31.250000000000021
 30
0.0
 11
-48.0
 21
33.750000000000021
 31
0.0
1001
REVIT
1002
{
1070
     3
1000
211597
1002
}
  0
LINE
  5
354
  8
0
 10
-18.0
 20
33.750000000000021
 30
0.0
 11
-20.0
 21
36.250000000000021
 31
0.0
1001
REVIT
1002
{
1070
     3
1000
211597
1002
}
  0
LINE
  5
355
  8
0
 10
-20.0
 20
36.250000000000021
 30
0.0
 11
-40.0
 21
36.250000000000021
 31
0.0
1001
REVIT
1002
{
1070
     3
1000
211597
1002
}
  0
LINE
  5
356
  8
0
 10
-40.0
 20
36.250000000000021
 30
0.0
 11
-40.0
 21
31.250000000000021
 31
0.0
1001
REVIT
1002
{
1070
     3
1000
211597
1002
}
  0
LINE
  5
357
  8
0
 10
-40.0
 20
31.250000000000021
 30
0.0
 11
-20.0
 21
31.250000000000021
 31
0.0
1001
REVIT
1002
{
1070
     3
1000
211597
1002
}
  0
LINE
  5
358
  8
0
 10
-20.0
 20
31.250000000000021
 30
0.0
 11
-18.0
 21
33.750000000000021
 31
0.0
1001
REVIT
1002
{
1070
     3
1000
211597
1002
}
  0
LINE
  5
359
  8
0
 10
12.0
 20
33.750000000000021
 30
0.0
 11
10.0
 21
36.250000000000021
 31
0.0
1001
REVIT
1002
{
1070
     3
1000
211597
1002
}
  0
LINE
  5
35A
  8
0
 10
10.0
 20
36.250000000000021
 30
0.0
 11
-10.0
 21
36.250000000000021
 31
0.0
1001
REVIT
1002
{
1070
     3
1000
211597
1002
}
  0
LINE
  5
35B
  8
0
 10
-10.0
 20
36.250000000000021
 30
0.0
 11
-10.0
 21
31.250000000000021
 31
0.0
1001
REVIT
1002
{
1070
     3
1000
211597
1002
}
  0
LINE
  5
35C
  8
0
 10
-10.0
 20
31.250000000000021
 30
0.0
 11
10.0
 21
31.250000000000021
 31
0.0
1001
REVIT
1002
{
1070
     3
1000
211597
1002
}
  0
LINE
  5
35D
  8
0
 10
10.0
 20
31.250000000000021
 30
0.0
 11
12.0
 21
33.750000000000021
 31
0.0
1001
REVIT
1002
{
1070
     3
1000
211597
1002
}
  0
LINE
  5
35E
  8
0
 10
42.0
 20
33.750000000000021
 30
0.0
 11
40.0
 21
36.250000000000021
 31
0.0
1001
REVIT
1002
{
1070
     3
1000
211597
1002
}
  0
LINE
  5
35F
  8
0
 10
40.0
 20
36.250000000000021
 30
0.0
 11
20.0
 21
36.250000000000021
 31
0.0
1001
REVIT
1002
{
1070
     3
1000
211597
1002
}
  0
LINE
  5
360
  8
0
 10
20.0
 20
36.250000000000021
 30
0.0
 11
20.0
 21
31.250000000000021
 31
0.0
1001
REVIT
1002
{
1070
     3
1000
211597
1002
}
  0
LINE
  5
361
  8
0
 10
20.0
 20
31.250000000000021
 30
0.0
 11
40.0
 21
31.250000000000021
 31
0.0
1001
REVIT
1002
{
1070
     3
1000
211597
1002
}
  0
LINE
  5
362
  8
0
 10
40.0
 20
31.250000000000021
 30
0.0
 11
42.0
 21
33.750000000000021
 31
0.0
1001
REVIT
1002
{
1070
     3
1000
211597
1002
}
  0
LINE
  5
363
  8
0
 10
72.0
 20
33.750000000000021
 30
0.0
 11
70.0
 21
36.250000000000021
 31
0.0
1001
REVIT
1002
{
1070
     3
1000
211597
1002
}
  0
LINE
  5
364
  8
0
 10
70.0
 20
36.250000000000021
 30
0.0
 11
50.0
 21
36.250000000000021
 31
0.0
1001
REVIT
1002
{
1070
     3
1000
211597
1002
}
  0
LINE
  5
365
  8
0
 10
50.0
 20
36.250000000000021
 30
0.0
 11
50.0
 21
31.250000000000021
 31
0.0
1001
REVIT
1002
{
1070
     3
1000
211597
1002
}
  0
LINE
  5
366
  8
0
 10
50.0
 20
31.250000000000021
 30
0.0
 11
70.0
 21
31.250000000000021
 31
0.0
1001
REVIT
1002
{
1070
     3
1000
211597
1002
}
  0
LINE
  5
367
  8
0
 10
70.0
 20
31.250000000000021
 30
0.0
 11
72.0
 21
33.750000000000021
 31
0.0
1001
REVIT
1002
{
1070
     3
1000
211597
1002
}
  0
LINE
  5
368
  8
0
 10
48.0
 20
43.750000000000021
 30
0.0
 11
50.0
 21
46.250000000000021
 31
0.0
1001
REVIT
1002
{
1070
     3
1000
211597
1002
}
  0
LINE
  5
369
  8
0
 10
50.0
 20
46.250000000000021
 30
0.0
 11
70.0
 21
46.250000000000021
 31
0.0
1001
REVIT
1002
{
1070
     3
1000
211597
1002
}
  0
LINE
  5
36A
  8
0
 10
70.0
 20
46.250000000000021
 30
0.0
 11
70.0
 21
41.250000000000021
 31
0.0
1001
REVIT
1002
{
1070
     3
1000
211597
1002
}
  0
LINE
  5
36B
  8
0
 10
70.0
 20
41.250000000000021
 30
0.0
 11
50.0
 21
41.250000000000021
 31
0.0
1001
REVIT
1002
{
1070
     3
1000
211597
1002
}
  0
LINE
  5
36C
  8
0
 10
50.0
 20
41.250000000000021
 30
0.0
 11
48.0
 21
43.750000000000021
 31
0.0
1001
REVIT
1002
{
1070
     3
1000
211597
1002
}
  0
LINE
  5
36D
  8
0
 10
18.0
 20
43.750000000000021
 30
0.0
 11
20.0
 21
46.250000000000021
 31
0.0
1001
REVIT
1002
{
1070
     3
1000
211597
1002
}
  0
LINE
  5
36E
  8
0
 10
20.0
 20
46.250000000000021
 30
0.0
 11
40.0
 21
46.250000000000021
 31
0.0
1001
REVIT
1002
{
1070
     3
1000
211597
1002
}
  0
LINE
  5
36F
  8
0
 10
40.0
 20
46.250000000000021
 30
0.0
 11
40.0
 21
41.250000000000021
 31
0.0
1001
REVIT
1002
{
1070
     3
1000
211597
1002
}
  0
LINE
  5
370
  8
0
 10
40.0
 20
41.250000000000021
 30
0.0
 11
20.0
 21
41.250000000000021
 31
0.0
1001
REVIT
1002
{
1070
     3
1000
211597
1002
}
  0
LINE
  5
371
  8
0
 10
20.0
 20
41.250000000000021
 30
0.0
 11
18.0
 21
43.750000000000021
 31
0.0
1001
REVIT
1002
{
1070
     3
1000
211597
1002
}
  0
LINE
  5
372
  8
0
 10
-12.0
 20
43.750000000000021
 30
0.0
 11
-10.0
 21
46.250000000000021
 31
0.0
1001
REVIT
1002
{
1070
     3
1000
211597
1002
}
  0
LINE
  5
373
  8
0
 10
-10.0
 20
46.250000000000021
 30
0.0
 11
10.0
 21
46.250000000000021
 31
0.0
1001
REVIT
1002
{
1070
     3
1000
211597
1002
}
  0
LINE
  5
374
  8
0
 10
10.0
 20
46.250000000000021
 30
0.0
 11
10.0
 21
41.250000000000021
 31
0.0
1001
REVIT
1002
{
1070
     3
1000
211597
1002
}
  0
LINE
  5
375
  8
0
 10
10.0
 20
41.250000000000021
 30
0.0
 11
-10.0
 21
41.250000000000021
 31
0.0
1001
REVIT
1002
{
1070
     3
1000
211597
1002
}
  0
LINE
  5
376
  8
0
 10
-10.0
 20
41.250000000000021
 30
0.0
 11
-12.0
 21
43.750000000000021
 31
0.0
1001
REVIT
1002
{
1070
     3
1000
211597
1002
}
  0
LINE
  5
377
  8
0
 10
-42.0
 20
43.750000000000021
 30
0.0
 11
-40.0
 21
46.250000000000021
 31
0.0
1001
REVIT
1002
{
1070
     3
1000
211597
1002
}
  0
LINE
  5
378
  8
0
 10
-40.0
 20
46.250000000000021
 30
0.0
 11
-20.0
 21
46.250000000000021
 31
0.0
1001
REVIT
1002
{
1070
     3
1000
211597
1002
}
  0
LINE
  5
379
  8
0
 10
-20.0
 20
46.250000000000021
 30
0.0
 11
-20.0
 21
41.250000000000021
 31
0.0
1001
REVIT
1002
{
1070
     3
1000
211597
1002
}
  0
LINE
  5
37A
  8
0
 10
-20.0
 20
41.250000000000021
 30
0.0
 11
-40.0
 21
41.250000000000021
 31
0.0
1001
REVIT
1002
{
1070
     3
1000
211597
1002
}
  0
LINE
  5
37B
  8
0
 10
-40.0
 20
41.250000000000021
 30
0.0
 11
-42.0
 21
43.750000000000021
 31
0.0
1001
REVIT
1002
{
1070
     3
1000
211597
1002
}
  0
LINE
  5
37C
  8
0
 10
-72.0
 20
43.750000000000021
 30
0.0
 11
-70.0
 21
46.250000000000021
 31
0.0
1001
REVIT
1002
{
1070
     3
1000
211597
1002
}
  0
LINE
  5
37D
  8
0
 10
-70.0
 20
46.250000000000021
 30
0.0
 11
-50.0
 21
46.250000000000021
 31
0.0
1001
REVIT
1002
{
1070
     3
1000
211597
1002
}
  0
LINE
  5
37E
  8
0
 10
-50.0
 20
46.250000000000021
 30
0.0
 11
-50.0
 21
41.250000000000021
 31
0.0
1001
REVIT
1002
{
1070
     3
1000
211597
1002
}
  0
LINE
  5
37F
  8
0
 10
-50.0
 20
41.250000000000021
 30
0.0
 11
-70.0
 21
41.250000000000021
 31
0.0
1001
REVIT
1002
{
1070
     3
1000
211597
1002
}
  0
LINE
  5
380
  8
0
 10
-70.0
 20
41.250000000000021
 30
0.0
 11
-72.0
 21
43.750000000000021
 31
0.0
1001
REVIT
1002
{
1070
     3
1000
211597
1002
}
  0
LINE
  5
381
  8
0
 10
48.0
 20
63.750000000000021
 30
0.0
 11
50.0
 21
66.250000000000028
 31
0.0
1001
REVIT
1002
{
1070
     3
1000
211597
1002
}
  0
LINE
  5
382
  8
0
 10
50.0
 20
66.250000000000028
 30
0.0
 11
70.0
 21
66.250000000000028
 31
0.0
1001
REVIT
1002
{
1070
     3
1000
211597
1002
}
  0
LINE
  5
383
  8
0
 10
70.0
 20
66.250000000000028
 30
0.0
 11
70.0
 21
61.250000000000028
 31
0.0
1001
REVIT
1002
{
1070
     3
1000
211597
1002
}
  0
LINE
  5
384
  8
0
 10
70.0
 20
61.250000000000028
 30
0.0
 11
50.0
 21
61.250000000000028
 31
0.0
1001
REVIT
1002
{
1070
     3
1000
211597
1002
}
  0
LINE
  5
385
  8
0
 10
50.0
 20
61.250000000000028
 30
0.0
 11
48.0
 21
63.750000000000021
 31
0.0
1001
REVIT
1002
{
1070
     3
1000
211597
1002
}
  0
LINE
  5
386
  8
0
 10
18.0
 20
63.750000000000021
 30
0.0
 11
20.0
 21
66.250000000000028
 31
0.0
1001
REVIT
1002
{
1070
     3
1000
211597
1002
}
  0
LINE
  5
387
  8
0
 10
20.0
 20
66.250000000000028
 30
0.0
 11
40.0
 21
66.250000000000028
 31
0.0
1001
REVIT
1002
{
1070
     3
1000
211597
1002
}
  0
LINE
  5
388
  8
0
 10
40.0
 20
66.250000000000028
 30
0.0
 11
40.0
 21
61.250000000000028
 31
0.0
1001
REVIT
1002
{
1070
     3
1000
211597
1002
}
  0
LINE
  5
389
  8
0
 10
40.0
 20
61.250000000000028
 30
0.0
 11
20.0
 21
61.250000000000028
 31
0.0
1001
REVIT
1002
{
1070
     3
1000
211597
1002
}
  0
LINE
  5
38A
  8
0
 10
20.0
 20
61.250000000000028
 30
0.0
 11
18.0
 21
63.750000000000021
 31
0.0
1001
REVIT
1002
{
1070
     3
1000
211597
1002
}
  0
LINE
  5
38B
  8
0
 10
-12.0
 20
63.750000000000021
 30
0.0
 11
-10.0
 21
66.250000000000028
 31
0.0
1001
REVIT
1002
{
1070
     3
1000
211597
1002
}
  0
LINE
  5
38C
  8
0
 10
-10.0
 20
66.250000000000028
 30
0.0
 11
10.0
 21
66.250000000000028
 31
0.0
1001
REVIT
1002
{
1070
     3
1000
211597
1002
}
  0
LINE
  5
38D
  8
0
 10
10.0
 20
66.250000000000028
 30
0.0
 11
10.0
 21
61.250000000000028
 31
0.0
1001
REVIT
1002
{
1070
     3
1000
211597
1002
}
  0
LINE
  5
38E
  8
0
 10
10.0
 20
61.250000000000028
 30
0.0
 11
-10.0
 21
61.250000000000028
 31
0.0
1001
REVIT
1002
{
1070
     3
1000
211597
1002
}
  0
LINE
  5
38F
  8
0
 10
-10.0
 20
61.250000000000028
 30
0.0
 11
-12.0
 21
63.750000000000021
 31
0.0
1001
REVIT
1002
{
1070
     3
1000
211597
1002
}
  0
LINE
  5
390
  8
0
 10
-42.0
 20
63.750000000000021
 30
0.0
 11
-40.0
 21
66.250000000000028
 31
0.0
1001
REVIT
1002
{
1070
     3
1000
211597
1002
}
  0
LINE
  5
391
  8
0
 10
-40.0
 20
66.250000000000028
 30
0.0
 11
-20.0
 21
66.250000000000028
 31
0.0
1001
REVIT
1002
{
1070
     3
1000
211597
1002
}
  0
LINE
  5
392
  8
0
 10
-20.0
 20
66.250000000000028
 30
0.0
 11
-20.0
 21
61.250000000000028
 31
0.0
1001
REVIT
1002
{
1070
     3
1000
211597
1002
}
  0
LINE
  5
393
  8
0
 10
-20.0
 20
61.250000000000028
 30
0.0
 11
-40.0
 21
61.250000000000028
 31
0.0
1001
REVIT
1002
{
1070
     3
1000
211597
1002
}
  0
LINE
  5
394
  8
0
 10
-40.0
 20
61.250000000000028
 30
0.0
 11
-42.0
 21
63.750000000000021
 31
0.0
1001
REVIT
1002
{
1070
     3
1000
211597
1002
}
  0
LINE
  5
395
  8
0
 10
-72.0
 20
63.750000000000021
 30
0.0
 11
-70.0
 21
66.250000000000028
 31
0.0
1001
REVIT
1002
{
1070
     3
1000
211597
1002
}
  0
LINE
  5
396
  8
0
 10
-70.0
 20
66.250000000000028
 30
0.0
 11
-50.0
 21
66.250000000000028
 31
0.0
1001
REVIT
1002
{
1070
     3
1000
211597
1002
}
  0
LINE
  5
397
  8
0
 10
-50.0
 20
66.250000000000028
 30
0.0
 11
-50.0
 21
61.250000000000028
 31
0.0
1001
REVIT
1002
{
1070
     3
1000
211597
1002
}
  0
LINE
  5
398
  8
0
 10
-50.0
 20
61.250000000000028
 30
0.0
 11
-70.0
 21
61.250000000000028
 31
0.0
1001
REVIT
1002
{
1070
     3
1000
211597
1002
}
  0
LINE
  5
399
  8
0
 10
-70.0
 20
61.250000000000028
 30
0.0
 11
-72.0
 21
63.750000000000021
 31
0.0
1001
REVIT
1002
{
1070
     3
1000
211597
1002
}
  0
LINE
  5
39A
  8
0
 10
-188.07446062886311
 20
92.603345190867429
 30
0.0
 11
-141.3619403906099
 21
104.2500845696422
 31
0.0
1001
REVIT
1002
{
1070
     3
1000
578788
1002
}
  0
LINE
  5
39B
  8
0
 10
-175.64739518305529
 20
89.511288795328454
 30
0.0
 11
-186.62133539268561
 21
86.775178199575336
 31
0.0
1001
REVIT
1002
{
1070
     3
1000
578788
1002
}
  0
LINE
  5
39C
  8
0
 10
-219.89140287714301
 20
67.8259463645106
 30
0.0
 11
-174.11905689388701
 21
84.485717854953208
 31
0.0
1001
REVIT
1002
{
1070
     3
1000
578788
1002
}
  0
LINE
  5
39D
  8
0
 10
-220.10184298187031
 20
67.761608367809771
 30
0.0
 11
-219.89140287714309
 21
67.8259463645106
 31
0.0
1001
REVIT
1002
{
1070
     3
1000
578788
1002
}
  0
LINE
  5
39E
  8
0
 10
-366.42532883691291
 20
31.263108021381321
 30
0.0
 11
-220.10184298187039
 21
67.761608367809686
 31
0.0
1001
REVIT
1002
{
1070
     3
1000
578788
1002
}
  0
LINE
  5
39F
  8
0
 10
-366.14282478597642
 20
20.826534270404839
 30
0.0
 11
-368.12856689976422
 21
28.790910879289552
 31
0.0
1001
REVIT
1002
{
1070
     3
1000
578788
1002
}
  0
LINE
  5
3A0
  8
0
 10
-358.62846289241708
 20
20.072079384728578
 30
0.0
 11
-363.92145061394331
 21
19.32819847227552
 31
0.0
1001
REVIT
1002
{
1070
     3
1000
578788
1002
}
  0
LINE
  5
3A1
  8
0
 10
-394.02895650786388
 20
4.4450601748989618
 30
0.0
 11
-358.00155061270237
 21
17.557963538567051
 31
0.0
1001
REVIT
1002
{
1070
     3
1000
578788
1002
}
  0
LINE
  5
3A2
  8
0
 10
-540.70445104070416
 20
-32.125247943018948
 30
0.0
 11
-394.02895650786331
 21
4.4450601748991749
 31
0.0
1001
REVIT
1002
{
1070
     3
1000
578788
1002
}
  0
LINE
  5
3A3
  8
0
 10
-540.16747224153198
 20
-42.513599429784357
 30
0.0
 11
-542.16275803860492
 21
-34.552506772775963
 31
0.0
1001
REVIT
1002
{
1070
     3
1000
578788
1002
}
  0
LINE
  5
3A4
  8
0
 10
-525.36588979754083
 20
-40.681858710338602
 30
0.0
 11
-537.79803491267148
 21
-43.781540622985467
 31
0.0
1001
REVIT
1002
{
1070
     3
1000
578788
1002
}
  0
ARC
  5
3A5
  8
0
 10
-187.29762542789729
 20
89.701796057907927
 30
0.0
 40
3.0037410508294449
 50
104.9883454356475
 51
283.01165456438929
1001
REVIT
1002
{
1070
     3
1000
578788
1002
}
  0
ARC
  5
3A6
  8
0
 10
-175.08598327104031
 20
86.936842342614113
 30
0.0
 40
2.6349493112479041
 50
291.52838004182792
 51
102.30195052509249
1001
REVIT
1002
{
1070
     3
1000
578788
1002
}
  0
ARC
  5
3A7
  8
0
 10
-366.18584456933849
 20
29.275285958014329
 30
0.0
 40
2.0021961117793401
 50
96.869640961641977
 51
194.0000000000241
1001
REVIT
1002
{
1070
     3
1000
578788
1002
}
  0
ARC
  5
3A8
  8
0
 10
-364.20010245555011
 20
21.31090934912978
 30
0.0
 40
2.0021961117799791
 50
194.0000000000241
 51
278.00000000000091
1001
REVIT
1002
{
1070
     3
1000
578788
1002
}
  0
ARC
  5
3A9
  8
0
 10
-358.47523747013179
 20
18.775066817319569
 30
0.0
 40
1.3060320172382529
 50
291.26558942058148
 51
96.737534394829837
1001
REVIT
1002
{
1070
     3
1000
578788
1002
}
  0
ARC
  5
3AA
  8
0
 10
-540.22007596198023
 20
-34.067970273444551
 30
0.0
 40
2.0021961117790461
 50
104.0000000000028
 51
194.0047607500363
1001
REVIT
1002
{
1070
     3
1000
578788
1002
}
  0
ARC
  5
3AB
  8
0
 10
-538.28240999140041
 20
-41.838818292561108
 30
0.0
 40
2.0021961117791012
 50
199.6954505122126
 51
284.00000000015058
1001
REVIT
1002
{
1070
     3
1000
578788
1002
}
  0
LINE
  5
3AC
  8
0
 10
-0.0000000000002274
 20
13.74999999999994
 30
0.0
 11
529.20690860982404
 21
-178.86556250200979
 31
0.0
1001
REVIT
1002
{
1070
     3
1000
206265
1002
}
  0
LINE
  5
3AD
  8
0
 10
529.20690860982381
 20
-72.44778525441842
 30
0.0
 11
-0.0000000000004547
 21
120.1677772475914
 31
0.0
1001
REVIT
1002
{
1070
     3
1000
206265
1002
}
  0
LINE
  5
3AE
  8
0
 10
0.0000000000004547
 20
120.1677772475914
 30
0.0
 11
-529.20690860982381
 21
-72.44778525441842
 31
0.0
1001
REVIT
1002
{
1070
     3
1000
206265
1002
}
  0
LINE
  5
3AF
  8
0
 10
-529.20690860982404
 20
-178.86556250200979
 30
0.0
 11
0.0000000000002274
 21
13.75
 31
0.0
1001
REVIT
1002
{
1070
     3
1000
206265
1002
}
  0
LINE
  5
3B0
  8
0
 10
-158.8641430875341
 20
101.4106678637085
 30
0.0
 11
-155.10537260438929
 21
102.7787484370119
 31
0.0
1001
REVIT
1002
{
1070
     3
1000
211597
1002
}
  0
LINE
  5
3B1
  8
0
 10
-149.3316257523696
 20
79.605998335032155
 30
0.0
 11
-157.19808904886139
 21
101.21892861310759
 31
0.0
1001
REVIT
1002
{
1070
     3
1000
211597
1002
}
  0
LINE
  5
3B2
  8
0
 10
-148.17773915532419
 20
77.897623165123662
 30
0.0
 11
-149.3316257523696
 21
79.605998335032155
 31
0.0
1001
REVIT
1002
{
1070
     3
1000
211597
1002
}
  0
LINE
  5
3B3
  8
0
 10
-148.3919331315837
 20
79.948018478357895
 30
0.0
 11
-148.17773915532419
 21
77.897623165123662
 31
0.0
1001
REVIT
1002
{
1070
     3
1000
211597
1002
}
  0
LINE
  5
3B4
  8
0
 10
-156.25839642807551
 20
101.56094875643331
 30
0.0
 11
-148.3919331315837
 21
79.948018478357895
 31
0.0
1001
REVIT
1002
{
1070
     3
1000
211597
1002
}
  0
LINE
  5
3B5
  8
0
 10
-155.130893512543
 20
101.97132625673549
 30
0.0
 11
-156.25839642807551
 21
101.56094875643331
 31
0.0
1001
REVIT
1002
{
1070
     3
1000
211597
1002
}
  0
LINE
  5
3B6
  8
0
 10
-157.19808904886139
 20
101.21892861310759
 30
0.0
 11
-158.3255919643934
 21
100.8085511128055
 31
0.0
1001
REVIT
1002
{
1070
     3
1000
211597
1002
}
  0
LINE
  5
3B7
  8
0
 10
-158.8641430875341
 20
101.4106678637085
 30
0.0
 11
-158.3255919643934
 21
100.8085511128055
 31
0.0
1001
REVIT
1002
{
1070
     3
1000
211597
1002
}
  0
LINE
  5
3B8
  8
0
 10
-155.10537260438929
 20
102.7787484370119
 30
0.0
 11
-155.130893512543
 21
101.97132625673549
 31
0.0
1001
REVIT
1002
{
1070
     3
1000
211597
1002
}
  0
LINE
  5
3B9
  8
0
 10
-56.010589418843033
 20
154.73464138671511
 30
0.0
 11
-52.206363353661118
 21
155.97070936421531
 31
0.0
1001
REVIT
1002
{
1070
     3
1000
211597
1002
}
  0
LINE
  5
3BA
  8
0
 10
-39.519426168621941
 20
108.8341617088886
 30
0.0
 11
-54.352241898619518
 21
154.48487449105599
 31
0.0
1001
REVIT
1002
{
1070
     3
1000
211597
1002
}
  0
LINE
  5
3BB
  8
0
 10
-38.425863921723398
 20
107.0865571734862
 30
0.0
 11
-39.519426168621941
 21
108.8341617088886
 31
0.0
1001
REVIT
1002
{
1070
     3
1000
211597
1002
}
  0
LINE
  5
3BC
  8
0
 10
-38.568369652326787
 20
109.1431787032636
 30
0.0
 11
-38.425863921723398
 21
107.0865571734862
 31
0.0
1001
REVIT
1002
{
1070
     3
1000
211597
1002
}
  0
LINE
  5
3BD
  8
0
 10
-53.401185382324371
 20
154.793891485431
 30
0.0
 11
-38.568369652326787
 21
109.1431787032636
 31
0.0
1001
REVIT
1002
{
1070
     3
1000
211597
1002
}
  0
LINE
  5
3BE
  8
0
 10
-52.260047342885372
 20
155.16466971056531
 30
0.0
 11
-53.401185382324371
 21
154.793891485431
 31
0.0
1001
REVIT
1002
{
1070
     3
1000
211597
1002
}
  0
LINE
  5
3BF
  8
0
 10
-54.352241898619518
 20
154.48487449105599
 30
0.0
 11
-55.493379938058091
 21
154.1140962659218
 31
0.0
1001
REVIT
1002
{
1070
     3
1000
211597
1002
}
  0
LINE
  5
3C0
  8
0
 10
-56.010589418843033
 20
154.73464138671511
 30
0.0
 11
-55.493379938058091
 21
154.1140962659218
 31
0.0
1001
REVIT
1002
{
1070
     3
1000
211597
1002
}
  0
LINE
  5
3C1
  8
0
 10
-52.206363353661118
 20
155.97070936421531
 30
0.0
 11
-52.260047342885372
 21
155.16466971056531
 31
0.0
1001
REVIT
1002
{
1070
     3
1000
211597
1002
}
  0
LINE
  5
3C2
  8
0
 10
-529.72003662195596
 20
-69.442015259775559
 30
0.0
 11
-39.560759220896351
 21
108.9613717634152
 31
0.0
  0
LINE
  5
3C3
  8
0
 10
-38.623795610888664
 20
109.30239862804819
 30
0.0
 11
-0.0000000000027187
 21
123.36031056477449
 31
0.0
  0
LINE
  5
3C4
  8
0
 10
-0.0000000000027187
 20
123.36031056477449
 30
0.0
 11
-5.1303021498820822
 21
137.4556998765654
 31
0.0
  0
LINE
  5
3C5
  8
0
 10
-5.1303021498820822
 20
137.4556998765654
 30
0.0
 11
-43.258574124662353
 21
123.5781437937566
 31
0.0
  0
LINE
  5
3C6
  8
0
 10
-44.198839529727991
 20
123.2359151740029
 30
0.0
 11
-150.11611833588611
 21
84.685178394135605
 31
0.0
  0
LINE
  5
3C7
  8
0
 10
-151.05581095667219
 20
84.343158250810305
 30
0.0
 11
-534.85033877183525
 21
-55.346625947984698
 31
0.0
  0
LINE
  5
3C8
  8
0
 10
-2.5651510749425679
 20
130.40800522067039
 30
0.0
 11
-40.93953397024665
 21
116.44087208846329
 31
0.0
1001
REVIT
1002
{
1070
     3
1000
456193
1002
}
  0
LINE
  5
3C9
  8
0
 10
-41.879799375312288
 20
116.0986434687095
 30
0.0
 11
-532.28518769689583
 21
-62.394320603879663
 31
0.0
1001
REVIT
1002
{
1070
     3
1000
456193
1002
}
  0
LINE
  5
3CA
  8
0
 10
-1.710100716629154
 20
128.0587736687047
 30
0.0
 11
-40.16652058544129
 21
114.0617815200314
 31
0.0
1001
REVIT
1002
{
1070
     3
1000
456193
1002
}
  0
LINE
  5
3CB
  8
0
 10
-41.106785990506822
 20
113.71955290027771
 30
0.0
 11
-531.43013733858231
 21
-64.743552155845322
 31
0.0
1001
REVIT
1002
{
1070
     3
1000
456193
1002
}
  0
LINE
  5
3CC
  8
0
 10
-3.4202014332555049
 20
132.7572367726348
 30
0.0
 11
-41.712547355051782
 21
118.81996265689369
 31
0.0
1001
REVIT
1002
{
1070
     3
1000
456193
1002
}
  0
LINE
  5
3CD
  8
0
 10
-42.6528127601173
 20
118.47773403714
 30
0.0
 11
-148.39193313158381
 21
79.99184162448384
 31
0.0
1001
REVIT
1002
{
1070
     3
1000
456193
1002
}
  0
LINE
  5
3CE
  8
0
 10
-149.3316257523696
 20
79.649821481158625
 30
0.0
 11
-533.1402380552081
 21
-60.045089051915078
 31
0.0
1001
REVIT
1002
{
1070
     3
1000
456193
1002
}
  0
LINE
  5
3CF
  8
0
 10
-4.2752517915687234
 20
135.10646832459989
 30
0.0
 11
-42.485560739857057
 21
121.199053225325
 31
0.0
1001
REVIT
1002
{
1070
     3
1000
456193
1002
}
  0
LINE
  5
3D0
  8
0
 10
-43.425826144922581
 20
120.8568246055713
 30
0.0
 11
-149.26106797757171
 21
82.335946842170472
 31
0.0
1001
REVIT
1002
{
1070
     3
1000
456193
1002
}
  0
LINE
  5
3D1
  8
0
 10
-150.2007605983577
 20
81.9939266988452
 30
0.0
 11
-533.99528841352128
 21
-57.695857499949959
 31
0.0
1001
REVIT
1002
{
1070
     3
1000
456193
1002
}
  0
LINE
  5
3D2
  8
0
 10
-0.8550503583159361
 20
125.7095421167396
 30
0.0
 11
-39.393507200635987
 21
111.68269095160019
 31
0.0
1001
REVIT
1002
{
1070
     3
1000
456193
1002
}
  0
LINE
  5
3D3
  8
0
 10
-40.333772605701647
 20
111.3404623318465
 30
0.0
 11
-530.57508698026902
 21
-67.092783707810412
 31
0.0
1001
REVIT
1002
{
1070
     3
1000
456193
1002
}
  0
LINE
  5
3D4
  8
0
 10
56.010589418843033
 20
154.73464138671511
 30
0.0
 11
52.206363353661118
 21
155.97070936421531
 31
0.0
1001
REVIT
1002
{
1070
     3
1000
211597
1002
}
  0
LINE
  5
3D5
  8
0
 10
39.519426168621898
 20
108.8341617088887
 30
0.0
 11
54.352241898619518
 21
154.48487449105599
 31
0.0
1001
REVIT
1002
{
1070
     3
1000
211597
1002
}
  0
LINE
  5
3D6
  8
0
 10
38.425863921723362
 20
107.0865571734862
 30
0.0
 11
39.519426168621898
 21
108.8341617088887
 31
0.0
1001
REVIT
1002
{
1070
     3
1000
211597
1002
}
  0
LINE
  5
3D7
  8
0
 10
38.568369652326759
 20
109.1431787032636
 30
0.0
 11
38.425863921723362
 21
107.0865571734862
 31
0.0
1001
REVIT
1002
{
1070
     3
1000
211597
1002
}
  0
LINE
  5
3D8
  8
0
 10
53.401185382324371
 20
154.793891485431
 30
0.0
 11
38.568369652326759
 21
109.1431787032636
 31
0.0
1001
REVIT
1002
{
1070
     3
1000
211597
1002
}
  0
LINE
  5
3D9
  8
0
 10
52.260047342885372
 20
155.16466971056531
 30
0.0
 11
53.401185382324371
 21
154.793891485431
 31
0.0
1001
REVIT
1002
{
1070
     3
1000
211597
1002
}
  0
LINE
  5
3DA
  8
0
 10
54.352241898619518
 20
154.48487449105599
 30
0.0
 11
55.493379938058091
 21
154.1140962659218
 31
0.0
1001
REVIT
1002
{
1070
     3
1000
211597
1002
}
  0
LINE
  5
3DB
  8
0
 10
56.010589418843033
 20
154.73464138671511
 30
0.0
 11
55.493379938058091
 21
154.1140962659218
 31
0.0
1001
REVIT
1002
{
1070
     3
1000
211597
1002
}
  0
LINE
  5
3DC
  8
0
 10
52.206363353661118
 20
155.97070936421531
 30
0.0
 11
52.260047342885372
 21
155.16466971056531
 31
0.0
1001
REVIT
1002
{
1070
     3
1000
211597
1002
}
  0
LINE
  5
3DD
  8
0
 10
534.63962253424404
 20
-55.269931509625017
 30
0.0
 11
151.05581095667611
 21
84.343158250814227
 31
0.0
  0
LINE
  5
3DE
  8
0
 10
150.11611833589001
 20
84.685178394139527
 30
0.0
 11
44.198839529729973
 21
123.23591517400899
 31
0.0
  0
LINE
  5
3DF
  8
0
 10
43.258574124664307
 20
123.57814379376281
 30
0.0
 11
5.1303021498850399
 21
137.45569987657171
 31
0.0
  0
LINE
  5
3E0
  8
0
 10
5.130302149885039
 20
137.45569987657171
 30
0.0
 11
0.0000000000055027
 21
123.3603105647809
 31
0.0
  0
LINE
  5
3E1
  8
0
 10
0.0000000000055036
 20
123.3603105647809
 30
0.0
 11
38.623795610890781
 21
109.30239862805431
 31
0.0
  0
LINE
  5
3E2
  8
0
 10
39.560759220898412
 20
108.9613717634213
 30
0.0
 11
529.50932038436451
 21
-69.365320821415821
 31
0.0
  0
LINE
  5
3E3
  8
0
 10
2.5651510749454389
 20
130.4080052206767
 30
0.0
 11
40.939533970248682
 21
116.4408720884694
 31
0.0
1001
REVIT
1002
{
1070
     3
1000
456193
1002
}
  0
LINE
  5
3E4
  8
0
 10
41.879799375314327
 20
116.09864346871559
 30
0.0
 11
532.0744714593045
 21
-62.317626165519947
 31
0.0
1001
REVIT
1002
{
1070
     3
1000
456193
1002
}
  0
LINE
  5
3E5
  8
0
 10
1.7101007166319959
 20
128.0587736687111
 30
0.0
 11
40.166520585443287
 21
114.0617815200375
 31
0.0
1001
REVIT
1002
{
1070
     3
1000
456193
1002
}
  0
LINE
  5
3E6
  8
0
 10
41.106785990508833
 20
113.7195529002839
 30
0.0
 11
531.21942110099087
 21
-64.666857717485584
 31
0.0
1001
REVIT
1002
{
1070
     3
1000
456193
1002
}
  0
LINE
  5
3E7
  8
0
 10
3.4202014332584052
 20
132.75723677264111
 30
0.0
 11
41.712547355053701
 21
118.8199626568998
 31
0.0
1001
REVIT
1002
{
1070
     3
1000
456193
1002
}
  0
LINE
  5
3E8
  8
0
 10
42.652812760119339
 20
118.47773403714611
 30
0.0
 11
148.3919331315862
 21
79.991841624488302
 31
0.0
1001
REVIT
1002
{
1070
     3
1000
456193
1002
}
  0
LINE
  5
3E9
  8
0
 10
149.3316257523721
 20
79.649821481163073
 30
0.0
 11
532.92952181761666
 21
-59.968394613555382
 31
0.0
1001
REVIT
1002
{
1070
     3
1000
456193
1002
}
  0
LINE
  5
3EA
  8
0
 10
4.2752517915716526
 20
135.1064683246062
 30
0.0
 11
42.485560739858897
 21
121.1990532253311
 31
0.0
1001
REVIT
1002
{
1070
     3
1000
456193
1002
}
  0
LINE
  5
3EB
  8
0
 10
43.425826144924557
 20
120.8568246055774
 30
0.0
 11
149.26106797757561
 21
82.335946842174408
 31
0.0
1001
REVIT
1002
{
1070
     3
1000
456193
1002
}
  0
LINE
  5
3EC
  8
0
 10
150.20076059836151
 20
81.99392669884918
 30
0.0
 11
533.78457217592995
 21
-57.619163061590292
 31
0.0
1001
REVIT
1002
{
1070
     3
1000
456193
1002
}
  0
LINE
  5
3ED
  8
0
 10
0.8550503583187495
 20
125.70954211674599
 30
0.0
 11
39.393507200638084
 21
111.6826909516063
 31
0.0
1001
REVIT
1002
{
1070
     3
1000
456193
1002
}
  0
LINE
  5
3EE
  8
0
 10
40.333772605703729
 20
111.34046233185251
 30
0.0
 11
530.36437074267758
 21
-67.016089269450674
 31
0.0
1001
REVIT
1002
{
1070
     3
1000
456193
1002
}
  0
LINE
  5
3EF
  8
0
  6
DASH
 10
-72.256289705260969
 20
131.19216408033699
 30
0.0
 11
-49.216370497433033
 21
138.67828763057511
 31
0.0
1001
REVIT
1002
{
1070
     3
1000
217411
1002
}
  0
LINE
  5
3F0
  8
0
  6
DASH
 10
-48.265313981137943
 20
138.9873046249501
 30
0.0
 11
0.0000000000003553
 21
154.66965578228729
 31
0.0
1001
REVIT
1002
{
1070
     3
1000
217411
1002
}
  0
LINE
  5
3F1
  8
0
  6
DASH
 10
72.256289705261651
 20
131.19216408033699
 30
0.0
 11
49.216370497433047
 21
138.67828763057531
 31
0.0
1001
REVIT
1002
{
1070
     3
1000
217411
1002
}
  0
LINE
  5
3F2
  8
0
  6
DASH
 10
48.265313981137972
 20
138.9873046249503
 30
0.0
 11
0.0000000000003553
 21
154.66965578228729
 31
0.0
1001
REVIT
1002
{
1070
     3
1000
217411
1002
}
  0
LINE
  5
3F3
  8
0
 10
0.0000000000000069
 20
171.5152691095727
 30
0.0
 11
53.216115520937571
 21
154.22430501981449
 31
0.0
1001
REVIT
1002
{
1070
     3
1000
224528
1002
}
  0
LINE
  5
3F4
  8
0
 10
54.16717203723266
 20
153.91528802543951
 30
0.0
 11
133.96432665277459
 21
127.9876207875074
 31
0.0
1001
REVIT
1002
{
1070
     3
1000
224528
1002
}
  0
LINE
  5
3F5
  8
0
 10
133.96432665277459
 20
127.9876207875074
 30
0.0
 11
137.92730022360189
 21
112.0930019495266
 31
0.0
1001
REVIT
1002
{
1070
     3
1000
224528
1002
}
  0
LINE
  5
3F6
  8
0
 10
-0.0000000000000056
 20
171.5152691095727
 30
0.0
 11
-53.21611552093816
 21
154.2243050198143
 31
0.0
1001
REVIT
1002
{
1070
     3
1000
224528
1002
}
  0
LINE
  5
3F7
  8
0
 10
-54.167172037233279
 20
153.91528802543931
 30
0.0
 11
-133.96432665277459
 21
127.9876207875074
 31
0.0
1001
REVIT
1002
{
1070
     3
1000
224528
1002
}
  0
LINE
  5
3F8
  8
0
 10
-133.96432665277459
 20
127.9876207875074
 30
0.0
 11
-137.92730022360189
 21
112.0930019495266
 31
0.0
1001
REVIT
1002
{
1070
     3
1000
224528
1002
}
  0
LINE
  5
3F9
  8
0
  6
DASH
 10
0.0
 20
144.64386601453739
 30
0.0
 11
-44.804600894340481
 21
128.33632493082061
 31
0.0
1001
REVIT
1002
{
1070
     3
1000
217411
1002
}
  0
LINE
  5
3FA
  8
0
  6
DASH
 10
-45.74486629940602
 20
127.9940963110665
 30
0.0
 11
-151.82621905257361
 21
89.383641498220527
 31
0.0
1001
REVIT
1002
{
1070
     3
1000
217411
1002
}
  0
LINE
  5
3FB
  8
0
  6
DASH
 10
538.12857768950391
 20
-51.218918472450483
 30
0.0
 11
152.76591167335971
 21
89.041621354894829
 31
0.0
1001
REVIT
1002
{
1070
     3
1000
217411
1002
}
  0
LINE
  5
3FC
  8
0
  6
DASH
 10
151.82621905257389
 20
89.383641498220484
 30
0.0
 11
45.7448662994044
 21
127.99409631106749
 31
0.0
1001
REVIT
1002
{
1070
     3
1000
217411
1002
}
  0
LINE
  5
3FD
  8
0
  6
DASH
 10
44.804600894338762
 20
128.33632493082169
 30
0.0
 11
0.00000000000216
 21
144.6438660145372
 31
0.0
1001
REVIT
1002
{
1070
     3
1000
217411
1002
}
  0
LINE
  5
3FE
  8
0
  6
DASH
 10
-5.8143424366106133
 20
139.3350851183518
 30
0.0
 11
-43.876984832572013
 21
125.4814162487031
 31
0.0
1001
REVIT
1002
{
1070
     3
1000
217411
1002
}
  0
LINE
  5
3FF
  8
0
  6
DASH
 10
-44.81725023763758
 20
125.1391876289489
 30
0.0
 11
-150.80015862259421
 21
86.564563635862854
 31
0.0
1001
REVIT
1002
{
1070
     3
1000
217411
1002
}
  0
LINE
  5
400
  8
0
  6
DASH
 10
-151.7398512433802
 20
86.222543492537199
 30
0.0
 11
-529.17852865272459
 21
-51.15390034526726
 31
0.0
1001
REVIT
1002
{
1070
     3
1000
217411
1002
}
  0
LINE
  5
401
  8
0
 10
-73.095110004076375
 20
-12.854444311897421
 30
0.0
 11
-162.02802951217211
 21
-166.89077936535151
 31
0.0
1001
REVIT
1002
{
1070
     3
1000
206265
1002
}
  0
LINE
  5
402
  8
0
 10
-104.29300259320929
 20
-166.8907793653517
 30
0.0
 11
0.00000000000054
 21
13.749999999999259
 31
0.0
1001
REVIT
1002
{
1070
     3
1000
206265
1002
}
  0
LINE
  5
403
  8
0
 10
-0.00000000000054
 20
13.749999999999289
 30
0.0
 11
104.29300259320929
 21
-166.8907793653517
 31
0.0
1001
REVIT
1002
{
1070
     3
1000
206265
1002
}
  0
LINE
  5
404
  8
0
 10
162.02802951217211
 20
-166.89077936535151
 30
0.0
 11
73.095110004076375
 21
-12.854444311897391
 31
0.0
1001
REVIT
1002
{
1070
     3
1000
206265
1002
}
  0
VIEWPORT
  5
2B0
 67
     1
  8
0
 10
128.5
 20
97.5
 30
0.0
 40
620.98982300884961
 41
222.18000000000001
 68
     1
 69
     1
1001
ACAD
1000
MVIEW
1002
{
1070
    16
1010
0.0
1020
0.0
1030
0.0
1010
0.0
1020
0.0
1030
1.0
1040
0.0
1040
222.18000000000001
1040
128.5
1040
97.5
1040
50.0
1040
0.0
1040
0.0
1070
     0
1070
   100
1070
     1
1070
     1
1070
     0
1070
     0
1070
     0
1070
     0
1040
0.0
1040
0.0
1040
0.0
1040
10.0
1040
10.0
1040
10.0
1040
10.0
1070
     0
1002
{
1002
}
1002
}
  0
VIEWPORT
  5
2B4
 67
     1
  8
0
 10
128.5
 20
97.5
 30
0.0
 40
205.59999999999999
 41
156.0
 68
     2
 69
     2
1001
ACAD
1000
MVIEW
1002
{
1070
    16
1010
0.0
1020
0.0
1030
0.0
1010
0.0
1020
0.0
1030
1.0
1040
0.0
1040
1106.0344940759319
1040
0.0000000000012506
1040
68.943326095966967
1040
50.0
1040
0.0
1040
0.0
1070
     0
1070
  1000
1070
     1
1070
     1
1070
     0
1070
     0
1070
     0
1070
     0
1040
0.0
1040
0.0
1040
0.0
1040
1.0
1040
1.0
1040
0.0
1040
0.0
1070
     0
1002
{
1002
}
1002
}
  0
ENDSEC
  0
EOF
