  0
SECTION
  2
HEADER
  9
$ACADVER
  1
AC1009
  9
$INSBASE
 10
0.0
 20
0.0
 30
0.0
  9
$EXTMIN
 10
-758.57091179732004
 20
-365.64766367851672
 30
0.0
  9
$EXTMAX
 10
331.14869211727591
 20
367.28754638135592
 30
0.0
  9
$LIMMIN
 10
0.0
 20
0.0
  9
$LIMMAX
 10
12.0
 20
9.0
  9
$ORTHOMODE
 70
     0
  9
$REGENMODE
 70
     1
  9
$FILLMODE
 70
     1
  9
$QTEXTMODE
 70
     0
  9
$MIRRTEXT
 70
     0
  9
$DRAGMODE
 70
     2
  9
$LTSCALE
 40
1.0
  9
$OSMODE
 70
     0
  9
$ATTMODE
 70
     1
  9
$TEXTSIZE
 40
0.2
  9
$TRACEWID
 40
0.05
  9
$TEXTSTYLE
  7
STANDARD
  9
$CLAYER
  8
0
  9
$CELTYPE
  6
BYLAYER
  9
$CECOLOR
 62
   256
  9
$DIMSCALE
 40
1.0
  9
$DIMASZ
 40
0.18
  9
$DIMEXO
 40
0.0625
  9
$DIMDLI
 40
0.38
  9
$DIMRND
 40
0.0
  9
$DIMDLE
 40
0.0
  9
$DIMEXE
 40
0.18
  9
$DIMTP
 40
0.0
  9
$DIMTM
 40
0.0
  9
$DIMTXT
 40
0.18
  9
$DIMCEN
 40
0.09
  9
$DIMTSZ
 40
0.0
  9
$DIMTOL
 70
     0
  9
$DIMLIM
 70
     0
  9
$DIMTIH
 70
     1
  9
$DIMTOH
 70
     1
  9
$DIMSE1
 70
     0
  9
$DIMSE2
 70
     0
  9
$DIMTAD
 70
     0
  9
$DIMZIN
 70
     0
  9
$DIMBLK
  1

  9
$DIMASO
 70
     1
  9
$DIMSHO
 70
     1
  9
$DIMPOST
  1

  9
$DIMAPOST
  1

  9
$DIMALT
 70
     0
  9
$DIMALTD
 70
     2
  9
$DIMALTF
 40
25.399999999999999
  9
$DIMLFAC
 40
1.0
  9
$DIMTOFL
 70
     0
  9
$DIMTVP
 40
0.0
  9
$DIMTIX
 70
     0
  9
$DIMSOXD
 70
     0
  9
$DIMSAH
 70
     0
  9
$DIMBLK1
  1

  9
$DIMBLK2
  1

  9
$DIMSTYLE
  2
STANDARD
  9
$DIMCLRD
 70
     0
  9
$DIMCLRE
 70
     0
  9
$DIMCLRT
 70
     0
  9
$DIMTFAC
 40
1.0
  9
$DIMGAP
 40
0.09
  9
$LUNITS
 70
     2
  9
$LUPREC
 70
     4
  9
$SKETCHINC
 40
0.1
  9
$FILLETRAD
 40
0.0
  9
$AUNITS
 70
     0
  9
$AUPREC
 70
     0
  9
$MENU
  1
.
  9
$ELEVATION
 40
0.0
  9
$PELEVATION
 40
0.0
  9
$THICKNESS
 40
0.0
  9
$LIMCHECK
 70
     0
  9
$BLIPMODE
 70
     0
  9
$CHAMFERA
 40
0.0
  9
$CHAMFERB
 40
0.0
  9
$SKPOLY
 70
     0
  9
$TDCREATE
 40
2457745.6347780791
  9
$TDUPDATE
 40
2457745.6577748838
  9
$TDINDWG
 40
0.0001312153
  9
$TDUSRTIMER
 40
0.0001312153
  9
$USRTIMER
 70
     1
  9
$ANGBASE
 50
0.0
  9
$ANGDIR
 70
     0
  9
$PDMODE
 70
     0
  9
$PDSIZE
 40
0.0
  9
$PLINEWID
 40
0.0
  9
$COORDS
 70
     2
  9
$SPLFRAME
 70
     0
  9
$SPLINETYPE
 70
     6
  9
$SPLINESEGS
 70
     8
  9
$ATTDIA
 70
     0
  9
$ATTREQ
 70
     0
  9
$HANDLING
 70
     1
  9
$HANDSEED
  5
5BB
  9
$SURFTAB1
 70
     6
  9
$SURFTAB2
 70
     6
  9
$SURFTYPE
 70
     6
  9
$SURFU
 70
     6
  9
$SURFV
 70
     6
  9
$UCSNAME
  2

  9
$UCSORG
 10
0.0
 20
0.0
 30
0.0
  9
$UCSXDIR
 10
1.0
 20
0.0
 30
0.0
  9
$UCSYDIR
 10
0.0
 20
1.0
 30
0.0
  9
$PUCSNAME
  2

  9
$PUCSORG
 10
0.0
 20
0.0
 30
0.0
  9
$PUCSXDIR
 10
1.0
 20
0.0
 30
0.0
  9
$PUCSYDIR
 10
0.0
 20
1.0
 30
0.0
  9
$USERI1
 70
     0
  9
$USERI2
 70
     0
  9
$USERI3
 70
     0
  9
$USERI4
 70
     0
  9
$USERI5
 70
     0
  9
$USERR1
 40
0.0
  9
$USERR2
 40
0.0
  9
$USERR3
 40
0.0
  9
$USERR4
 40
0.0
  9
$USERR5
 40
0.0
  9
$WORLDVIEW
 70
     1
  9
$SHADEDGE
 70
     3
  9
$SHADEDIF
 70
    70
  9
$TILEMODE
 70
     1
  9
$MAXACTVP
 70
    64
  9
$PLIMCHECK
 70
     0
  9
$PEXTMIN
 10
28.674481201171879
 20
19.966517114639291
 30
0.0
  9
$PEXTMAX
 10
258.07033081054692
 20
179.69865403175351
 30
0.0
  9
$PLIMMIN
 10
-5.069427490234375
 20
-5.1964163780212402
  9
$PLIMMAX
 10
291.89889526367187
 20
204.77691125869751
  9
$UNITMODE
 70
     0
  9
$VISRETAIN
 70
     1
  9
$PLINEGEN
 70
     0
  9
$PSLTSCALE
 70
     1
  0
ENDSEC
  0
SECTION
  2
TABLES
  0
TABLE
  2
VPORT
 70
     1
  0
VPORT
  2
*ACTIVE
 70
     0
 10
0.0
 20
0.0
 11
1.0
 21
1.0
 12
-203.41067172950889
 22
0.8199413514195725
 13
0.0
 23
0.0
 14
1.0
 24
1.0
 15
0.0
 25
0.0
 16
0.0
 26
0.0
 36
1.0
 17
0.0
 27
0.0
 37
0.0
 40
732.93521005987247
 41
1.506508875739645
 42
50.0
 43
0.0
 44
0.0
 50
0.0
 51
0.0
 71
     0
 72
  1000
 73
     1
 74
     1
 75
     0
 76
     0
 77
     0
 78
     0
  0
ENDTAB
  0
TABLE
  2
LTYPE
 70
     2
  0
LTYPE
  2
CONTINUOUS
 70
     0
  3
Solid line
 72
    65
 73
     0
 40
0.0
  0
LTYPE
  2
DASH
 70
     0
  3

 72
    65
 73
     2
 40
6.3499999999999996
 49
3.1749999999999998
 49
-3.1749999999999998
  0
ENDTAB
  0
TABLE
  2
LAYER
 70
     7
  0
LAYER
  2
0
 70
     0
 62
     7
  6
CONTINUOUS
  0
ENDTAB
  0
TABLE
  2
STYLE
 70
     8
  0
STYLE
  2
STANDARD
 70
     0
 40
0.0
 41
1.0
 50
0.0
 71
     0
 42
0.2
  3
txt
  4

  0
STYLE
  2
ARIAL
 70
     0
 40
12.2941616766467
 41
1.0
 50
0.0
 71
     0
 42
0.2
  3
txt
  4

  0
ENDTAB
  0
TABLE
  2
VIEW
 70
     1
  0
ENDTAB
  0
TABLE
  2
UCS
 70
     0
  0
ENDTAB
  0
TABLE
  2
APPID
 70
     6
  0
APPID
  2
ACAD
 70
     0
  0
APPID
  2
ACADANNOTATIVE
 70
     0
  0
APPID
  2
REVIT
 70
     0
  0
APPID
  2
ACAD_PSEXT
 70
     0
  0
APPID
  2
ACAD_NAV_VCDISPLAY
 70
     0
  0
APPID
  2
ACAD_MLEADERVER
 70
     0
  0
ENDTAB
  0
TABLE
  2
DIMSTYLE
 70
     2
  0
DIMSTYLE
  2
STANDARD
 70
     0
  3

  4

  5

  6

  7

 40
1.0
 41
0.18
 42
0.0625
 43
0.38
 44
0.18
 45
0.0
 46
0.0
 47
0.0
 48
0.0
140
0.18
141
0.09
142
0.0
143
25.399999999999999
144
1.0
145
0.0
146
1.0
147
0.09
 71
     0
 72
     0
 73
     1
 74
     1
 75
     0
 76
     0
 77
     0
 78
     0
170
     0
171
     2
172
     0
173
     0
174
     0
175
     0
176
     0
177
     0
178
     0
  0
ENDTAB
  0
ENDSEC
  0
SECTION
  2
BLOCKS
  0
BLOCK
  8
0
  2
$MODEL_SPACE
 70
     0
 10
0.0
 20
0.0
 30
0.0
  3
$MODEL_SPACE
  1

  0
ENDBLK
  5
72
  8
0
  0
BLOCK
 67
     1
  8
0
  2
$PAPER_SPACE
 70
     0
 10
0.0
 20
0.0
 30
0.0
  3
$PAPER_SPACE
  1

  0
ENDBLK
  5
76
 67
     1
  8
0
  0
BLOCK
  8
0
  2
*U20
 70
     1
 10
0.0
 20
0.0
 30
0.0
  3
*U20
  1

  0
SOLID
  5
32D
  8
0
  6
CONTINUOUS
 10
-550.27940071595845
 20
89.835663915141353
 30
0.0
 11
-551.23610929687129
 21
89.645362746419565
 31
0.0
 12
-549.32269213504583
 22
89.645362746419565
 32
0.0
 13
-549.32269213504583
 23
89.645362746419565
 33
0.0
210
0.0
220
0.0
230
1.0
  0
SOLID
  5
32E
  8
0
  6
CONTINUOUS
 10
-551.23610929687129
 20
89.645362746419565
 30
0.0
 11
-552.047167668925
 21
89.103430868107694
 31
0.0
 12
-548.51163376299212
 22
89.103430868107694
 32
0.0
 13
-548.51163376299212
 23
89.103430868107694
 33
0.0
210
0.0
220
0.0
230
1.0
  0
SOLID
  5
32F
  8
0
  6
CONTINUOUS
 10
551.23610929687129
 20
89.645362746419565
 30
0.0
 11
549.32269213504583
 21
89.645362746419565
 31
0.0
 12
548.51163376299212
 22
89.103430868107694
 32
0.0
 13
548.51163376299212
 23
89.103430868107694
 33
0.0
210
0.0
220
0.0
230
-1.0
  0
SOLID
  5
330
  8
0
  6
CONTINUOUS
 10
-552.047167668925
 20
89.103430868107694
 30
0.0
 11
-552.58909954723686
 21
88.292372496054028
 31
0.0
 12
-547.96970188468026
 22
88.292372496054028
 32
0.0
 13
-547.96970188468026
 23
88.292372496054028
 33
0.0
210
0.0
220
0.0
230
1.0
  0
SOLID
  5
331
  8
0
  6
CONTINUOUS
 10
552.047167668925
 20
89.103430868107694
 30
0.0
 11
548.51163376299212
 21
89.103430868107694
 31
0.0
 12
547.96970188468026
 22
88.292372496054028
 32
0.0
 13
547.96970188468026
 23
88.292372496054028
 33
0.0
210
0.0
220
0.0
230
-1.0
  0
SOLID
  5
332
  8
0
  6
CONTINUOUS
 10
-552.58909954723686
 20
88.292372496054028
 30
0.0
 11
-552.77940071595856
 21
87.335663915141268
 31
0.0
 12
-547.77940071595845
 22
87.335663915141268
 32
0.0
 13
-547.77940071595845
 23
87.335663915141268
 33
0.0
210
0.0
220
0.0
230
1.0
  0
SOLID
  5
333
  8
0
  6
CONTINUOUS
 10
552.58909954723686
 20
88.292372496054028
 30
0.0
 11
547.96970188468026
 21
88.292372496054028
 31
0.0
 12
547.77940071595845
 22
87.335663915141268
 32
0.0
 13
547.77940071595845
 23
87.335663915141268
 33
0.0
210
0.0
220
0.0
230
-1.0
  0
SOLID
  5
334
  8
0
  6
CONTINUOUS
 10
-552.77940071595856
 20
87.335663915141268
 30
0.0
 11
-552.58909954723686
 21
86.378955334228507
 31
0.0
 12
-547.96970188468026
 22
86.378955334228507
 32
0.0
 13
-547.96970188468026
 23
86.378955334228507
 33
0.0
210
0.0
220
0.0
230
1.0
  0
SOLID
  5
335
  8
0
  6
CONTINUOUS
 10
552.77940071595856
 20
87.335663915141268
 30
0.0
 11
547.77940071595845
 21
87.335663915141268
 31
0.0
 12
547.96970188468026
 22
86.378955334228507
 32
0.0
 13
547.96970188468026
 23
86.378955334228507
 33
0.0
210
0.0
220
0.0
230
-1.0
  0
SOLID
  5
336
  8
0
  6
CONTINUOUS
 10
-552.58909954723686
 20
86.378955334228507
 30
0.0
 11
-552.047167668925
 21
85.567896962174828
 31
0.0
 12
-548.51163376299212
 22
85.567896962174828
 32
0.0
 13
-548.51163376299212
 23
85.567896962174828
 33
0.0
210
0.0
220
0.0
230
1.0
  0
SOLID
  5
337
  8
0
  6
CONTINUOUS
 10
552.58909954723686
 20
86.378955334228507
 30
0.0
 11
547.96970188468026
 21
86.378955334228507
 31
0.0
 12
548.51163376299212
 22
85.567896962174828
 32
0.0
 13
548.51163376299212
 23
85.567896962174828
 33
0.0
210
0.0
220
0.0
230
-1.0
  0
SOLID
  5
338
  8
0
  6
CONTINUOUS
 10
551.23610929687129
 20
85.025965083862971
 30
0.0
 11
549.32269213504583
 21
85.025965083862971
 31
0.0
 12
550.27940071595845
 22
84.835663915141183
 32
0.0
 13
550.27940071595845
 23
84.835663915141183
 33
0.0
210
0.0
220
0.0
230
-1.0
  0
SOLID
  5
339
  8
0
  6
CONTINUOUS
 10
-552.047167668925
 20
85.567896962174828
 30
0.0
 11
-551.23610929687129
 21
85.025965083862971
 31
0.0
 12
-549.32269213504583
 22
85.025965083862971
 32
0.0
 13
-549.32269213504583
 23
85.025965083862971
 33
0.0
210
0.0
220
0.0
230
1.0
  0
SOLID
  5
33A
  8
0
  6
CONTINUOUS
 10
552.047167668925
 20
85.567896962174828
 30
0.0
 11
548.51163376299212
 21
85.567896962174828
 31
0.0
 12
549.32269213504583
 22
85.025965083862971
 32
0.0
 13
549.32269213504583
 23
85.025965083862971
 33
0.0
210
0.0
220
0.0
230
-1.0
  0
LINE
  5
33B
  8
0
  6
CONTINUOUS
 10
-550.27940071595845
 20
89.835663915141353
 30
0.0
 11
-551.23610929687129
 21
89.645362746419565
 31
0.0
  0
LINE
  5
33C
  8
0
  6
CONTINUOUS
 10
-549.32269213504583
 20
89.645362746419565
 30
0.0
 11
-550.27940071595845
 21
89.835663915141353
 31
0.0
  0
LINE
  5
33D
  8
0
  6
CONTINUOUS
 10
-551.23610929687129
 20
89.645362746419565
 30
0.0
 11
-552.047167668925
 21
89.103430868107694
 31
0.0
  0
LINE
  5
33E
  8
0
  6
CONTINUOUS
 10
-549.32269213504583
 20
89.645362746419565
 30
0.0
 11
-548.51163376299212
 21
89.103430868107694
 31
0.0
  0
LINE
  5
33F
  8
0
  6
CONTINUOUS
 10
-552.047167668925
 20
89.103430868107694
 30
0.0
 11
-552.58909954723686
 21
88.292372496054028
 31
0.0
  0
LINE
  5
340
  8
0
  6
CONTINUOUS
 10
-548.51163376299212
 20
89.103430868107694
 30
0.0
 11
-547.96970188468026
 21
88.292372496054028
 31
0.0
  0
LINE
  5
341
  8
0
  6
CONTINUOUS
 10
-552.58909954723686
 20
88.292372496054028
 30
0.0
 11
-552.77940071595856
 21
87.335663915141268
 31
0.0
  0
LINE
  5
342
  8
0
  6
CONTINUOUS
 10
-547.96970188468026
 20
88.292372496054028
 30
0.0
 11
-547.77940071595845
 21
87.335663915141268
 31
0.0
  0
LINE
  5
343
  8
0
  6
CONTINUOUS
 10
-552.77940071595856
 20
87.335663915141268
 30
0.0
 11
-552.58909954723686
 21
86.378955334228507
 31
0.0
  0
LINE
  5
344
  8
0
  6
CONTINUOUS
 10
-547.77940071595845
 20
87.335663915141268
 30
0.0
 11
-547.96970188468026
 21
86.378955334228507
 31
0.0
  0
LINE
  5
345
  8
0
  6
CONTINUOUS
 10
-552.58909954723686
 20
86.378955334228507
 30
0.0
 11
-552.047167668925
 21
85.567896962174828
 31
0.0
  0
LINE
  5
346
  8
0
  6
CONTINUOUS
 10
-547.96970188468026
 20
86.378955334228507
 30
0.0
 11
-548.51163376299212
 21
85.567896962174828
 31
0.0
  0
LINE
  5
347
  8
0
  6
CONTINUOUS
 10
-549.32269213504583
 20
85.025965083862971
 30
0.0
 11
-550.27940071595845
 21
84.835663915141183
 31
0.0
  0
LINE
  5
348
  8
0
  6
CONTINUOUS
 10
-550.27940071595845
 20
84.835663915141183
 30
0.0
 11
-551.23610929687129
 21
85.025965083862971
 31
0.0
  0
LINE
  5
349
  8
0
  6
CONTINUOUS
 10
-552.047167668925
 20
85.567896962174828
 30
0.0
 11
-551.23610929687129
 21
85.025965083862971
 31
0.0
  0
LINE
  5
34A
  8
0
  6
CONTINUOUS
 10
-548.51163376299212
 20
85.567896962174828
 30
0.0
 11
-549.32269213504583
 21
85.025965083862971
 31
0.0
  0
ENDBLK
  5
34C
  8
0
  0
BLOCK
  8
0
  2
*U21
 70
     1
 10
0.0
 20
0.0
 30
0.0
  3
*U21
  1

  0
TEXT
  5
34E
  8
0
 10
-755.8999087318274
 20
134.96997920506729
 30
0.0
 40
12.2941616766467
  1
Tilcor Antica Tile
  7
ARIAL
  0
ENDBLK
  5
350
  8
0
  0
BLOCK
  8
0
  2
*U22
 70
     1
 10
0.0
 20
0.0
 30
0.0
  3
*U22
  1

  0
SOLID
  5
352
  8
0
  6
CONTINUOUS
 10
-101.79996905039719
 20
22.314108441916339
 30
0.0
 11
-102.7566776313099
 21
22.123807273194551
 31
0.0
 12
-100.84326046948451
 22
22.123807273194551
 32
0.0
 13
-100.84326046948451
 23
22.123807273194551
 33
0.0
  0
SOLID
  5
353
  8
0
  6
CONTINUOUS
 10
-102.7566776313099
 20
22.123807273194551
 30
0.0
 11
-103.56773600336351
 21
21.581875394882701
 31
0.0
 12
-100.0322020974308
 22
21.581875394882701
 32
0.0
 13
-100.0322020974308
 23
21.581875394882701
 33
0.0
210
0.0
220
0.0
230
1.0
  0
SOLID
  5
354
  8
0
  6
CONTINUOUS
 10
102.7566776313099
 20
22.123807273194551
 30
0.0
 11
100.84326046948451
 21
22.123807273194551
 31
0.0
 12
100.0322020974308
 22
21.581875394882701
 32
0.0
 13
100.0322020974308
 23
21.581875394882701
 33
0.0
210
0.0
220
0.0
230
-1.0
  0
SOLID
  5
355
  8
0
  6
CONTINUOUS
 10
-103.56773600336351
 20
21.581875394882701
 30
0.0
 11
-104.10966788167541
 21
20.770817022829061
 31
0.0
 12
-99.490270219118983
 22
20.770817022829061
 32
0.0
 13
-99.490270219118983
 23
20.770817022829061
 33
0.0
  0
SOLID
  5
356
  8
0
  6
CONTINUOUS
 10
103.56773600336351
 20
21.581875394882701
 30
0.0
 11
100.0322020974308
 21
21.581875394882701
 31
0.0
 12
99.490270219118983
 22
20.770817022829061
 32
0.0
 13
99.490270219118983
 23
20.770817022829061
 33
0.0
210
0.0
220
0.0
230
-1.0
  0
SOLID
  5
357
  8
0
  6
CONTINUOUS
 10
-104.10966788167541
 20
20.770817022829061
 30
0.0
 11
-104.29996905039719
 21
19.814108441916328
 31
0.0
 12
-99.299969050397195
 22
19.814108441916328
 32
0.0
 13
-99.299969050397195
 23
19.814108441916328
 33
0.0
210
0.0
220
0.0
230
1.0
  0
SOLID
  5
358
  8
0
  6
CONTINUOUS
 10
104.10966788167541
 20
20.770817022829061
 30
0.0
 11
99.490270219118983
 21
20.770817022829061
 31
0.0
 12
99.299969050397195
 22
19.814108441916328
 32
0.0
 13
99.299969050397195
 23
19.814108441916328
 33
0.0
210
0.0
220
0.0
230
-1.0
  0
SOLID
  5
359
  8
0
  6
CONTINUOUS
 10
-104.29996905039719
 20
19.814108441916328
 30
0.0
 11
-104.10966788167541
 21
18.857399861003611
 31
0.0
 12
-99.490270219118983
 22
18.857399861003611
 32
0.0
 13
-99.490270219118983
 23
18.857399861003611
 33
0.0
  0
SOLID
  5
35A
  8
0
  6
CONTINUOUS
 10
104.29996905039719
 20
19.814108441916328
 30
0.0
 11
99.299969050397195
 21
19.814108441916328
 31
0.0
 12
99.490270219118983
 22
18.857399861003611
 32
0.0
 13
99.490270219118983
 23
18.857399861003611
 33
0.0
210
0.0
220
0.0
230
-1.0
  0
SOLID
  5
35B
  8
0
  6
CONTINUOUS
 10
-104.10966788167541
 20
18.857399861003611
 30
0.0
 11
-103.56773600336351
 21
18.04634148894997
 31
0.0
 12
-100.0322020974308
 22
18.04634148894997
 32
0.0
 13
-100.0322020974308
 23
18.04634148894997
 33
0.0
210
0.0
220
0.0
230
1.0
  0
SOLID
  5
35C
  8
0
  6
CONTINUOUS
 10
104.10966788167541
 20
18.857399861003611
 30
0.0
 11
99.490270219118983
 21
18.857399861003611
 31
0.0
 12
100.0322020974308
 22
18.04634148894997
 32
0.0
 13
100.0322020974308
 23
18.04634148894997
 33
0.0
210
0.0
220
0.0
230
-1.0
  0
SOLID
  5
35D
  8
0
  6
CONTINUOUS
 10
102.7566776313099
 20
17.50440961063812
 30
0.0
 11
100.84326046948451
 21
17.50440961063812
 31
0.0
 12
101.79996905039719
 22
17.314108441916328
 32
0.0
 13
101.79996905039719
 23
17.314108441916328
 33
0.0
210
0.0
220
0.0
230
-1.0
  0
SOLID
  5
35E
  8
0
  6
CONTINUOUS
 10
-103.56773600336351
 20
18.04634148894997
 30
0.0
 11
-102.7566776313099
 21
17.50440961063812
 31
0.0
 12
-100.84326046948451
 22
17.50440961063812
 32
0.0
 13
-100.84326046948451
 23
17.50440961063812
 33
0.0
210
0.0
220
0.0
230
1.0
  0
SOLID
  5
35F
  8
0
  6
CONTINUOUS
 10
103.56773600336351
 20
18.04634148894997
 30
0.0
 11
100.0322020974308
 21
18.04634148894997
 31
0.0
 12
100.84326046948451
 22
17.50440961063812
 32
0.0
 13
100.84326046948451
 23
17.50440961063812
 33
0.0
210
0.0
220
0.0
230
-1.0
  0
LINE
  5
360
  8
0
  6
CONTINUOUS
 10
-101.79996905039719
 20
22.314108441916339
 30
0.0
 11
-102.7566776313099
 21
22.123807273194551
 31
0.0
  0
LINE
  5
361
  8
0
  6
CONTINUOUS
 10
-100.84326046948451
 20
22.123807273194551
 30
0.0
 11
-101.79996905039719
 21
22.314108441916339
 31
0.0
  0
LINE
  5
362
  8
0
  6
CONTINUOUS
 10
-102.7566776313099
 20
22.123807273194551
 30
0.0
 11
-103.56773600336351
 21
21.581875394882701
 31
0.0
  0
LINE
  5
363
  8
0
  6
CONTINUOUS
 10
-100.84326046948451
 20
22.123807273194551
 30
0.0
 11
-100.0322020974308
 21
21.581875394882701
 31
0.0
  0
LINE
  5
364
  8
0
  6
CONTINUOUS
 10
-103.56773600336351
 20
21.581875394882701
 30
0.0
 11
-104.10966788167541
 21
20.770817022829061
 31
0.0
  0
LINE
  5
365
  8
0
  6
CONTINUOUS
 10
-100.0322020974308
 20
21.581875394882701
 30
0.0
 11
-99.490270219118983
 21
20.770817022829061
 31
0.0
  0
LINE
  5
366
  8
0
  6
CONTINUOUS
 10
-104.10966788167541
 20
20.770817022829061
 30
0.0
 11
-104.29996905039719
 21
19.814108441916328
 31
0.0
  0
LINE
  5
367
  8
0
  6
CONTINUOUS
 10
-99.490270219118983
 20
20.770817022829061
 30
0.0
 11
-99.299969050397195
 21
19.814108441916328
 31
0.0
  0
LINE
  5
368
  8
0
  6
CONTINUOUS
 10
-104.29996905039719
 20
19.814108441916328
 30
0.0
 11
-104.10966788167541
 21
18.857399861003611
 31
0.0
  0
LINE
  5
369
  8
0
  6
CONTINUOUS
 10
-99.299969050397195
 20
19.814108441916328
 30
0.0
 11
-99.490270219118983
 21
18.857399861003611
 31
0.0
  0
LINE
  5
36A
  8
0
  6
CONTINUOUS
 10
-104.10966788167541
 20
18.857399861003611
 30
0.0
 11
-103.56773600336351
 21
18.04634148894997
 31
0.0
  0
LINE
  5
36B
  8
0
  6
CONTINUOUS
 10
-99.490270219118983
 20
18.857399861003611
 30
0.0
 11
-100.0322020974308
 21
18.04634148894997
 31
0.0
  0
LINE
  5
36C
  8
0
  6
CONTINUOUS
 10
-100.84326046948451
 20
17.50440961063812
 30
0.0
 11
-101.79996905039719
 21
17.314108441916328
 31
0.0
  0
LINE
  5
36D
  8
0
  6
CONTINUOUS
 10
-101.79996905039719
 20
17.314108441916328
 30
0.0
 11
-102.7566776313099
 21
17.50440961063812
 31
0.0
  0
LINE
  5
36E
  8
0
  6
CONTINUOUS
 10
-103.56773600336351
 20
18.04634148894997
 30
0.0
 11
-102.7566776313099
 21
17.50440961063812
 31
0.0
  0
LINE
  5
36F
  8
0
  6
CONTINUOUS
 10
-100.0322020974308
 20
18.04634148894997
 30
0.0
 11
-100.84326046948451
 21
17.50440961063812
 31
0.0
  0
ENDBLK
  5
371
  8
0
  0
BLOCK
  8
0
  2
*U23
 70
     1
 10
0.0
 20
0.0
 30
0.0
  3
*U23
  1

  0
TEXT
  5
373
  8
0
 10
81.624974324348884
 20
33.948723826531712
 30
0.0
 40
12.2941616766467
  1
Underlay carried up face of
  7
ARIAL
  0
TEXT
  5
374
  8
0
 10
82.815813995620275
 20
14.717954595762491
 30
0.0
 40
12.2941616766467
  1
framing behind upstand
  7
ARIAL
  0
TEXT
  5
375
  8
0
 10
82.815813995620275
 20
-4.5128146350067322
 30
0.0
 40
12.2941616766467
  1
flashing
  7
ARIAL
  0
ENDBLK
  5
377
  8
0
  0
BLOCK
  8
0
  2
*U24
 70
     1
 10
0.0
 20
0.0
 30
0.0
  3
*U24
  1

  0
SOLID
  5
379
  8
0
  6
CONTINUOUS
 10
-462.29578876225571
 20
11.85920135944551
 30
0.0
 11
-463.25249734316839
 21
11.668900190723731
 31
0.0
 12
-461.33908018134292
 22
11.668900190723731
 32
0.0
 13
-461.33908018134292
 23
11.668900190723731
 33
0.0
  0
SOLID
  5
37A
  8
0
  6
CONTINUOUS
 10
-463.25249734316839
 20
11.668900190723731
 30
0.0
 11
-464.06355571522198
 21
11.12696831241189
 31
0.0
 12
-460.52802180928933
 22
11.12696831241189
 32
0.0
 13
-460.52802180928933
 23
11.12696831241189
 33
0.0
210
0.0
220
0.0
230
1.0
  0
SOLID
  5
37B
  8
0
  6
CONTINUOUS
 10
463.25249734316839
 20
11.668900190723731
 30
0.0
 11
461.33908018134292
 21
11.668900190723731
 31
0.0
 12
460.52802180928933
 22
11.12696831241189
 32
0.0
 13
460.52802180928933
 23
11.12696831241189
 33
0.0
210
0.0
220
0.0
230
-1.0
  0
SOLID
  5
37C
  8
0
  6
CONTINUOUS
 10
-464.06355571522198
 20
11.12696831241189
 30
0.0
 11
-464.60548759353378
 21
10.315909940358249
 31
0.0
 12
-459.98608993097753
 22
10.315909940358249
 32
0.0
 13
-459.98608993097753
 23
10.315909940358249
 33
0.0
  0
SOLID
  5
37D
  8
0
  6
CONTINUOUS
 10
464.06355571522198
 20
11.12696831241189
 30
0.0
 11
460.52802180928933
 21
11.12696831241189
 31
0.0
 12
459.98608993097753
 22
10.315909940358249
 32
0.0
 13
459.98608993097753
 23
10.315909940358249
 33
0.0
210
0.0
220
0.0
230
-1.0
  0
SOLID
  5
37E
  8
0
  6
CONTINUOUS
 10
-464.60548759353378
 20
10.315909940358249
 30
0.0
 11
-464.7957887622556
 21
9.3592013594455441
 31
0.0
 12
-459.79578876225571
 22
9.3592013594455441
 32
0.0
 13
-459.79578876225571
 23
9.3592013594455441
 33
0.0
210
0.0
220
0.0
230
1.0
  0
SOLID
  5
37F
  8
0
  6
CONTINUOUS
 10
464.60548759353378
 20
10.315909940358249
 30
0.0
 11
459.98608993097753
 21
10.315909940358249
 31
0.0
 12
459.79578876225571
 22
9.3592013594455441
 32
0.0
 13
459.79578876225571
 23
9.3592013594455441
 33
0.0
210
0.0
220
0.0
230
-1.0
  0
SOLID
  5
380
  8
0
  6
CONTINUOUS
 10
-464.7957887622556
 20
9.3592013594455441
 30
0.0
 11
-464.60548759353378
 21
8.4024927785328316
 31
0.0
 12
-459.98608993097753
 22
8.4024927785328316
 32
0.0
 13
-459.98608993097753
 23
8.4024927785328316
 33
0.0
210
0.0
220
0.0
230
1.0
  0
SOLID
  5
381
  8
0
  6
CONTINUOUS
 10
464.7957887622556
 20
9.3592013594455441
 30
0.0
 11
459.79578876225571
 21
9.3592013594455441
 31
0.0
 12
459.98608993097753
 22
8.4024927785328316
 32
0.0
 13
459.98608993097753
 23
8.4024927785328316
 33
0.0
210
0.0
220
0.0
230
-1.0
  0
SOLID
  5
382
  8
0
  6
CONTINUOUS
 10
-464.60548759353378
 20
8.4024927785328316
 30
0.0
 11
-464.06355571522198
 21
7.5914344064791948
 31
0.0
 12
-460.52802180928933
 22
7.5914344064791948
 32
0.0
 13
-460.52802180928933
 23
7.5914344064791948
 33
0.0
210
0.0
220
0.0
230
1.0
  0
SOLID
  5
383
  8
0
  6
CONTINUOUS
 10
464.60548759353378
 20
8.4024927785328316
 30
0.0
 11
459.98608993097753
 21
8.4024927785328316
 31
0.0
 12
460.52802180928933
 22
7.5914344064791948
 32
0.0
 13
460.52802180928933
 23
7.5914344064791948
 33
0.0
210
0.0
220
0.0
230
-1.0
  0
SOLID
  5
384
  8
0
  6
CONTINUOUS
 10
463.25249734316839
 20
7.0495025281673529
 30
0.0
 11
461.33908018134292
 21
7.0495025281673529
 31
0.0
 12
462.29578876225571
 22
6.8592013594455734
 32
0.0
 13
462.29578876225571
 23
6.8592013594455734
 33
0.0
210
0.0
220
0.0
230
-1.0
  0
SOLID
  5
385
  8
0
  6
CONTINUOUS
 10
-464.06355571522198
 20
7.5914344064791948
 30
0.0
 11
-463.25249734316839
 21
7.0495025281673529
 31
0.0
 12
-461.33908018134292
 22
7.0495025281673529
 32
0.0
 13
-461.33908018134292
 23
7.0495025281673529
 33
0.0
  0
SOLID
  5
386
  8
0
  6
CONTINUOUS
 10
464.06355571522198
 20
7.5914344064791948
 30
0.0
 11
460.52802180928933
 21
7.5914344064791948
 31
0.0
 12
461.33908018134292
 22
7.0495025281673529
 32
0.0
 13
461.33908018134292
 23
7.0495025281673529
 33
0.0
210
0.0
220
0.0
230
-1.0
  0
LINE
  5
387
  8
0
  6
CONTINUOUS
 10
-462.29578876225571
 20
11.85920135944551
 30
0.0
 11
-463.25249734316839
 21
11.668900190723731
 31
0.0
  0
LINE
  5
388
  8
0
  6
CONTINUOUS
 10
-461.33908018134292
 20
11.668900190723731
 30
0.0
 11
-462.29578876225571
 21
11.85920135944551
 31
0.0
  0
LINE
  5
389
  8
0
  6
CONTINUOUS
 10
-463.25249734316839
 20
11.668900190723731
 30
0.0
 11
-464.06355571522198
 21
11.12696831241189
 31
0.0
  0
LINE
  5
38A
  8
0
  6
CONTINUOUS
 10
-461.33908018134292
 20
11.668900190723731
 30
0.0
 11
-460.52802180928933
 21
11.12696831241189
 31
0.0
  0
LINE
  5
38B
  8
0
  6
CONTINUOUS
 10
-464.06355571522198
 20
11.12696831241189
 30
0.0
 11
-464.60548759353378
 21
10.315909940358249
 31
0.0
  0
LINE
  5
38C
  8
0
  6
CONTINUOUS
 10
-460.52802180928933
 20
11.12696831241189
 30
0.0
 11
-459.98608993097753
 21
10.315909940358249
 31
0.0
  0
LINE
  5
38D
  8
0
  6
CONTINUOUS
 10
-464.60548759353378
 20
10.315909940358249
 30
0.0
 11
-464.7957887622556
 21
9.3592013594455441
 31
0.0
  0
LINE
  5
38E
  8
0
  6
CONTINUOUS
 10
-459.98608993097753
 20
10.315909940358249
 30
0.0
 11
-459.79578876225571
 21
9.3592013594455441
 31
0.0
  0
LINE
  5
38F
  8
0
  6
CONTINUOUS
 10
-464.7957887622556
 20
9.3592013594455441
 30
0.0
 11
-464.60548759353378
 21
8.4024927785328316
 31
0.0
  0
LINE
  5
390
  8
0
  6
CONTINUOUS
 10
-459.79578876225571
 20
9.3592013594455441
 30
0.0
 11
-459.98608993097753
 21
8.4024927785328316
 31
0.0
  0
LINE
  5
391
  8
0
  6
CONTINUOUS
 10
-464.60548759353378
 20
8.4024927785328316
 30
0.0
 11
-464.06355571522198
 21
7.5914344064791948
 31
0.0
  0
LINE
  5
392
  8
0
  6
CONTINUOUS
 10
-459.98608993097753
 20
8.4024927785328316
 30
0.0
 11
-460.52802180928933
 21
7.5914344064791948
 31
0.0
  0
LINE
  5
393
  8
0
  6
CONTINUOUS
 10
-461.33908018134292
 20
7.0495025281673529
 30
0.0
 11
-462.29578876225571
 21
6.8592013594455734
 31
0.0
  0
LINE
  5
394
  8
0
  6
CONTINUOUS
 10
-462.29578876225571
 20
6.8592013594455734
 30
0.0
 11
-463.25249734316839
 21
7.0495025281673529
 31
0.0
  0
LINE
  5
395
  8
0
  6
CONTINUOUS
 10
-464.06355571522198
 20
7.5914344064791948
 30
0.0
 11
-463.25249734316839
 21
7.0495025281673529
 31
0.0
  0
LINE
  5
396
  8
0
  6
CONTINUOUS
 10
-460.52802180928933
 20
7.5914344064791948
 30
0.0
 11
-461.33908018134292
 21
7.0495025281673529
 31
0.0
  0
ENDBLK
  5
398
  8
0
  0
BLOCK
  8
0
  2
*U25
 70
     1
 10
0.0
 20
0.0
 30
0.0
  3
*U25
  1

  0
TEXT
  5
39A
  8
0
 10
-756.84754875192345
 20
-190.7716023217356
 30
0.0
 40
12.2941616766467
  1
Underlay
  7
ARIAL
  0
ENDBLK
  5
39C
  8
0
  0
BLOCK
  8
0
  2
*U26
 70
     1
 10
0.0
 20
0.0
 30
0.0
  3
*U26
  1

  0
SOLID
  5
39E
  8
0
  6
CONTINUOUS
 10
-128.11066647062989
 20
251.09159605552841
 30
0.0
 11
-129.0673750515426
 21
250.90129488680671
 31
0.0
 12
-127.1539578897172
 22
250.90129488680671
 32
0.0
 13
-127.1539578897172
 23
250.90129488680671
 33
0.0
210
0.0
220
0.0
230
1.0
  0
SOLID
  5
39F
  8
0
  6
CONTINUOUS
 10
-129.0673750515426
 20
250.90129488680671
 30
0.0
 11
-129.87843342359631
 21
250.3593630084948
 31
0.0
 12
-126.3428995176635
 22
250.3593630084948
 32
0.0
 13
-126.3428995176635
 23
250.3593630084948
 33
0.0
210
0.0
220
0.0
230
1.0
  0
SOLID
  5
3A0
  8
0
  6
CONTINUOUS
 10
129.0673750515426
 20
250.90129488680671
 30
0.0
 11
127.1539578897172
 21
250.90129488680671
 31
0.0
 12
126.3428995176635
 22
250.3593630084948
 32
0.0
 13
126.3428995176635
 23
250.3593630084948
 33
0.0
210
0.0
220
0.0
230
-1.0
  0
SOLID
  5
3A1
  8
0
  6
CONTINUOUS
 10
-129.87843342359631
 20
250.3593630084948
 30
0.0
 11
-130.42036530190811
 21
249.54830463644109
 31
0.0
 12
-125.8009676393517
 22
249.54830463644109
 32
0.0
 13
-125.8009676393517
 23
249.54830463644109
 33
0.0
210
0.0
220
0.0
230
1.0
  0
SOLID
  5
3A2
  8
0
  6
CONTINUOUS
 10
129.87843342359631
 20
250.3593630084948
 30
0.0
 11
126.3428995176635
 21
250.3593630084948
 31
0.0
 12
125.8009676393517
 22
249.54830463644109
 32
0.0
 13
125.8009676393517
 23
249.54830463644109
 33
0.0
210
0.0
220
0.0
230
-1.0
  0
SOLID
  5
3A3
  8
0
  6
CONTINUOUS
 10
-130.42036530190811
 20
249.54830463644109
 30
0.0
 11
-130.61066647062989
 21
248.59159605552841
 31
0.0
 12
-125.61066647062989
 22
248.59159605552841
 32
0.0
 13
-125.61066647062989
 23
248.59159605552841
 33
0.0
210
0.0
220
0.0
230
1.0
  0
SOLID
  5
3A4
  8
0
  6
CONTINUOUS
 10
130.42036530190811
 20
249.54830463644109
 30
0.0
 11
125.8009676393517
 21
249.54830463644109
 31
0.0
 12
125.61066647062989
 22
248.59159605552841
 32
0.0
 13
125.61066647062989
 23
248.59159605552841
 33
0.0
210
0.0
220
0.0
230
-1.0
  0
SOLID
  5
3A5
  8
0
  6
CONTINUOUS
 10
-130.61066647062989
 20
248.59159605552841
 30
0.0
 11
-130.42036530190811
 21
247.63488747461571
 31
0.0
 12
-125.8009676393517
 22
247.63488747461571
 32
0.0
 13
-125.8009676393517
 23
247.63488747461571
 33
0.0
  0
SOLID
  5
3A6
  8
0
  6
CONTINUOUS
 10
130.61066647062989
 20
248.59159605552841
 30
0.0
 11
125.61066647062989
 21
248.59159605552841
 31
0.0
 12
125.8009676393517
 22
247.63488747461571
 32
0.0
 13
125.8009676393517
 23
247.63488747461571
 33
0.0
210
0.0
220
0.0
230
-1.0
  0
SOLID
  5
3A7
  8
0
  6
CONTINUOUS
 10
-130.42036530190811
 20
247.63488747461571
 30
0.0
 11
-129.87843342359631
 21
246.823829102562
 31
0.0
 12
-126.3428995176635
 22
246.823829102562
 32
0.0
 13
-126.3428995176635
 23
246.823829102562
 33
0.0
210
0.0
220
0.0
230
1.0
  0
SOLID
  5
3A8
  8
0
  6
CONTINUOUS
 10
130.42036530190811
 20
247.63488747461571
 30
0.0
 11
125.8009676393517
 21
247.63488747461571
 31
0.0
 12
126.3428995176635
 22
246.823829102562
 32
0.0
 13
126.3428995176635
 23
246.823829102562
 33
0.0
210
0.0
220
0.0
230
-1.0
  0
SOLID
  5
3A9
  8
0
  6
CONTINUOUS
 10
129.0673750515426
 20
246.2818972242502
 30
0.0
 11
127.1539578897172
 21
246.2818972242502
 31
0.0
 12
128.11066647062989
 22
246.09159605552841
 32
0.0
 13
128.11066647062989
 23
246.09159605552841
 33
0.0
210
0.0
220
0.0
230
-1.0
  0
SOLID
  5
3AA
  8
0
  6
CONTINUOUS
 10
-129.87843342359631
 20
246.823829102562
 30
0.0
 11
-129.0673750515426
 21
246.2818972242502
 31
0.0
 12
-127.1539578897172
 22
246.2818972242502
 32
0.0
 13
-127.1539578897172
 23
246.2818972242502
 33
0.0
210
0.0
220
0.0
230
1.0
  0
SOLID
  5
3AB
  8
0
  6
CONTINUOUS
 10
129.87843342359631
 20
246.823829102562
 30
0.0
 11
126.3428995176635
 21
246.823829102562
 31
0.0
 12
127.1539578897172
 22
246.2818972242502
 32
0.0
 13
127.1539578897172
 23
246.2818972242502
 33
0.0
210
0.0
220
0.0
230
-1.0
  0
LINE
  5
3AC
  8
0
  6
CONTINUOUS
 10
-128.11066647062989
 20
251.09159605552841
 30
0.0
 11
-129.0673750515426
 21
250.90129488680671
 31
0.0
  0
LINE
  5
3AD
  8
0
  6
CONTINUOUS
 10
-127.1539578897172
 20
250.90129488680671
 30
0.0
 11
-128.11066647062989
 21
251.09159605552841
 31
0.0
  0
LINE
  5
3AE
  8
0
  6
CONTINUOUS
 10
-129.0673750515426
 20
250.90129488680671
 30
0.0
 11
-129.87843342359631
 21
250.3593630084948
 31
0.0
  0
LINE
  5
3AF
  8
0
  6
CONTINUOUS
 10
-127.1539578897172
 20
250.90129488680671
 30
0.0
 11
-126.3428995176635
 21
250.3593630084948
 31
0.0
  0
LINE
  5
3B0
  8
0
  6
CONTINUOUS
 10
-129.87843342359631
 20
250.3593630084948
 30
0.0
 11
-130.42036530190811
 21
249.54830463644109
 31
0.0
  0
LINE
  5
3B1
  8
0
  6
CONTINUOUS
 10
-126.3428995176635
 20
250.3593630084948
 30
0.0
 11
-125.8009676393517
 21
249.54830463644109
 31
0.0
  0
LINE
  5
3B2
  8
0
  6
CONTINUOUS
 10
-130.42036530190811
 20
249.54830463644109
 30
0.0
 11
-130.61066647062989
 21
248.59159605552841
 31
0.0
  0
LINE
  5
3B3
  8
0
  6
CONTINUOUS
 10
-125.8009676393517
 20
249.54830463644109
 30
0.0
 11
-125.61066647062989
 21
248.59159605552841
 31
0.0
  0
LINE
  5
3B4
  8
0
  6
CONTINUOUS
 10
-130.61066647062989
 20
248.59159605552841
 30
0.0
 11
-130.42036530190811
 21
247.63488747461571
 31
0.0
  0
LINE
  5
3B5
  8
0
  6
CONTINUOUS
 10
-125.61066647062989
 20
248.59159605552841
 30
0.0
 11
-125.8009676393517
 21
247.63488747461571
 31
0.0
  0
LINE
  5
3B6
  8
0
  6
CONTINUOUS
 10
-130.42036530190811
 20
247.63488747461571
 30
0.0
 11
-129.87843342359631
 21
246.823829102562
 31
0.0
  0
LINE
  5
3B7
  8
0
  6
CONTINUOUS
 10
-125.8009676393517
 20
247.63488747461571
 30
0.0
 11
-126.3428995176635
 21
246.823829102562
 31
0.0
  0
LINE
  5
3B8
  8
0
  6
CONTINUOUS
 10
-127.1539578897172
 20
246.2818972242502
 30
0.0
 11
-128.11066647062989
 21
246.09159605552841
 31
0.0
  0
LINE
  5
3B9
  8
0
  6
CONTINUOUS
 10
-128.11066647062989
 20
246.09159605552841
 30
0.0
 11
-129.0673750515426
 21
246.2818972242502
 31
0.0
  0
LINE
  5
3BA
  8
0
  6
CONTINUOUS
 10
-129.87843342359631
 20
246.823829102562
 30
0.0
 11
-129.0673750515426
 21
246.2818972242502
 31
0.0
  0
LINE
  5
3BB
  8
0
  6
CONTINUOUS
 10
-126.3428995176635
 20
246.823829102562
 30
0.0
 11
-127.1539578897172
 21
246.2818972242502
 31
0.0
  0
ENDBLK
  5
3BD
  8
0
  0
BLOCK
  8
0
  2
*U27
 70
     1
 10
0.0
 20
0.0
 30
0.0
  3
*U27
  1

  0
TEXT
  5
3BF
  8
0
 10
-755.41068214084885
 20
325.90032021403999
 30
0.0
 40
12.2941616766467
  1
Stucco / Siding building wrap
  7
ARIAL
  0
ENDBLK
  5
3C1
  8
0
  0
BLOCK
  8
0
  2
*U28
 70
     1
 10
0.0
 20
0.0
 30
0.0
  3
*U28
  1

  0
SOLID
  5
3C3
  8
0
  6
CONTINUOUS
 10
-543.51095923631044
 20
36.691662162861043
 30
0.0
 11
-544.46766781722306
 21
36.501360994139262
 31
0.0
 12
-542.55425065539771
 22
36.501360994139262
 32
0.0
 13
-542.55425065539771
 23
36.501360994139262
 33
0.0
210
0.0
220
0.0
230
1.0
  0
SOLID
  5
3C4
  8
0
  6
CONTINUOUS
 10
-544.46766781722306
 20
36.501360994139262
 30
0.0
 11
-545.27872618927677
 21
35.95942911582739
 31
0.0
 12
-541.743192283344
 22
35.95942911582739
 32
0.0
 13
-541.743192283344
 23
35.95942911582739
 33
0.0
210
0.0
220
0.0
230
1.0
  0
SOLID
  5
3C5
  8
0
  6
CONTINUOUS
 10
544.46766781722306
 20
36.501360994139262
 30
0.0
 11
542.55425065539771
 21
36.501360994139262
 31
0.0
 12
541.743192283344
 22
35.95942911582739
 32
0.0
 13
541.743192283344
 23
35.95942911582739
 33
0.0
210
0.0
220
0.0
230
-1.0
  0
SOLID
  5
3C6
  8
0
  6
CONTINUOUS
 10
-545.27872618927677
 20
35.95942911582739
 30
0.0
 11
-545.82065806758874
 21
35.148370743773732
 31
0.0
 12
-541.20126040503214
 22
35.148370743773732
 32
0.0
 13
-541.20126040503214
 23
35.148370743773732
 33
0.0
210
0.0
220
0.0
230
1.0
  0
SOLID
  5
3C7
  8
0
  6
CONTINUOUS
 10
545.27872618927677
 20
35.95942911582739
 30
0.0
 11
541.743192283344
 21
35.95942911582739
 31
0.0
 12
541.20126040503214
 22
35.148370743773732
 32
0.0
 13
541.20126040503214
 23
35.148370743773732
 33
0.0
210
0.0
220
0.0
230
-1.0
  0
SOLID
  5
3C8
  8
0
  6
CONTINUOUS
 10
-545.82065806758874
 20
35.148370743773732
 30
0.0
 11
-546.01095923631055
 21
34.191662162860972
 31
0.0
 12
-541.01095923631033
 22
34.191662162860972
 32
0.0
 13
-541.01095923631033
 23
34.191662162860972
 33
0.0
210
0.0
220
0.0
230
1.0
  0
SOLID
  5
3C9
  8
0
  6
CONTINUOUS
 10
545.82065806758874
 20
35.148370743773732
 30
0.0
 11
541.20126040503214
 21
35.148370743773732
 31
0.0
 12
541.01095923631033
 22
34.191662162860972
 32
0.0
 13
541.01095923631033
 23
34.191662162860972
 33
0.0
210
0.0
220
0.0
230
-1.0
  0
SOLID
  5
3CA
  8
0
  6
CONTINUOUS
 10
-546.01095923631055
 20
34.191662162860972
 30
0.0
 11
-545.82065806758874
 21
33.234953581948218
 31
0.0
 12
-541.20126040503214
 22
33.234953581948218
 32
0.0
 13
-541.20126040503214
 23
33.234953581948218
 33
0.0
210
0.0
220
0.0
230
1.0
  0
SOLID
  5
3CB
  8
0
  6
CONTINUOUS
 10
546.01095923631055
 20
34.191662162860972
 30
0.0
 11
541.01095923631033
 21
34.191662162860972
 31
0.0
 12
541.20126040503214
 22
33.234953581948218
 32
0.0
 13
541.20126040503214
 23
33.234953581948218
 33
0.0
210
0.0
220
0.0
230
-1.0
  0
SOLID
  5
3CC
  8
0
  6
CONTINUOUS
 10
-545.82065806758874
 20
33.234953581948218
 30
0.0
 11
-545.27872618927677
 21
32.423895209894553
 31
0.0
 12
-541.743192283344
 22
32.423895209894553
 32
0.0
 13
-541.743192283344
 23
32.423895209894553
 33
0.0
210
0.0
220
0.0
230
1.0
  0
SOLID
  5
3CD
  8
0
  6
CONTINUOUS
 10
545.82065806758874
 20
33.234953581948218
 30
0.0
 11
541.20126040503214
 21
33.234953581948218
 31
0.0
 12
541.743192283344
 22
32.423895209894553
 32
0.0
 13
541.743192283344
 23
32.423895209894553
 33
0.0
210
0.0
220
0.0
230
-1.0
  0
SOLID
  5
3CE
  8
0
  6
CONTINUOUS
 10
544.46766781722306
 20
31.881963331582689
 30
0.0
 11
542.55425065539771
 21
31.881963331582689
 31
0.0
 12
543.51095923631044
 22
31.691662162860901
 32
0.0
 13
543.51095923631044
 23
31.691662162860901
 33
0.0
210
0.0
220
0.0
230
-1.0
  0
SOLID
  5
3CF
  8
0
  6
CONTINUOUS
 10
-545.27872618927677
 20
32.423895209894553
 30
0.0
 11
-544.46766781722306
 21
31.881963331582689
 31
0.0
 12
-542.55425065539771
 22
31.881963331582689
 32
0.0
 13
-542.55425065539771
 23
31.881963331582689
 33
0.0
210
0.0
220
0.0
230
1.0
  0
SOLID
  5
3D0
  8
0
  6
CONTINUOUS
 10
545.27872618927677
 20
32.423895209894553
 30
0.0
 11
541.743192283344
 21
32.423895209894553
 31
0.0
 12
542.55425065539771
 22
31.881963331582689
 32
0.0
 13
542.55425065539771
 23
31.881963331582689
 33
0.0
210
0.0
220
0.0
230
-1.0
  0
LINE
  5
3D1
  8
0
  6
CONTINUOUS
 10
-543.51095923631044
 20
36.691662162861043
 30
0.0
 11
-544.46766781722306
 21
36.501360994139262
 31
0.0
  0
LINE
  5
3D2
  8
0
  6
CONTINUOUS
 10
-542.55425065539771
 20
36.501360994139262
 30
0.0
 11
-543.51095923631044
 21
36.691662162861043
 31
0.0
  0
LINE
  5
3D3
  8
0
  6
CONTINUOUS
 10
-544.46766781722306
 20
36.501360994139262
 30
0.0
 11
-545.27872618927677
 21
35.95942911582739
 31
0.0
  0
LINE
  5
3D4
  8
0
  6
CONTINUOUS
 10
-542.55425065539771
 20
36.501360994139262
 30
0.0
 11
-541.743192283344
 21
35.95942911582739
 31
0.0
  0
LINE
  5
3D5
  8
0
  6
CONTINUOUS
 10
-545.27872618927677
 20
35.95942911582739
 30
0.0
 11
-545.82065806758874
 21
35.148370743773732
 31
0.0
  0
LINE
  5
3D6
  8
0
  6
CONTINUOUS
 10
-541.743192283344
 20
35.95942911582739
 30
0.0
 11
-541.20126040503214
 21
35.148370743773732
 31
0.0
  0
LINE
  5
3D7
  8
0
  6
CONTINUOUS
 10
-545.82065806758874
 20
35.148370743773732
 30
0.0
 11
-546.01095923631055
 21
34.191662162860972
 31
0.0
  0
LINE
  5
3D8
  8
0
  6
CONTINUOUS
 10
-541.20126040503214
 20
35.148370743773732
 30
0.0
 11
-541.01095923631033
 21
34.191662162860972
 31
0.0
  0
LINE
  5
3D9
  8
0
  6
CONTINUOUS
 10
-546.01095923631055
 20
34.191662162860972
 30
0.0
 11
-545.82065806758874
 21
33.234953581948218
 31
0.0
  0
LINE
  5
3DA
  8
0
  6
CONTINUOUS
 10
-541.01095923631033
 20
34.191662162860972
 30
0.0
 11
-541.20126040503214
 21
33.234953581948218
 31
0.0
  0
LINE
  5
3DB
  8
0
  6
CONTINUOUS
 10
-545.82065806758874
 20
33.234953581948218
 30
0.0
 11
-545.27872618927677
 21
32.423895209894553
 31
0.0
  0
LINE
  5
3DC
  8
0
  6
CONTINUOUS
 10
-541.20126040503214
 20
33.234953581948218
 30
0.0
 11
-541.743192283344
 21
32.423895209894553
 31
0.0
  0
LINE
  5
3DD
  8
0
  6
CONTINUOUS
 10
-542.55425065539771
 20
31.881963331582689
 30
0.0
 11
-543.51095923631044
 21
31.691662162860901
 31
0.0
  0
LINE
  5
3DE
  8
0
  6
CONTINUOUS
 10
-543.51095923631044
 20
31.691662162860901
 30
0.0
 11
-544.46766781722306
 21
31.881963331582689
 31
0.0
  0
LINE
  5
3DF
  8
0
  6
CONTINUOUS
 10
-545.27872618927677
 20
32.423895209894553
 30
0.0
 11
-544.46766781722306
 21
31.881963331582689
 31
0.0
  0
LINE
  5
3E0
  8
0
  6
CONTINUOUS
 10
-541.743192283344
 20
32.423895209894553
 30
0.0
 11
-542.55425065539771
 21
31.881963331582689
 31
0.0
  0
ENDBLK
  5
3E2
  8
0
  0
BLOCK
  8
0
  2
*U29
 70
     1
 10
0.0
 20
0.0
 30
0.0
  3
*U29
  1

  0
TEXT
  5
3E4
  8
0
 10
-756.75530060837468
 20
-135.09315514861009
 30
0.0
 40
12.2941616766467
  1
Batten
  7
ARIAL
  0
ENDBLK
  5
3E6
  8
0
  0
BLOCK
  8
0
  2
*U30
 70
     1
 10
0.0
 20
0.0
 30
0.0
  3
*U30
  1

  0
SOLID
  5
3E8
  8
0
  6
CONTINUOUS
 10
-448.69164627142101
 20
-89.860775389034856
 30
0.0
 11
-449.6483548523338
 21
-90.051076557756616
 31
0.0
 12
-447.73493769050827
 22
-90.051076557756616
 32
0.0
 13
-447.73493769050827
 23
-90.051076557756616
 33
0.0
  0
SOLID
  5
3E9
  8
0
  6
CONTINUOUS
 10
-449.6483548523338
 20
-90.051076557756616
 30
0.0
 11
-450.45941322438739
 21
-90.593008436068459
 31
0.0
 12
-446.92387931845468
 22
-90.593008436068459
 32
0.0
 13
-446.92387931845468
 23
-90.593008436068459
 33
0.0
210
0.0
220
0.0
230
1.0
  0
SOLID
  5
3EA
  8
0
  6
CONTINUOUS
 10
449.6483548523338
 20
-90.051076557756616
 30
0.0
 11
447.73493769050827
 21
-90.051076557756616
 31
0.0
 12
446.92387931845468
 22
-90.593008436068459
 32
0.0
 13
446.92387931845468
 23
-90.593008436068459
 33
0.0
210
0.0
220
0.0
230
-1.0
  0
SOLID
  5
3EB
  8
0
  6
CONTINUOUS
 10
-450.45941322438739
 20
-90.593008436068459
 30
0.0
 11
-451.0013451026993
 21
-91.404066808122096
 31
0.0
 12
-446.38194744014282
 22
-91.404066808122096
 32
0.0
 13
-446.38194744014282
 23
-91.404066808122096
 33
0.0
  0
SOLID
  5
3EC
  8
0
  6
CONTINUOUS
 10
450.45941322438739
 20
-90.593008436068459
 30
0.0
 11
446.92387931845468
 21
-90.593008436068459
 31
0.0
 12
446.38194744014282
 22
-91.404066808122096
 32
0.0
 13
446.38194744014282
 23
-91.404066808122096
 33
0.0
210
0.0
220
0.0
230
-1.0
  0
SOLID
  5
3ED
  8
0
  6
CONTINUOUS
 10
-451.0013451026993
 20
-91.404066808122096
 30
0.0
 11
-451.19164627142101
 21
-92.360775389034856
 31
0.0
 12
-446.19164627142101
 22
-92.360775389034856
 32
0.0
 13
-446.19164627142101
 23
-92.360775389034856
 33
0.0
210
0.0
220
0.0
230
1.0
  0
SOLID
  5
3EE
  8
0
  6
CONTINUOUS
 10
451.0013451026993
 20
-91.404066808122096
 30
0.0
 11
446.38194744014282
 21
-91.404066808122096
 31
0.0
 12
446.19164627142101
 22
-92.360775389034856
 32
0.0
 13
446.19164627142101
 23
-92.360775389034856
 33
0.0
210
0.0
220
0.0
230
-1.0
  0
SOLID
  5
3EF
  8
0
  6
CONTINUOUS
 10
-451.19164627142101
 20
-92.360775389034856
 30
0.0
 11
-451.0013451026993
 21
-93.317483969947574
 31
0.0
 12
-446.38194744014282
 22
-93.317483969947574
 32
0.0
 13
-446.38194744014282
 23
-93.317483969947574
 33
0.0
210
0.0
220
0.0
230
1.0
  0
SOLID
  5
3F0
  8
0
  6
CONTINUOUS
 10
451.19164627142101
 20
-92.360775389034856
 30
0.0
 11
446.19164627142101
 21
-92.360775389034856
 31
0.0
 12
446.38194744014282
 22
-93.317483969947574
 32
0.0
 13
446.38194744014282
 23
-93.317483969947574
 33
0.0
210
0.0
220
0.0
230
-1.0
  0
SOLID
  5
3F1
  8
0
  6
CONTINUOUS
 10
-451.0013451026993
 20
-93.317483969947574
 30
0.0
 11
-450.45941322438739
 21
-94.128542342001211
 31
0.0
 12
-446.92387931845468
 22
-94.128542342001211
 32
0.0
 13
-446.92387931845468
 23
-94.128542342001211
 33
0.0
210
0.0
220
0.0
230
1.0
  0
SOLID
  5
3F2
  8
0
  6
CONTINUOUS
 10
451.0013451026993
 20
-93.317483969947574
 30
0.0
 11
446.38194744014282
 21
-93.317483969947574
 31
0.0
 12
446.92387931845468
 22
-94.128542342001211
 32
0.0
 13
446.92387931845468
 23
-94.128542342001211
 33
0.0
210
0.0
220
0.0
230
-1.0
  0
SOLID
  5
3F3
  8
0
  6
CONTINUOUS
 10
449.6483548523338
 20
-94.670474220313054
 30
0.0
 11
447.73493769050827
 21
-94.670474220313054
 31
0.0
 12
448.69164627142101
 22
-94.860775389034856
 32
0.0
 13
448.69164627142101
 23
-94.860775389034856
 33
0.0
210
0.0
220
0.0
230
-1.0
  0
SOLID
  5
3F4
  8
0
  6
CONTINUOUS
 10
-450.45941322438739
 20
-94.128542342001211
 30
0.0
 11
-449.6483548523338
 21
-94.670474220313054
 31
0.0
 12
-447.73493769050827
 22
-94.670474220313054
 32
0.0
 13
-447.73493769050827
 23
-94.670474220313054
 33
0.0
210
0.0
220
0.0
230
1.0
  0
SOLID
  5
3F5
  8
0
  6
CONTINUOUS
 10
450.45941322438739
 20
-94.128542342001211
 30
0.0
 11
446.92387931845468
 21
-94.128542342001211
 31
0.0
 12
447.73493769050827
 22
-94.670474220313054
 32
0.0
 13
447.73493769050827
 23
-94.670474220313054
 33
0.0
210
0.0
220
0.0
230
-1.0
  0
LINE
  5
3F6
  8
0
  6
CONTINUOUS
 10
-448.69164627142101
 20
-89.860775389034856
 30
0.0
 11
-449.6483548523338
 21
-90.051076557756616
 31
0.0
  0
LINE
  5
3F7
  8
0
  6
CONTINUOUS
 10
-447.73493769050827
 20
-90.051076557756616
 30
0.0
 11
-448.69164627142101
 21
-89.860775389034856
 31
0.0
  0
LINE
  5
3F8
  8
0
  6
CONTINUOUS
 10
-449.6483548523338
 20
-90.051076557756616
 30
0.0
 11
-450.45941322438739
 21
-90.593008436068459
 31
0.0
  0
LINE
  5
3F9
  8
0
  6
CONTINUOUS
 10
-447.73493769050827
 20
-90.051076557756616
 30
0.0
 11
-446.92387931845468
 21
-90.593008436068459
 31
0.0
  0
LINE
  5
3FA
  8
0
  6
CONTINUOUS
 10
-450.45941322438739
 20
-90.593008436068459
 30
0.0
 11
-451.0013451026993
 21
-91.404066808122096
 31
0.0
  0
LINE
  5
3FB
  8
0
  6
CONTINUOUS
 10
-446.92387931845468
 20
-90.593008436068459
 30
0.0
 11
-446.38194744014282
 21
-91.404066808122096
 31
0.0
  0
LINE
  5
3FC
  8
0
  6
CONTINUOUS
 10
-451.0013451026993
 20
-91.404066808122096
 30
0.0
 11
-451.19164627142101
 21
-92.360775389034856
 31
0.0
  0
LINE
  5
3FD
  8
0
  6
CONTINUOUS
 10
-446.38194744014282
 20
-91.404066808122096
 30
0.0
 11
-446.19164627142101
 21
-92.360775389034856
 31
0.0
  0
LINE
  5
3FE
  8
0
  6
CONTINUOUS
 10
-451.19164627142101
 20
-92.360775389034856
 30
0.0
 11
-451.0013451026993
 21
-93.317483969947574
 31
0.0
  0
LINE
  5
3FF
  8
0
  6
CONTINUOUS
 10
-446.19164627142101
 20
-92.360775389034856
 30
0.0
 11
-446.38194744014282
 21
-93.317483969947574
 31
0.0
  0
LINE
  5
400
  8
0
  6
CONTINUOUS
 10
-451.0013451026993
 20
-93.317483969947574
 30
0.0
 11
-450.45941322438739
 21
-94.128542342001211
 31
0.0
  0
LINE
  5
401
  8
0
  6
CONTINUOUS
 10
-446.38194744014282
 20
-93.317483969947574
 30
0.0
 11
-446.92387931845468
 21
-94.128542342001211
 31
0.0
  0
LINE
  5
402
  8
0
  6
CONTINUOUS
 10
-447.73493769050827
 20
-94.670474220313054
 30
0.0
 11
-448.69164627142101
 21
-94.860775389034856
 31
0.0
  0
LINE
  5
403
  8
0
  6
CONTINUOUS
 10
-448.69164627142101
 20
-94.860775389034856
 30
0.0
 11
-449.6483548523338
 21
-94.670474220313054
 31
0.0
  0
LINE
  5
404
  8
0
  6
CONTINUOUS
 10
-450.45941322438739
 20
-94.128542342001211
 30
0.0
 11
-449.6483548523338
 21
-94.670474220313054
 31
0.0
  0
LINE
  5
405
  8
0
  6
CONTINUOUS
 10
-446.92387931845468
 20
-94.128542342001211
 30
0.0
 11
-447.73493769050827
 21
-94.670474220313054
 31
0.0
  0
ENDBLK
  5
407
  8
0
  0
BLOCK
  8
0
  2
*U31
 70
     1
 10
0.0
 20
0.0
 30
0.0
  3
*U31
  1

  0
TEXT
  5
409
  8
0
 10
-756.82239016731944
 20
-250.4999685421339
 30
0.0
 40
12.2941616766467
  1
Purlin
  7
ARIAL
  0
ENDBLK
  5
40B
  8
0
  0
BLOCK
  8
0
  2
*U32
 70
     1
 10
0.0
 20
0.0
 30
0.0
  3
*U32
  1

  0
SOLID
  5
40D
  8
0
  6
CONTINUOUS
 10
-384.41382839094831
 20
-3.6164135428781652
 30
0.0
 11
-385.37053697186099
 21
-3.8067147115999509
 31
0.0
 12
-383.45711981003558
 22
-3.8067147115999509
 32
0.0
 13
-383.45711981003558
 23
-3.8067147115999509
 33
0.0
210
0.0
220
0.0
230
1.0
  0
SOLID
  5
40E
  8
0
  6
CONTINUOUS
 10
-385.37053697186099
 20
-3.8067147115999509
 30
0.0
 11
-386.18159534391469
 21
-4.3486465899118087
 31
0.0
 12
-382.64606143798193
 22
-4.3486465899118087
 32
0.0
 13
-382.64606143798193
 23
-4.3486465899118087
 33
0.0
210
0.0
220
0.0
230
1.0
  0
SOLID
  5
40F
  8
0
  6
CONTINUOUS
 10
385.37053697186099
 20
-3.8067147115999509
 30
0.0
 11
383.45711981003558
 21
-3.8067147115999509
 31
0.0
 12
382.64606143798193
 22
-4.3486465899118087
 32
0.0
 13
382.64606143798193
 23
-4.3486465899118087
 33
0.0
210
0.0
220
0.0
230
-1.0
  0
SOLID
  5
410
  8
0
  6
CONTINUOUS
 10
-386.18159534391469
 20
-4.3486465899118087
 30
0.0
 11
-386.72352722222661
 21
-5.1597049619654678
 31
0.0
 12
-382.10412955967013
 22
-5.1597049619654678
 32
0.0
 13
-382.10412955967013
 23
-5.1597049619654678
 33
0.0
210
0.0
220
0.0
230
1.0
  0
SOLID
  5
411
  8
0
  6
CONTINUOUS
 10
386.18159534391469
 20
-4.3486465899118087
 30
0.0
 11
382.64606143798193
 21
-4.3486465899118087
 31
0.0
 12
382.10412955967013
 22
-5.1597049619654678
 32
0.0
 13
382.10412955967013
 23
-5.1597049619654678
 33
0.0
210
0.0
220
0.0
230
-1.0
  0
SOLID
  5
412
  8
0
  6
CONTINUOUS
 10
-386.72352722222661
 20
-5.1597049619654678
 30
0.0
 11
-386.91382839094842
 21
-6.1164135428782087
 31
0.0
 12
-381.91382839094831
 22
-6.1164135428782087
 32
0.0
 13
-381.91382839094831
 23
-6.1164135428782087
 33
0.0
210
0.0
220
0.0
230
1.0
  0
SOLID
  5
413
  8
0
  6
CONTINUOUS
 10
386.72352722222661
 20
-5.1597049619654678
 30
0.0
 11
382.10412955967013
 21
-5.1597049619654678
 31
0.0
 12
381.91382839094831
 22
-6.1164135428782087
 32
0.0
 13
381.91382839094831
 23
-6.1164135428782087
 33
0.0
210
0.0
220
0.0
230
-1.0
  0
SOLID
  5
414
  8
0
  6
CONTINUOUS
 10
-386.91382839094842
 20
-6.1164135428782087
 30
0.0
 11
-386.72352722222661
 21
-7.0731221237909514
 31
0.0
 12
-382.10412955967013
 22
-7.0731221237909514
 32
0.0
 13
-382.10412955967013
 23
-7.0731221237909514
 33
0.0
  0
SOLID
  5
415
  8
0
  6
CONTINUOUS
 10
386.91382839094842
 20
-6.1164135428782087
 30
0.0
 11
381.91382839094831
 21
-6.1164135428782087
 31
0.0
 12
382.10412955967013
 22
-7.0731221237909514
 32
0.0
 13
382.10412955967013
 23
-7.0731221237909514
 33
0.0
210
0.0
220
0.0
230
-1.0
  0
SOLID
  5
416
  8
0
  6
CONTINUOUS
 10
-386.72352722222661
 20
-7.0731221237909514
 30
0.0
 11
-386.18159534391469
 21
-7.8841804958446087
 31
0.0
 12
-382.64606143798193
 22
-7.8841804958446087
 32
0.0
 13
-382.64606143798193
 23
-7.8841804958446087
 33
0.0
210
0.0
220
0.0
230
1.0
  0
SOLID
  5
417
  8
0
  6
CONTINUOUS
 10
386.72352722222661
 20
-7.0731221237909514
 30
0.0
 11
382.10412955967013
 21
-7.0731221237909514
 31
0.0
 12
382.64606143798193
 22
-7.8841804958446087
 32
0.0
 13
382.64606143798193
 23
-7.8841804958446087
 33
0.0
210
0.0
220
0.0
230
-1.0
  0
SOLID
  5
418
  8
0
  6
CONTINUOUS
 10
385.37053697186099
 20
-8.4261123741564674
 30
0.0
 11
383.45711981003558
 21
-8.4261123741564674
 31
0.0
 12
384.41382839094831
 22
-8.6164135428782522
 32
0.0
 13
384.41382839094831
 23
-8.6164135428782522
 33
0.0
210
0.0
220
0.0
230
-1.0
  0
SOLID
  5
419
  8
0
  6
CONTINUOUS
 10
-386.18159534391469
 20
-7.8841804958446087
 30
0.0
 11
-385.37053697186099
 21
-8.4261123741564674
 31
0.0
 12
-383.45711981003558
 22
-8.4261123741564674
 32
0.0
 13
-383.45711981003558
 23
-8.4261123741564674
 33
0.0
210
0.0
220
0.0
230
1.0
  0
SOLID
  5
41A
  8
0
  6
CONTINUOUS
 10
386.18159534391469
 20
-7.8841804958446087
 30
0.0
 11
382.64606143798193
 21
-7.8841804958446087
 31
0.0
 12
383.45711981003558
 22
-8.4261123741564674
 32
0.0
 13
383.45711981003558
 23
-8.4261123741564674
 33
0.0
210
0.0
220
0.0
230
-1.0
  0
LINE
  5
41B
  8
0
  6
CONTINUOUS
 10
-384.41382839094831
 20
-3.6164135428781652
 30
0.0
 11
-385.37053697186099
 21
-3.8067147115999509
 31
0.0
  0
LINE
  5
41C
  8
0
  6
CONTINUOUS
 10
-383.45711981003558
 20
-3.8067147115999509
 30
0.0
 11
-384.41382839094831
 21
-3.6164135428781652
 31
0.0
  0
LINE
  5
41D
  8
0
  6
CONTINUOUS
 10
-385.37053697186099
 20
-3.8067147115999509
 30
0.0
 11
-386.18159534391469
 21
-4.3486465899118087
 31
0.0
  0
LINE
  5
41E
  8
0
  6
CONTINUOUS
 10
-383.45711981003558
 20
-3.8067147115999509
 30
0.0
 11
-382.64606143798193
 21
-4.3486465899118087
 31
0.0
  0
LINE
  5
41F
  8
0
  6
CONTINUOUS
 10
-386.18159534391469
 20
-4.3486465899118087
 30
0.0
 11
-386.72352722222661
 21
-5.1597049619654678
 31
0.0
  0
LINE
  5
420
  8
0
  6
CONTINUOUS
 10
-382.64606143798193
 20
-4.3486465899118087
 30
0.0
 11
-382.10412955967013
 21
-5.1597049619654678
 31
0.0
  0
LINE
  5
421
  8
0
  6
CONTINUOUS
 10
-386.72352722222661
 20
-5.1597049619654678
 30
0.0
 11
-386.91382839094842
 21
-6.1164135428782087
 31
0.0
  0
LINE
  5
422
  8
0
  6
CONTINUOUS
 10
-382.10412955967013
 20
-5.1597049619654678
 30
0.0
 11
-381.91382839094831
 21
-6.1164135428782087
 31
0.0
  0
LINE
  5
423
  8
0
  6
CONTINUOUS
 10
-386.91382839094842
 20
-6.1164135428782087
 30
0.0
 11
-386.72352722222661
 21
-7.0731221237909514
 31
0.0
  0
LINE
  5
424
  8
0
  6
CONTINUOUS
 10
-381.91382839094831
 20
-6.1164135428782087
 30
0.0
 11
-382.10412955967013
 21
-7.0731221237909514
 31
0.0
  0
LINE
  5
425
  8
0
  6
CONTINUOUS
 10
-386.72352722222661
 20
-7.0731221237909514
 30
0.0
 11
-386.18159534391469
 21
-7.8841804958446087
 31
0.0
  0
LINE
  5
426
  8
0
  6
CONTINUOUS
 10
-382.10412955967013
 20
-7.0731221237909514
 30
0.0
 11
-382.64606143798193
 21
-7.8841804958446087
 31
0.0
  0
LINE
  5
427
  8
0
  6
CONTINUOUS
 10
-383.45711981003558
 20
-8.4261123741564674
 30
0.0
 11
-384.41382839094831
 21
-8.6164135428782522
 31
0.0
  0
LINE
  5
428
  8
0
  6
CONTINUOUS
 10
-384.41382839094831
 20
-8.6164135428782522
 30
0.0
 11
-385.37053697186099
 21
-8.4261123741564674
 31
0.0
  0
LINE
  5
429
  8
0
  6
CONTINUOUS
 10
-386.18159534391469
 20
-7.8841804958446087
 30
0.0
 11
-385.37053697186099
 21
-8.4261123741564674
 31
0.0
  0
LINE
  5
42A
  8
0
  6
CONTINUOUS
 10
-382.64606143798193
 20
-7.8841804958446087
 30
0.0
 11
-383.45711981003558
 21
-8.4261123741564674
 31
0.0
  0
ENDBLK
  5
42C
  8
0
  0
BLOCK
  8
0
  2
*U33
 70
     1
 10
0.0
 20
0.0
 30
0.0
  3
*U33
  1

  0
TEXT
  5
42E
  8
0
 10
-756.26890130602396
 20
191.19339461788491
 30
0.0
 40
12.2941616766467
  1
Skip sheathing
  7
ARIAL
  0
ENDBLK
  5
430
  8
0
  0
BLOCK
  8
0
  2
*U34
 70
     1
 10
0.0
 20
0.0
 30
0.0
  3
*U34
  1

  0
SOLID
  5
432
  8
0
  6
CONTINUOUS
 10
-107.02977874285649
 20
83.241236354591337
 30
0.0
 11
-107.9864873237692
 21
83.050935185869548
 31
0.0
 12
-106.0730701619437
 22
83.050935185869548
 32
0.0
 13
-106.0730701619437
 23
83.050935185869548
 33
0.0
210
0.0
220
0.0
230
1.0
  0
SOLID
  5
433
  8
0
  6
CONTINUOUS
 10
-107.9864873237692
 20
83.050935185869548
 30
0.0
 11
-108.79754569582281
 21
82.509003307557705
 31
0.0
 12
-105.2620117898901
 22
82.509003307557705
 32
0.0
 13
-105.2620117898901
 23
82.509003307557705
 33
0.0
210
0.0
220
0.0
230
1.0
  0
SOLID
  5
434
  8
0
  6
CONTINUOUS
 10
107.9864873237692
 20
83.050935185869548
 30
0.0
 11
106.0730701619437
 21
83.050935185869548
 31
0.0
 12
105.2620117898901
 22
82.509003307557705
 32
0.0
 13
105.2620117898901
 23
82.509003307557705
 33
0.0
210
0.0
220
0.0
230
-1.0
  0
SOLID
  5
435
  8
0
  6
CONTINUOUS
 10
-108.79754569582281
 20
82.509003307557705
 30
0.0
 11
-109.3394775741347
 21
81.697944935504054
 31
0.0
 12
-104.7200799115783
 22
81.697944935504054
 32
0.0
 13
-104.7200799115783
 23
81.697944935504054
 33
0.0
210
0.0
220
0.0
230
1.0
  0
SOLID
  5
436
  8
0
  6
CONTINUOUS
 10
108.79754569582281
 20
82.509003307557705
 30
0.0
 11
105.2620117898901
 21
82.509003307557705
 31
0.0
 12
104.7200799115783
 22
81.697944935504054
 32
0.0
 13
104.7200799115783
 23
81.697944935504054
 33
0.0
210
0.0
220
0.0
230
-1.0
  0
SOLID
  5
437
  8
0
  6
CONTINUOUS
 10
-109.3394775741347
 20
81.697944935504054
 30
0.0
 11
-109.52977874285639
 21
80.741236354591337
 31
0.0
 12
-104.52977874285639
 22
80.741236354591337
 32
0.0
 13
-104.52977874285639
 23
80.741236354591337
 33
0.0
210
0.0
220
0.0
230
1.0
  0
SOLID
  5
438
  8
0
  6
CONTINUOUS
 10
109.3394775741347
 20
81.697944935504054
 30
0.0
 11
104.7200799115783
 21
81.697944935504054
 31
0.0
 12
104.52977874285639
 22
80.741236354591337
 32
0.0
 13
104.52977874285639
 23
80.741236354591337
 33
0.0
210
0.0
220
0.0
230
-1.0
  0
SOLID
  5
439
  8
0
  6
CONTINUOUS
 10
-109.52977874285639
 20
80.741236354591337
 30
0.0
 11
-109.3394775741347
 21
79.784527773678619
 31
0.0
 12
-104.7200799115783
 22
79.784527773678619
 32
0.0
 13
-104.7200799115783
 23
79.784527773678619
 33
0.0
  0
SOLID
  5
43A
  8
0
  6
CONTINUOUS
 10
109.52977874285639
 20
80.741236354591337
 30
0.0
 11
104.52977874285639
 21
80.741236354591337
 31
0.0
 12
104.7200799115783
 22
79.784527773678619
 32
0.0
 13
104.7200799115783
 23
79.784527773678619
 33
0.0
210
0.0
220
0.0
230
-1.0
  0
SOLID
  5
43B
  8
0
  6
CONTINUOUS
 10
-109.3394775741347
 20
79.784527773678619
 30
0.0
 11
-108.79754569582281
 21
78.973469401624953
 31
0.0
 12
-105.2620117898901
 22
78.973469401624953
 32
0.0
 13
-105.2620117898901
 23
78.973469401624953
 33
0.0
210
0.0
220
0.0
230
1.0
  0
SOLID
  5
43C
  8
0
  6
CONTINUOUS
 10
109.3394775741347
 20
79.784527773678619
 30
0.0
 11
104.7200799115783
 21
79.784527773678619
 31
0.0
 12
105.2620117898901
 22
78.973469401624953
 32
0.0
 13
105.2620117898901
 23
78.973469401624953
 33
0.0
210
0.0
220
0.0
230
-1.0
  0
SOLID
  5
43D
  8
0
  6
CONTINUOUS
 10
107.9864873237692
 20
78.431537523313125
 30
0.0
 11
106.0730701619437
 21
78.431537523313125
 31
0.0
 12
107.02977874285649
 22
78.241236354591337
 32
0.0
 13
107.02977874285649
 23
78.241236354591337
 33
0.0
210
0.0
220
0.0
230
-1.0
  0
SOLID
  5
43E
  8
0
  6
CONTINUOUS
 10
-108.79754569582281
 20
78.973469401624953
 30
0.0
 11
-107.9864873237692
 21
78.431537523313125
 31
0.0
 12
-106.0730701619437
 22
78.431537523313125
 32
0.0
 13
-106.0730701619437
 23
78.431537523313125
 33
0.0
210
0.0
220
0.0
230
1.0
  0
SOLID
  5
43F
  8
0
  6
CONTINUOUS
 10
108.79754569582281
 20
78.973469401624953
 30
0.0
 11
105.2620117898901
 21
78.973469401624953
 31
0.0
 12
106.0730701619437
 22
78.431537523313125
 32
0.0
 13
106.0730701619437
 23
78.431537523313125
 33
0.0
210
0.0
220
0.0
230
-1.0
  0
LINE
  5
440
  8
0
  6
CONTINUOUS
 10
-107.02977874285649
 20
83.241236354591337
 30
0.0
 11
-107.9864873237692
 21
83.050935185869548
 31
0.0
  0
LINE
  5
441
  8
0
  6
CONTINUOUS
 10
-106.0730701619437
 20
83.050935185869548
 30
0.0
 11
-107.02977874285649
 21
83.241236354591337
 31
0.0
  0
LINE
  5
442
  8
0
  6
CONTINUOUS
 10
-107.9864873237692
 20
83.050935185869548
 30
0.0
 11
-108.79754569582281
 21
82.509003307557705
 31
0.0
  0
LINE
  5
443
  8
0
  6
CONTINUOUS
 10
-106.0730701619437
 20
83.050935185869548
 30
0.0
 11
-105.2620117898901
 21
82.509003307557705
 31
0.0
  0
LINE
  5
444
  8
0
  6
CONTINUOUS
 10
-108.79754569582281
 20
82.509003307557705
 30
0.0
 11
-109.3394775741347
 21
81.697944935504054
 31
0.0
  0
LINE
  5
445
  8
0
  6
CONTINUOUS
 10
-105.2620117898901
 20
82.509003307557705
 30
0.0
 11
-104.7200799115783
 21
81.697944935504054
 31
0.0
  0
LINE
  5
446
  8
0
  6
CONTINUOUS
 10
-109.3394775741347
 20
81.697944935504054
 30
0.0
 11
-109.52977874285639
 21
80.741236354591337
 31
0.0
  0
LINE
  5
447
  8
0
  6
CONTINUOUS
 10
-104.7200799115783
 20
81.697944935504054
 30
0.0
 11
-104.52977874285639
 21
80.741236354591337
 31
0.0
  0
LINE
  5
448
  8
0
  6
CONTINUOUS
 10
-109.52977874285639
 20
80.741236354591337
 30
0.0
 11
-109.3394775741347
 21
79.784527773678619
 31
0.0
  0
LINE
  5
449
  8
0
  6
CONTINUOUS
 10
-104.52977874285639
 20
80.741236354591337
 30
0.0
 11
-104.7200799115783
 21
79.784527773678619
 31
0.0
  0
LINE
  5
44A
  8
0
  6
CONTINUOUS
 10
-109.3394775741347
 20
79.784527773678619
 30
0.0
 11
-108.79754569582281
 21
78.973469401624953
 31
0.0
  0
LINE
  5
44B
  8
0
  6
CONTINUOUS
 10
-104.7200799115783
 20
79.784527773678619
 30
0.0
 11
-105.2620117898901
 21
78.973469401624953
 31
0.0
  0
LINE
  5
44C
  8
0
  6
CONTINUOUS
 10
-106.0730701619437
 20
78.431537523313125
 30
0.0
 11
-107.02977874285649
 21
78.241236354591337
 31
0.0
  0
LINE
  5
44D
  8
0
  6
CONTINUOUS
 10
-107.02977874285649
 20
78.241236354591337
 30
0.0
 11
-107.9864873237692
 21
78.431537523313125
 31
0.0
  0
LINE
  5
44E
  8
0
  6
CONTINUOUS
 10
-108.79754569582281
 20
78.973469401624953
 30
0.0
 11
-107.9864873237692
 21
78.431537523313125
 31
0.0
  0
LINE
  5
44F
  8
0
  6
CONTINUOUS
 10
-105.2620117898901
 20
78.973469401624953
 30
0.0
 11
-106.0730701619437
 21
78.431537523313125
 31
0.0
  0
ENDBLK
  5
451
  8
0
  0
BLOCK
  8
0
  2
*U35
 70
     1
 10
0.0
 20
0.0
 30
0.0
  3
*U35
  1

  0
TEXT
  5
453
  8
0
 10
81.624974324348884
 20
75.068159431514417
 30
0.0
 40
12.2941616766467
  1
Universal Channel
  7
ARIAL
  0
ENDBLK
  5
455
  8
0
  0
BLOCK
  8
0
  2
*X36
 70
     1
 10
0.0
 20
0.0
 30
0.0
  3
*X36
  1

  0
LINE
  5
461
  8
0
 62
     0
 10
-141.8834279998448
 20
120.00040353608961
 30
0.0
 11
-116.8834279998447
 21
120.00040353608961
 31
0.0
  0
LINE
  5
462
  8
0
 62
     0
 10
-141.88342799984491
 20
135.00040353608961
 30
0.0
 11
-116.8834279998448
 21
135.00040353608961
 31
0.0
  0
LINE
  5
463
  8
0
 62
     0
 10
-141.883427999845
 20
150.00040353608961
 30
0.0
 11
-116.8834279998448
 21
150.00040353608961
 31
0.0
  0
LINE
  5
464
  8
0
 62
     0
 10
-141.883427999845
 20
165.00040353608961
 30
0.0
 11
-116.8834279998449
 21
165.00040353608961
 31
0.0
  0
LINE
  5
465
  8
0
 62
     0
 10
-141.88342799984511
 20
180.00040353608961
 30
0.0
 11
-116.883427999845
 21
180.00040353608961
 31
0.0
  0
LINE
  5
466
  8
0
 62
     0
 10
-141.88342799984511
 20
195.00040353608961
 30
0.0
 11
-116.883427999845
 21
195.00040353608961
 31
0.0
  0
LINE
  5
467
  8
0
 62
     0
 10
-141.8834279998452
 20
210.00040353608961
 30
0.0
 11
-116.8834279998451
 21
210.00040353608961
 31
0.0
  0
LINE
  5
468
  8
0
 62
     0
 10
-141.88342799984531
 20
225.00040353608961
 30
0.0
 11
-116.8834279998452
 21
225.00040353608961
 31
0.0
  0
LINE
  5
469
  8
0
 62
     0
 10
-141.88342799984531
 20
240.00040353608961
 30
0.0
 11
-116.8834279998452
 21
240.00040353608961
 31
0.0
  0
LINE
  5
46A
  8
0
 62
     0
 10
-141.8834279998454
 20
255.00040353608961
 30
0.0
 11
-116.8834279998453
 21
255.00040353608961
 31
0.0
  0
LINE
  5
46B
  8
0
 62
     0
 10
-141.8834279998454
 20
270.00040353608972
 30
0.0
 11
-116.8834279998454
 21
270.00040353608972
 31
0.0
  0
LINE
  5
46C
  8
0
 62
     0
 10
-141.88342799984551
 20
285.00040353608961
 30
0.0
 11
-116.8834279998454
 21
285.00040353608961
 31
0.0
  0
LINE
  5
46D
  8
0
 62
     0
 10
-141.88342799984551
 20
300.00040353608961
 30
0.0
 11
-116.88342799984549
 21
300.00040353608961
 31
0.0
  0
LINE
  5
46E
  8
0
 62
     0
 10
-141.88342799984559
 20
315.00040353608972
 30
0.0
 11
-116.88342799984559
 21
315.00040353608972
 31
0.0
  0
LINE
  5
46F
  8
0
 62
     0
 10
-141.88342799984559
 20
330.00040353608972
 30
0.0
 11
-116.88342799984559
 21
330.00040353608972
 31
0.0
  0
LINE
  5
470
  8
0
 62
     0
 10
-141.88342799984571
 20
345.00040353608972
 30
0.0
 11
-116.88342799984569
 21
345.00040353608972
 31
0.0
  0
ENDBLK
  5
472
  8
0
  0
BLOCK
  8
0
  2
*U37
 70
     1
 10
0.0
 20
0.0
 30
0.0
  3
*U37
  1

  0
SOLID
  5
474
  8
0
  6
CONTINUOUS
 10
-294.13849044165357
 20
88.375849092822733
 30
0.0
 11
-305.97098253285048
 21
87.378425473706756
 31
0.0
 12
-266.72077360347407
 22
87.378425473706756
 32
0.0
 13
-266.72077360347407
 23
87.378425473706756
 33
0.0
  0
SOLID
  5
475
  8
0
  6
CONTINUOUS
 10
294.13849044165357
 20
88.375849092822733
 30
0.0
 11
278.55326569467098
 21
88.375849092822733
 31
0.0
 12
266.72077360347407
 22
87.378425473706756
 32
0.0
 13
266.72077360347407
 23
87.378425473706756
 33
0.0
210
0.0
220
0.0
230
-1.0
  0
SOLID
  5
476
  8
0
  6
CONTINUOUS
 10
-538.13849044165374
 20
88.375849092822733
 30
0.0
 11
-549.97098253285071
 21
87.378425473706756
 31
0.0
 12
-510.7207736034743
 22
87.378425473706756
 32
0.0
 13
-510.7207736034743
 23
87.378425473706756
 33
0.0
210
0.0
220
0.0
230
1.0
  0
SOLID
  5
477
  8
0
  6
CONTINUOUS
 10
538.13849044165374
 20
88.375849092822733
 30
0.0
 11
522.55326569467115
 21
88.375849092822733
 31
0.0
 12
510.7207736034743
 22
87.378425473706756
 32
0.0
 13
510.7207736034743
 23
87.378425473706756
 33
0.0
210
0.0
220
0.0
230
-1.0
  0
SOLID
  5
478
  8
0
  6
CONTINUOUS
 10
-278.62785550084482
 20
87.378425473706756
 30
0.0
 11
-275.0270586619236
 21
87.076117640734225
 31
0.0
 12
-263.13447889960008
 22
87.076117640734225
 32
0.0
 13
-263.13447889960008
 23
87.076117640734225
 33
0.0
210
0.0
220
0.0
230
1.0
  0
SOLID
  5
479
  8
0
  6
CONTINUOUS
 10
278.62785550084482
 20
87.378425473706756
 30
0.0
 11
266.72077360347407
 21
87.378425473706756
 31
0.0
 12
263.13447889960008
 22
87.076117640734225
 32
0.0
 13
263.13447889960008
 23
87.076117640734225
 33
0.0
210
0.0
220
0.0
230
-1.0
  0
SOLID
  5
47A
  8
0
  6
CONTINUOUS
 10
-305.97098253285048
 20
87.378425473706756
 30
0.0
 11
-309.55727723672442
 21
87.076117640734225
 31
0.0
 12
-297.66469747440101
 22
87.076117640734225
 32
0.0
 13
-297.66469747440101
 23
87.076117640734225
 33
0.0
  0
SOLID
  5
47B
  8
0
  6
CONTINUOUS
 10
305.97098253285048
 20
87.378425473706756
 30
0.0
 11
294.06390063548042
 21
87.378425473706756
 31
0.0
 12
297.66469747440101
 22
87.076117640734225
 32
0.0
 13
297.66469747440101
 23
87.076117640734225
 33
0.0
210
0.0
220
0.0
230
-1.0
  0
SOLID
  5
47C
  8
0
  6
CONTINUOUS
 10
-522.62785550084504
 20
87.378425473706756
 30
0.0
 11
-519.02705866192389
 21
87.076117640734225
 31
0.0
 12
-507.13447889960031
 22
87.076117640734225
 32
0.0
 13
-507.13447889960031
 23
87.076117640734225
 33
0.0
210
0.0
220
0.0
230
1.0
  0
SOLID
  5
47D
  8
0
  6
CONTINUOUS
 10
522.62785550084504
 20
87.378425473706756
 30
0.0
 11
510.7207736034743
 21
87.378425473706756
 31
0.0
 12
507.13447889960031
 22
87.076117640734225
 32
0.0
 13
507.13447889960031
 23
87.076117640734225
 33
0.0
210
0.0
220
0.0
230
-1.0
  0
SOLID
  5
47E
  8
0
  6
CONTINUOUS
 10
-549.97098253285071
 20
87.378425473706756
 30
0.0
 11
-553.55727723672464
 21
87.076117640734225
 31
0.0
 12
-541.66469747440124
 22
87.076117640734225
 32
0.0
 13
-541.66469747440124
 23
87.076117640734225
 33
0.0
  0
SOLID
  5
47F
  8
0
  6
CONTINUOUS
 10
549.97098253285071
 20
87.378425473706756
 30
0.0
 11
538.06390063548054
 21
87.378425473706756
 31
0.0
 12
541.66469747440124
 22
87.076117640734225
 32
0.0
 13
541.66469747440124
 23
87.076117640734225
 33
0.0
210
0.0
220
0.0
230
-1.0
  0
SOLID
  5
480
  8
0
  6
CONTINUOUS
 10
-275.0270586619236
 20
87.076117640734225
 30
0.0
 11
-263.35532729169603
 21
86.096207922020923
 31
0.0
 12
-257.42668618736349
 22
86.096207922020923
 32
0.0
 13
-257.42668618736349
 23
86.096207922020923
 33
0.0
  0
SOLID
  5
481
  8
0
  6
CONTINUOUS
 10
275.0270586619236
 20
87.076117640734225
 30
0.0
 11
263.13447889960008
 21
87.076117640734225
 31
0.0
 12
257.42668618736349
 22
86.096207922020923
 32
0.0
 13
257.42668618736349
 23
86.096207922020923
 33
0.0
210
0.0
220
0.0
230
-1.0
  0
SOLID
  5
482
  8
0
  6
CONTINUOUS
 10
-309.55727723672442
 20
87.076117640734225
 30
0.0
 11
-315.26506994896113
 21
86.096207922020923
 31
0.0
 12
-309.33642884462671
 22
86.096207922020923
 32
0.0
 13
-309.33642884462671
 23
86.096207922020923
 33
0.0
210
0.0
220
0.0
230
1.0
  0
SOLID
  5
483
  8
0
  6
CONTINUOUS
 10
309.55727723672442
 20
87.076117640734225
 30
0.0
 11
297.66469747440101
 21
87.076117640734225
 31
0.0
 12
309.33642884462671
 22
86.096207922020923
 32
0.0
 13
309.33642884462671
 23
86.096207922020923
 33
0.0
210
0.0
220
0.0
230
-1.0
  0
SOLID
  5
484
  8
0
  6
CONTINUOUS
 10
-519.02705866192389
 20
87.076117640734225
 30
0.0
 11
-507.35532729169682
 21
86.096207922020923
 31
0.0
 12
-501.4266861873636
 22
86.096207922020923
 32
0.0
 13
-501.4266861873636
 23
86.096207922020923
 33
0.0
  0
SOLID
  5
485
  8
0
  6
CONTINUOUS
 10
519.02705866192389
 20
87.076117640734225
 30
0.0
 11
507.13447889960031
 21
87.076117640734225
 31
0.0
 12
501.4266861873636
 22
86.096207922020923
 32
0.0
 13
501.4266861873636
 23
86.096207922020923
 33
0.0
210
0.0
220
0.0
230
-1.0
  0
SOLID
  5
486
  8
0
  6
CONTINUOUS
 10
-553.55727723672464
 20
87.076117640734225
 30
0.0
 11
-559.26506994896124
 21
86.096207922020923
 31
0.0
 12
-553.33642884462699
 22
86.096207922020923
 32
0.0
 13
-553.33642884462699
 23
86.096207922020923
 33
0.0
  0
SOLID
  5
487
  8
0
  6
CONTINUOUS
 10
553.55727723672464
 20
87.076117640734225
 30
0.0
 11
541.66469747440124
 21
87.076117640734225
 31
0.0
 12
553.33642884462699
 22
86.096207922020923
 32
0.0
 13
553.33642884462699
 23
86.096207922020923
 33
0.0
210
0.0
220
0.0
230
-1.0
  0
SOLID
  5
488
  8
0
  6
CONTINUOUS
 10
-263.35532729169807
 20
86.096207922020923
 30
0.0
 11
-253.8821697335222
 21
84.476654736557364
 31
0.0
 12
-247.99308869104831
 22
84.476654736557364
 32
0.0
 13
-247.99308869104831
 23
84.476654736557364
 33
0.0
210
0.0
220
0.0
230
1.0
  0
SOLID
  5
489
  8
0
  6
CONTINUOUS
 10
263.35532729169807
 20
86.096207922020923
 30
0.0
 11
257.42668618736349
 21
86.096207922020923
 31
0.0
 12
247.99308869104831
 22
84.476654736557364
 32
0.0
 13
247.99308869104831
 23
84.476654736557364
 33
0.0
210
0.0
220
0.0
230
-1.0
  0
SOLID
  5
48A
  8
0
  6
CONTINUOUS
 10
-315.26506994896113
 20
86.096207922020923
 30
0.0
 11
-324.69866744527639
 21
84.476654736557364
 31
0.0
 12
-318.80958640280193
 22
84.476654736557364
 32
0.0
 13
-318.80958640280193
 23
84.476654736557364
 33
0.0
210
0.0
220
0.0
230
1.0
  0
SOLID
  5
48B
  8
0
  6
CONTINUOUS
 10
315.26506994896113
 20
86.096207922020923
 30
0.0
 11
309.33642884462671
 21
86.096207922020923
 31
0.0
 12
318.80958640280193
 22
84.476654736557364
 32
0.0
 13
318.80958640280193
 23
84.476654736557364
 33
0.0
210
0.0
220
0.0
230
-1.0
  0
SOLID
  5
48C
  8
0
  6
CONTINUOUS
 10
-507.35532729169842
 20
86.096207922020923
 30
0.0
 11
-497.88216973352229
 21
84.476654736557364
 31
0.0
 12
-491.99308869104829
 22
84.476654736557364
 32
0.0
 13
-491.99308869104829
 23
84.476654736557364
 33
0.0
210
0.0
220
0.0
230
1.0
  0
SOLID
  5
48D
  8
0
  6
CONTINUOUS
 10
507.35532729169842
 20
86.096207922020923
 30
0.0
 11
501.4266861873636
 21
86.096207922020923
 31
0.0
 12
491.99308869104829
 22
84.476654736557364
 32
0.0
 13
491.99308869104829
 23
84.476654736557364
 33
0.0
210
0.0
220
0.0
230
-1.0
  0
SOLID
  5
48E
  8
0
  6
CONTINUOUS
 10
-559.26506994896124
 20
86.096207922020923
 30
0.0
 11
-568.69866744527644
 21
84.476654736557364
 31
0.0
 12
-562.80958640280244
 22
84.476654736557364
 32
0.0
 13
-562.80958640280244
 23
84.476654736557364
 33
0.0
210
0.0
220
0.0
230
1.0
  0
SOLID
  5
48F
  8
0
  6
CONTINUOUS
 10
559.26506994896124
 20
86.096207922020923
 30
0.0
 11
553.33642884462699
 21
86.096207922020923
 31
0.0
 12
562.80958640280244
 22
84.476654736557364
 32
0.0
 13
562.80958640280244
 23
84.476654736557364
 33
0.0
210
0.0
220
0.0
230
-1.0
  0
SOLID
  5
490
  8
0
  6
CONTINUOUS
 10
-253.8821697335222
 20
84.476654736557364
 30
0.0
 11
-248.35532729169691
 21
83.531772818649401
 31
0.0
 12
-244.3642463415772
 22
83.531772818649401
 32
0.0
 13
-244.3642463415772
 23
83.531772818649401
 33
0.0
210
0.0
220
0.0
230
1.0
  0
SOLID
  5
491
  8
0
  6
CONTINUOUS
 10
253.8821697335222
 20
84.476654736557364
 30
0.0
 11
247.99308869104831
 21
84.476654736557364
 31
0.0
 12
244.3642463415772
 22
83.531772818649401
 32
0.0
 13
244.3642463415772
 23
83.531772818649401
 33
0.0
210
0.0
220
0.0
230
-1.0
  0
SOLID
  5
492
  8
0
  6
CONTINUOUS
 10
-324.69866744527639
 20
84.476654736557364
 30
0.0
 11
-328.3275097947473
 21
83.531772818649401
 31
0.0
 12
-324.33642884462688
 22
83.531772818649401
 32
0.0
 13
-324.33642884462688
 23
83.531772818649401
 33
0.0
210
0.0
220
0.0
230
1.0
  0
SOLID
  5
493
  8
0
  6
CONTINUOUS
 10
324.69866744527639
 20
84.476654736557364
 30
0.0
 11
318.80958640280193
 21
84.476654736557364
 31
0.0
 12
324.33642884462688
 22
83.531772818649401
 32
0.0
 13
324.33642884462688
 23
83.531772818649401
 33
0.0
210
0.0
220
0.0
230
-1.0
  0
SOLID
  5
494
  8
0
  6
CONTINUOUS
 10
-497.88216973352229
 20
84.476654736557364
 30
0.0
 11
-492.35532729169682
 21
83.531772818649401
 31
0.0
 12
-488.36424634157743
 22
83.531772818649401
 32
0.0
 13
-488.36424634157743
 23
83.531772818649401
 33
0.0
210
0.0
220
0.0
230
1.0
  0
SOLID
  5
495
  8
0
  6
CONTINUOUS
 10
497.88216973352229
 20
84.476654736557364
 30
0.0
 11
491.99308869104829
 21
84.476654736557364
 31
0.0
 12
488.36424634157743
 22
83.531772818649401
 32
0.0
 13
488.36424634157743
 23
83.531772818649401
 33
0.0
210
0.0
220
0.0
230
-1.0
  0
SOLID
  5
496
  8
0
  6
CONTINUOUS
 10
-568.69866744527644
 20
84.476654736557364
 30
0.0
 11
-572.32750979474747
 21
83.531772818649401
 31
0.0
 12
-568.33642884462745
 22
83.531772818649401
 32
0.0
 13
-568.33642884462745
 23
83.531772818649401
 33
0.0
  0
SOLID
  5
497
  8
0
  6
CONTINUOUS
 10
568.69866744527644
 20
84.476654736557364
 30
0.0
 11
562.80958640280244
 21
84.476654736557364
 31
0.0
 12
568.33642884462745
 22
83.531772818649401
 32
0.0
 13
568.33642884462745
 23
83.531772818649401
 33
0.0
210
0.0
220
0.0
230
-1.0
  0
SOLID
  5
498
  8
0
  6
CONTINUOUS
 10
-248.3553272916979
 20
83.531772818649401
 30
0.0
 11
-236.96058739208939
 21
80.577460380291839
 31
0.0
 12
-233.01813643440741
 22
80.577460380291839
 32
0.0
 13
-233.01813643440741
 23
80.577460380291839
 33
0.0
210
0.0
220
0.0
230
1.0
  0
SOLID
  5
499
  8
0
  6
CONTINUOUS
 10
248.3553272916979
 20
83.531772818649401
 30
0.0
 11
244.3642463415772
 21
83.531772818649401
 31
0.0
 12
233.01813643440741
 22
80.577460380291839
 32
0.0
 13
233.01813643440741
 23
80.577460380291839
 33
0.0
210
0.0
220
0.0
230
-1.0
  0
SOLID
  5
49A
  8
0
  6
CONTINUOUS
 10
-328.3275097947473
 20
83.531772818649401
 30
0.0
 11
-339.67361970191672
 21
80.577460380291839
 31
0.0
 12
-335.73116874423482
 22
80.577460380291839
 32
0.0
 13
-335.73116874423482
 23
80.577460380291839
 33
0.0
210
0.0
220
0.0
230
1.0
  0
SOLID
  5
49B
  8
0
  6
CONTINUOUS
 10
328.3275097947473
 20
83.531772818649401
 30
0.0
 11
324.33642884462688
 21
83.531772818649401
 31
0.0
 12
335.73116874423482
 22
80.577460380291839
 32
0.0
 13
335.73116874423482
 23
80.577460380291839
 33
0.0
210
0.0
220
0.0
230
-1.0
  0
SOLID
  5
49C
  8
0
  6
CONTINUOUS
 10
-492.35532729169779
 20
83.531772818649401
 30
0.0
 11
-480.96058739208951
 21
80.577460380291839
 31
0.0
 12
-477.01813643440801
 22
80.577460380291839
 32
0.0
 13
-477.01813643440801
 23
80.577460380291839
 33
0.0
210
0.0
220
0.0
230
1.0
  0
SOLID
  5
49D
  8
0
  6
CONTINUOUS
 10
492.35532729169779
 20
83.531772818649401
 30
0.0
 11
488.36424634157743
 21
83.531772818649401
 31
0.0
 12
477.01813643440801
 22
80.577460380291839
 32
0.0
 13
477.01813643440801
 23
80.577460380291839
 33
0.0
210
0.0
220
0.0
230
-1.0
  0
SOLID
  5
49E
  8
0
  6
CONTINUOUS
 10
-572.32750979474747
 20
83.531772818649401
 30
0.0
 11
-583.67361970191689
 21
80.577460380291839
 31
0.0
 12
-579.73116874423511
 22
80.577460380291839
 32
0.0
 13
-579.73116874423511
 23
80.577460380291839
 33
0.0
210
0.0
220
0.0
230
1.0
  0
SOLID
  5
49F
  8
0
  6
CONTINUOUS
 10
572.32750979474747
 20
83.531772818649401
 30
0.0
 11
568.33642884462733
 21
83.531772818649401
 31
0.0
 12
579.73116874423511
 22
80.577460380291839
 32
0.0
 13
579.73116874423511
 23
80.577460380291839
 33
0.0
210
0.0
220
0.0
230
-1.0
  0
SOLID
  5
4A0
  8
0
  6
CONTINUOUS
 10
-583.67361970191689
 20
80.577460380291839
 30
0.0
 11
-586.15135104328988
 21
79.707586390791292
 31
0.0
 12
-583.08626000916024
 22
79.707586390791292
 32
0.0
 13
-583.08626000916024
 23
79.707586390791292
 33
0.0
210
0.0
220
0.0
230
1.0
  0
SOLID
  5
4A1
  8
0
  6
CONTINUOUS
 10
583.67361970191689
 20
80.577460380291839
 30
0.0
 11
579.73116874423511
 21
80.577460380291839
 31
0.0
 12
583.08626000916024
 22
79.707586390791292
 32
0.0
 13
583.08626000916024
 23
79.707586390791292
 33
0.0
210
0.0
220
0.0
230
-1.0
  0
SOLID
  5
4A2
  8
0
  6
CONTINUOUS
 10
-236.96058739208939
 20
80.577460380291839
 30
0.0
 11
-233.51884421718469
 21
79.685120163592188
 31
0.0
 12
-230.4764127494015
 22
79.685120163592188
 32
0.0
 13
-230.4764127494015
 23
79.685120163592188
 33
0.0
210
0.0
220
0.0
230
1.0
  0
SOLID
  5
4A3
  8
0
  6
CONTINUOUS
 10
236.96058739208939
 20
80.577460380291839
 30
0.0
 11
233.0181364344075
 21
80.577460380291839
 31
0.0
 12
230.4764127494015
 22
79.685120163592188
 32
0.0
 13
230.4764127494015
 23
79.685120163592188
 33
0.0
210
0.0
220
0.0
230
-1.0
  0
SOLID
  5
4A4
  8
0
  6
CONTINUOUS
 10
-339.67361970191672
 20
80.577460380291839
 30
0.0
 11
-342.21534338692283
 21
79.685120163592188
 31
0.0
 12
-339.17291191913921
 22
79.685120163592188
 32
0.0
 13
-339.17291191913921
 23
79.685120163592188
 33
0.0
210
0.0
220
0.0
230
1.0
  0
SOLID
  5
4A5
  8
0
  6
CONTINUOUS
 10
339.67361970191672
 20
80.577460380291839
 30
0.0
 11
335.73116874423482
 21
80.577460380291839
 31
0.0
 12
339.17291191913921
 22
79.685120163592188
 32
0.0
 13
339.17291191913921
 23
79.685120163592188
 33
0.0
210
0.0
220
0.0
230
-1.0
  0
SOLID
  5
4A6
  8
0
  6
CONTINUOUS
 10
-480.96058739208951
 20
80.577460380291839
 30
0.0
 11
-477.51884421718489
 21
79.685120163592188
 31
0.0
 12
-474.47641274940179
 22
79.685120163592188
 32
0.0
 13
-474.47641274940179
 23
79.685120163592188
 33
0.0
210
0.0
220
0.0
230
1.0
  0
SOLID
  5
4A7
  8
0
  6
CONTINUOUS
 10
480.96058739208951
 20
80.577460380291839
 30
0.0
 11
477.01813643440801
 21
80.577460380291839
 31
0.0
 12
474.47641274940179
 22
79.685120163592188
 32
0.0
 13
474.47641274940179
 23
79.685120163592188
 33
0.0
210
0.0
220
0.0
230
-1.0
  0
SOLID
  5
4A8
  8
0
  6
CONTINUOUS
 10
-233.51884421718549
 20
79.685120163592188
 30
0.0
 11
-221.1983170724076
 21
75.378534571938175
 31
0.0
 12
-218.20962212967891
 22
75.378534571938175
 32
0.0
 13
-218.20962212967891
 23
75.378534571938175
 33
0.0
210
0.0
220
0.0
230
1.0
  0
SOLID
  5
4A9
  8
0
  6
CONTINUOUS
 10
233.51884421718549
 20
79.685120163592188
 30
0.0
 11
230.4764127494015
 21
79.685120163592188
 31
0.0
 12
218.20962212967891
 22
75.378534571938175
 32
0.0
 13
218.20962212967891
 23
75.378534571938175
 33
0.0
210
0.0
220
0.0
230
-1.0
  0
SOLID
  5
4AA
  8
0
  6
CONTINUOUS
 10
-342.21534338692283
 20
79.685120163592188
 30
0.0
 11
-354.48213400664559
 21
75.378534571938175
 31
0.0
 12
-351.49343906391658
 22
75.378534571938175
 32
0.0
 13
-351.49343906391658
 23
75.378534571938175
 33
0.0
210
0.0
220
0.0
230
1.0
  0
SOLID
  5
4AB
  8
0
  6
CONTINUOUS
 10
342.21534338692283
 20
79.685120163592188
 30
0.0
 11
339.17291191913921
 21
79.685120163592188
 31
0.0
 12
351.49343906391658
 22
75.378534571938175
 32
0.0
 13
351.49343906391658
 23
75.378534571938175
 33
0.0
210
0.0
220
0.0
230
-1.0
  0
SOLID
  5
4AC
  8
0
  6
CONTINUOUS
 10
-477.51884421718552
 20
79.685120163592188
 30
0.0
 11
-465.19831707240769
 21
75.378534571938175
 31
0.0
 12
-462.20962212967902
 22
75.378534571938175
 32
0.0
 13
-462.20962212967902
 23
75.378534571938175
 33
0.0
  0
SOLID
  5
4AD
  8
0
  6
CONTINUOUS
 10
477.51884421718552
 20
79.685120163592188
 30
0.0
 11
474.47641274940179
 21
79.685120163592188
 31
0.0
 12
462.20962212967902
 22
75.378534571938175
 32
0.0
 13
462.20962212967902
 23
75.378534571938175
 33
0.0
210
0.0
220
0.0
230
-1.0
  0
SOLID
  5
4AE
  8
0
  6
CONTINUOUS
 10
-586.15135104328988
 20
79.707586390791292
 30
0.0
 11
-598.48213400664577
 21
75.378534571938175
 31
0.0
 12
-595.48986676699212
 22
75.378534571938175
 32
0.0
 13
-595.48986676699212
 23
75.378534571938175
 33
0.0
210
0.0
220
0.0
230
1.0
  0
SOLID
  5
4AF
  8
0
  6
CONTINUOUS
 10
586.15135104328988
 20
79.707586390791292
 30
0.0
 11
583.08626000916024
 21
79.707586390791292
 31
0.0
 12
595.48986676699212
 22
75.378534571938175
 32
0.0
 13
595.48986676699212
 23
75.378534571938175
 33
0.0
210
0.0
220
0.0
230
-1.0
  0
SOLID
  5
4B0
  8
0
  6
CONTINUOUS
 10
-221.1983170724076
 20
75.378534571938175
 30
0.0
 11
-218.84587806816029
 21
74.556249956849229
 31
0.0
 12
-217.60372820277121
 22
74.556249956849229
 32
0.0
 13
-217.60372820277121
 23
74.556249956849229
 33
0.0
210
0.0
220
0.0
230
1.0
  0
SOLID
  5
4B1
  8
0
  6
CONTINUOUS
 10
221.1983170724076
 20
75.378534571938175
 30
0.0
 11
218.20962212967891
 21
75.378534571938175
 31
0.0
 12
217.60372820277121
 22
74.556249956849229
 32
0.0
 13
217.60372820277121
 23
74.556249956849229
 33
0.0
210
0.0
220
0.0
230
-1.0
  0
SOLID
  5
4B2
  8
0
  6
CONTINUOUS
 10
-354.48213400664559
 20
75.378534571938175
 30
0.0
 11
-355.08802793355318
 21
74.556249956849229
 31
0.0
 12
-353.84587806816393
 22
74.556249956849229
 32
0.0
 13
-353.84587806816393
 23
74.556249956849229
 33
0.0
  0
SOLID
  5
4B3
  8
0
  6
CONTINUOUS
 10
354.48213400664559
 20
75.378534571938175
 30
0.0
 11
351.49343906391658
 21
75.378534571938175
 31
0.0
 12
353.84587806816393
 22
74.556249956849229
 32
0.0
 13
353.84587806816393
 23
74.556249956849229
 33
0.0
210
0.0
220
0.0
230
-1.0
  0
SOLID
  5
4B4
  8
0
  6
CONTINUOUS
 10
-465.19831707240769
 20
75.378534571938175
 30
0.0
 11
-462.8458780681604
 21
74.556249956849229
 31
0.0
 12
-461.60372820277132
 22
74.556249956849229
 32
0.0
 13
-461.60372820277132
 23
74.556249956849229
 33
0.0
210
0.0
220
0.0
230
1.0
  0
SOLID
  5
4B5
  8
0
  6
CONTINUOUS
 10
465.19831707240769
 20
75.378534571938175
 30
0.0
 11
462.20962212967902
 21
75.378534571938175
 31
0.0
 12
461.60372820277132
 22
74.556249956849229
 32
0.0
 13
461.60372820277132
 23
74.556249956849229
 33
0.0
210
0.0
220
0.0
230
-1.0
  0
SOLID
  5
4B6
  8
0
  6
CONTINUOUS
 10
-598.48213400664577
 20
75.378534571938175
 30
0.0
 11
-599.08802793355335
 21
74.556249956849229
 31
0.0
 12
-597.84587806816455
 22
74.556249956849229
 32
0.0
 13
-597.84587806816455
 23
74.556249956849229
 33
0.0
210
0.0
220
0.0
230
1.0
  0
SOLID
  5
4B7
  8
0
  6
CONTINUOUS
 10
598.48213400664577
 20
75.378534571938175
 30
0.0
 11
595.48986676699212
 21
75.378534571938175
 31
0.0
 12
597.84587806816455
 22
74.556249956849229
 32
0.0
 13
597.84587806816455
 23
74.556249956849229
 33
0.0
210
0.0
220
0.0
230
-1.0
  0
SOLID
  5
4B8
  8
0
  6
CONTINUOUS
 10
-117.0000000000076
 20
81.021566380362756
 30
0.0
 11
-117.0000000000076
 21
68.651098829573755
 31
0.0
 12
-116.0000000000075
 22
68.651098829573755
 32
0.0
 13
-116.0000000000075
 23
68.651098829573755
 33
0.0
210
0.0
220
0.0
230
1.0
  0
SOLID
  5
4B9
  8
0
  6
CONTINUOUS
 10
117.0000000000076
 20
81.021566380362756
 30
0.0
 11
116.0000000000075
 21
81.021566380362756
 31
0.0
 12
116.0000000000075
 22
68.651098829573755
 32
0.0
 13
116.0000000000075
 23
68.651098829573755
 33
0.0
210
0.0
220
0.0
230
-1.0
  0
SOLID
  5
4BA
  8
0
  6
CONTINUOUS
 10
-117.0000000000076
 20
68.651098829573755
 30
0.0
 11
-117.0810923106246
 21
67.912958091397897
 31
0.0
 12
-116.0810923106246
 22
67.912958091397897
 32
0.0
 13
-116.0810923106246
 23
67.912958091397897
 33
0.0
210
0.0
220
0.0
230
1.0
  0
SOLID
  5
4BB
  8
0
  6
CONTINUOUS
 10
117.0000000000076
 20
68.651098829573755
 30
0.0
 11
116.0000000000075
 21
68.651098829573755
 31
0.0
 12
116.0810923106246
 22
67.912958091397897
 32
0.0
 13
116.0810923106246
 23
67.912958091397897
 33
0.0
210
0.0
220
0.0
230
-1.0
  0
SOLID
  5
4BC
  8
0
  6
CONTINUOUS
 10
-117.0810923106246
 20
67.912958091397897
 30
0.0
 11
-117.1550337465648
 21
67.695857874287412
 31
0.0
 12
-116.10494299021791
 22
67.695857874287412
 32
0.0
 13
-116.10494299021791
 23
67.695857874287412
 33
0.0
210
0.0
220
0.0
230
1.0
  0
SOLID
  5
4BD
  8
0
  6
CONTINUOUS
 10
117.0810923106246
 20
67.912958091397897
 30
0.0
 11
116.0810923106246
 21
67.912958091397897
 31
0.0
 12
116.10494299021791
 22
67.695857874287412
 32
0.0
 13
116.10494299021791
 23
67.695857874287412
 33
0.0
210
0.0
220
0.0
230
-1.0
  0
SOLID
  5
4BE
  8
0
  6
CONTINUOUS
 10
-117.1550337465648
 20
67.695857874287412
 30
0.0
 11
-117.3205010290398
 21
67.210027669704004
 31
0.0
 12
-116.2704102726928
 22
67.210027669704004
 32
0.0
 13
-116.2704102726928
 23
67.210027669704004
 33
0.0
210
0.0
220
0.0
230
1.0
  0
SOLID
  5
4BF
  8
0
  6
CONTINUOUS
 10
117.1550337465648
 20
67.695857874287412
 30
0.0
 11
116.10494299021791
 21
67.695857874287412
 31
0.0
 12
116.2704102726928
 22
67.210027669704004
 32
0.0
 13
116.2704102726928
 23
67.210027669704004
 33
0.0
210
0.0
220
0.0
230
-1.0
  0
SOLID
  5
4C0
  8
0
  6
CONTINUOUS
 10
-117.3205010290398
 20
67.210027669704004
 30
0.0
 11
-117.5786782294654
 21
66.786183210918622
 31
0.0
 12
-116.4147660375787
 22
66.786183210918622
 32
0.0
 13
-116.4147660375787
 23
66.786183210918622
 33
0.0
210
0.0
220
0.0
230
1.0
  0
SOLID
  5
4C1
  8
0
  6
CONTINUOUS
 10
117.3205010290398
 20
67.210027669704004
 30
0.0
 11
116.2704102726928
 21
67.210027669704004
 31
0.0
 12
116.4147660375787
 22
66.786183210918622
 32
0.0
 13
116.4147660375787
 23
66.786183210918622
 33
0.0
210
0.0
220
0.0
230
-1.0
  0
SOLID
  5
4C2
  8
0
  6
CONTINUOUS
 10
-117.5786782294654
 20
66.786183210918622
 30
0.0
 11
-117.7068060339836
 21
66.575838301020298
 31
0.0
 12
-116.5428938420968
 22
66.575838301020298
 32
0.0
 13
-116.5428938420968
 23
66.575838301020298
 33
0.0
210
0.0
220
0.0
230
1.0
  0
SOLID
  5
4C3
  8
0
  6
CONTINUOUS
 10
117.5786782294654
 20
66.786183210918622
 30
0.0
 11
116.4147660375787
 21
66.786183210918622
 31
0.0
 12
116.5428938420968
 22
66.575838301020298
 32
0.0
 13
116.5428938420968
 23
66.575838301020298
 33
0.0
210
0.0
220
0.0
230
-1.0
  0
SOLID
  5
4C4
  8
0
  6
CONTINUOUS
 10
-117.7068060339836
 20
66.575838301020298
 30
0.0
 11
-118.2215800516597
 21
66.04064168021479
 31
0.0
 12
-116.8688992017818
 22
66.04064168021479
 32
0.0
 13
-116.8688992017818
 23
66.04064168021479
 33
0.0
210
0.0
220
0.0
230
1.0
  0
SOLID
  5
4C5
  8
0
  6
CONTINUOUS
 10
117.7068060339836
 20
66.575838301020298
 30
0.0
 11
116.5428938420968
 21
66.575838301020298
 31
0.0
 12
116.8688992017818
 22
66.04064168021479
 32
0.0
 13
116.8688992017818
 23
66.04064168021479
 33
0.0
210
0.0
220
0.0
230
-1.0
  0
SOLID
  5
4C6
  8
0
  6
CONTINUOUS
 10
-118.2215800516597
 20
66.04064168021479
 30
0.0
 11
-118.3348311175351
 21
65.965467557328083
 31
0.0
 12
-116.9146901616235
 22
65.965467557328083
 32
0.0
 13
-116.9146901616235
 23
65.965467557328083
 33
0.0
210
0.0
220
0.0
230
1.0
  0
SOLID
  5
4C7
  8
0
  6
CONTINUOUS
 10
118.2215800516597
 20
66.04064168021479
 30
0.0
 11
116.8688992017818
 21
66.04064168021479
 31
0.0
 12
116.9146901616235
 22
65.965467557328083
 32
0.0
 13
116.9146901616235
 23
65.965467557328083
 33
0.0
210
0.0
220
0.0
230
-1.0
  0
SOLID
  5
4C8
  8
0
  6
CONTINUOUS
 10
-218.8458780681614
 20
74.556249956849229
 30
0.0
 11
-212.4877337019424
 21
65.927339745552217
 31
0.0
 12
-211.24558383655221
 22
65.927339745552217
 32
0.0
 13
-211.24558383655221
 23
65.927339745552217
 33
0.0
  0
SOLID
  5
4C9
  8
0
  6
CONTINUOUS
 10
218.8458780681614
 20
74.556249956849229
 30
0.0
 11
217.60372820277121
 21
74.556249956849229
 31
0.0
 12
211.24558383655221
 22
65.927339745552217
 32
0.0
 13
211.24558383655221
 23
65.927339745552217
 33
0.0
210
0.0
220
0.0
230
-1.0
  0
SOLID
  5
4CA
  8
0
  6
CONTINUOUS
 10
-355.08802793355318
 20
74.556249956849229
 30
0.0
 11
-361.44617229977132
 21
65.927339745552217
 31
0.0
 12
-360.20402243438201
 22
65.927339745552217
 32
0.0
 13
-360.20402243438201
 23
65.927339745552217
 33
0.0
210
0.0
220
0.0
230
1.0
  0
SOLID
  5
4CB
  8
0
  6
CONTINUOUS
 10
355.08802793355318
 20
74.556249956849229
 30
0.0
 11
353.84587806816393
 21
74.556249956849229
 31
0.0
 12
360.20402243438201
 22
65.927339745552217
 32
0.0
 13
360.20402243438201
 23
65.927339745552217
 33
0.0
210
0.0
220
0.0
230
-1.0
  0
SOLID
  5
4CC
  8
0
  6
CONTINUOUS
 10
-462.84587806816143
 20
74.556249956849229
 30
0.0
 11
-456.4877337019426
 21
65.927339745552217
 31
0.0
 12
-455.24558383655261
 22
65.927339745552217
 32
0.0
 13
-455.24558383655261
 23
65.927339745552217
 33
0.0
  0
SOLID
  5
4CD
  8
0
  6
CONTINUOUS
 10
462.84587806816143
 20
74.556249956849229
 30
0.0
 11
461.60372820277132
 21
74.556249956849229
 31
0.0
 12
455.24558383655261
 22
65.927339745552217
 32
0.0
 13
455.24558383655261
 23
65.927339745552217
 33
0.0
210
0.0
220
0.0
230
-1.0
  0
SOLID
  5
4CE
  8
0
  6
CONTINUOUS
 10
-599.08802793355335
 20
74.556249956849229
 30
0.0
 11
-605.44617229977155
 21
65.927339745552217
 31
0.0
 12
-604.20402243438218
 22
65.927339745552217
 32
0.0
 13
-604.20402243438218
 23
65.927339745552217
 33
0.0
  0
SOLID
  5
4CF
  8
0
  6
CONTINUOUS
 10
599.08802793355335
 20
74.556249956849229
 30
0.0
 11
597.8458780681641
 21
74.556249956849229
 31
0.0
 12
604.20402243438218
 22
65.927339745552217
 32
0.0
 13
604.20402243438218
 23
65.927339745552217
 33
0.0
210
0.0
220
0.0
230
-1.0
  0
SOLID
  5
4D0
  8
0
  6
CONTINUOUS
 10
-118.3348311175351
 20
65.965467557328083
 30
0.0
 11
-118.8402676617509
 21
65.629967413531702
 31
0.0
 12
-117.2373879333191
 22
65.629967413531702
 32
0.0
 13
-117.2373879333191
 23
65.629967413531702
 33
0.0
210
0.0
220
0.0
230
1.0
  0
SOLID
  5
4D1
  8
0
  6
CONTINUOUS
 10
118.3348311175351
 20
65.965467557328083
 30
0.0
 11
116.9146901616235
 21
65.965467557328083
 31
0.0
 12
117.2373879333191
 22
65.629967413531702
 32
0.0
 13
117.2373879333191
 23
65.629967413531702
 33
0.0
210
0.0
220
0.0
230
-1.0
  0
SOLID
  5
4D2
  8
0
  6
CONTINUOUS
 10
-118.8402676617509
 20
65.629967413531702
 30
0.0
 11
-119.533356624343
 21
65.363405221675251
 31
0.0
 12
-117.4937783609267
 22
65.363405221675251
 32
0.0
 13
-117.4937783609267
 23
65.363405221675251
 33
0.0
  0
SOLID
  5
4D3
  8
0
  6
CONTINUOUS
 10
118.8402676617509
 20
65.629967413531702
 30
0.0
 11
117.2373879333191
 21
65.629967413531702
 31
0.0
 12
117.4937783609267
 22
65.363405221675251
 32
0.0
 13
117.4937783609267
 23
65.363405221675251
 33
0.0
210
0.0
220
0.0
230
-1.0
  0
SOLID
  5
4D4
  8
0
  6
CONTINUOUS
 10
-119.533356624343
 20
65.363405221675251
 30
0.0
 11
-119.9513236165045
 21
65.272860165697324
 31
0.0
 12
-117.5808683021455
 22
65.272860165697324
 32
0.0
 13
-117.5808683021455
 23
65.272860165697324
 33
0.0
210
0.0
220
0.0
230
1.0
  0
SOLID
  5
4D5
  8
0
  6
CONTINUOUS
 10
119.533356624343
 20
65.363405221675251
 30
0.0
 11
117.4937783609267
 21
65.363405221675251
 31
0.0
 12
117.5808683021455
 22
65.272860165697324
 32
0.0
 13
117.5808683021455
 23
65.272860165697324
 33
0.0
210
0.0
220
0.0
230
-1.0
  0
SOLID
  5
4D6
  8
0
  6
CONTINUOUS
 10
-212.4877337019424
 20
65.927339745552217
 30
0.0
 11
-211.84587806816191
 21
65.056249956850095
 31
0.0
 12
-207.4506801672363
 22
65.056249956850095
 32
0.0
 13
-207.4506801672363
 23
65.056249956850095
 33
0.0
210
0.0
220
0.0
230
1.0
  0
SOLID
  5
4D7
  8
0
  6
CONTINUOUS
 10
212.4877337019424
 20
65.927339745552217
 30
0.0
 11
211.24558383655221
 21
65.927339745552217
 31
0.0
 12
207.4506801672363
 22
65.056249956850095
 32
0.0
 13
207.4506801672363
 23
65.056249956850095
 33
0.0
210
0.0
220
0.0
230
-1.0
  0
SOLID
  5
4D8
  8
0
  6
CONTINUOUS
 10
-361.44617229977331
 20
65.927339745552217
 30
0.0
 11
-365.25951925575799
 21
65.056249956850095
 31
0.0
 12
-360.84587806816251
 22
65.056249956850095
 32
0.0
 13
-360.84587806816251
 23
65.056249956850095
 33
0.0
  0
SOLID
  5
4D9
  8
0
  6
CONTINUOUS
 10
361.44617229977331
 20
65.927339745552217
 30
0.0
 11
360.20402243438201
 21
65.927339745552217
 31
0.0
 12
360.84587806816251
 22
65.056249956850095
 32
0.0
 13
360.84587806816251
 23
65.056249956850095
 33
0.0
210
0.0
220
0.0
230
-1.0
  0
SOLID
  5
4DA
  8
0
  6
CONTINUOUS
 10
-456.4877337019426
 20
65.927339745552217
 30
0.0
 11
-455.84587806816211
 21
65.056249956850095
 31
0.0
 12
-451.43223688056668
 22
65.056249956850095
 32
0.0
 13
-451.43223688056668
 23
65.056249956850095
 33
0.0
210
0.0
220
0.0
230
1.0
  0
SOLID
  5
4DB
  8
0
  6
CONTINUOUS
 10
456.4877337019426
 20
65.927339745552217
 30
0.0
 11
455.24558383655159
 21
65.927339745552217
 31
0.0
 12
451.43223688056668
 22
65.056249956850095
 32
0.0
 13
451.43223688056668
 23
65.056249956850095
 33
0.0
210
0.0
220
0.0
230
-1.0
  0
SOLID
  5
4DC
  8
0
  6
CONTINUOUS
 10
-605.44617229977609
 20
65.927339745552217
 30
0.0
 11
-608.76544032835909
 21
65.056249956850095
 31
0.0
 12
-604.84587806816262
 22
65.056249956850095
 32
0.0
 13
-604.84587806816262
 23
65.056249956850095
 33
0.0
210
0.0
220
0.0
230
1.0
  0
SOLID
  5
4DD
  8
0
  6
CONTINUOUS
 10
605.44617229977609
 20
65.927339745552217
 30
0.0
 11
604.20402243438218
 21
65.927339745552217
 31
0.0
 12
604.84587806816262
 22
65.056249956850095
 32
0.0
 13
604.84587806816262
 23
65.056249956850095
 33
0.0
210
0.0
220
0.0
230
-1.0
  0
SOLID
  5
4DE
  8
0
  6
CONTINUOUS
 10
-119.9513236165045
 20
65.272860165697324
 30
0.0
 11
-122.40461138792161
 21
64.741399349989933
 31
0.0
 12
-118.3815228563813
 22
64.741399349989933
 32
0.0
 13
-118.3815228563813
 23
64.741399349989933
 33
0.0
210
0.0
220
0.0
230
1.0
  0
SOLID
  5
4DF
  8
0
  6
CONTINUOUS
 10
119.9513236165045
 20
65.272860165697324
 30
0.0
 11
117.5808683021455
 21
65.272860165697324
 31
0.0
 12
118.3815228563813
 22
64.741399349989933
 32
0.0
 13
118.3815228563813
 23
64.741399349989933
 33
0.0
210
0.0
220
0.0
230
-1.0
  0
SOLID
  5
4E0
  8
0
  6
CONTINUOUS
 10
-608.76544032835909
 20
65.056249956850095
 30
0.0
 11
-610.00000000000819
 21
64.732259150968702
 31
0.0
 12
-606.07904520830584
 22
64.732259150968702
 32
0.0
 13
-606.07904520830584
 23
64.732259150968702
 33
0.0
210
0.0
220
0.0
230
1.0
  0
SOLID
  5
4E1
  8
0
  6
CONTINUOUS
 10
608.76544032835909
 20
65.056249956850095
 30
0.0
 11
604.84587806816614
 21
65.056249956850095
 31
0.0
 12
606.07904520830584
 22
64.732259150968702
 32
0.0
 13
606.07904520830584
 23
64.732259150968702
 33
0.0
210
0.0
220
0.0
230
-1.0
  0
SOLID
  5
4E2
  8
0
  6
CONTINUOUS
 10
610.00000000000819
 20
64.396436513469439
 30
0.0
 11
607.35724642254229
 21
64.396436513469439
 31
0.0
 12
610.00000000000819
 22
63.702104144856222
 32
0.0
 13
610.00000000000819
 23
63.702104144856222
 33
0.0
210
0.0
220
0.0
230
-1.0
  0
SOLID
  5
4E3
  8
0
  6
CONTINUOUS
 10
-122.40461138792161
 20
64.741399349989933
 30
0.0
 11
-123.99700180207221
 21
64.396436513469439
 31
0.0
 12
-119.27846151385479
 22
64.396436513469439
 32
0.0
 13
-119.27846151385479
 23
64.396436513469439
 33
0.0
210
0.0
220
0.0
230
1.0
  0
SOLID
  5
4E4
  8
0
  6
CONTINUOUS
 10
122.40461138792161
 20
64.741399349989933
 30
0.0
 11
118.3815228563813
 21
64.741399349989933
 31
0.0
 12
119.27846151385479
 22
64.396436513469439
 32
0.0
 13
119.27846151385479
 23
64.396436513469439
 33
0.0
210
0.0
220
0.0
230
-1.0
  0
SOLID
  5
4E5
  8
0
  6
CONTINUOUS
 10
-610.00000000000819
 20
64.732259150968702
 30
0.0
 11
-610.00000000000819
 21
64.396436513469439
 31
0.0
 12
-607.35724642254229
 22
64.396436513469439
 32
0.0
 13
-607.35724642254229
 23
64.396436513469439
 33
0.0
  0
SOLID
  5
4E6
  8
0
  6
CONTINUOUS
 10
610.00000000000819
 20
64.732259150968702
 30
0.0
 11
606.07904520830584
 21
64.732259150968702
 31
0.0
 12
607.35724642254229
 22
64.396436513469439
 32
0.0
 13
607.35724642254229
 23
64.396436513469439
 33
0.0
210
0.0
220
0.0
230
-1.0
  0
SOLID
  5
4E7
  8
0
  6
CONTINUOUS
 10
-211.84587806816191
 20
65.056249956850095
 30
0.0
 11
-200.60753698503331
 21
62.455393356895023
 31
0.0
 12
-196.12004538934499
 22
62.455393356895023
 32
0.0
 13
-196.12004538934499
 23
62.455393356895023
 33
0.0
210
0.0
220
0.0
230
1.0
  0
SOLID
  5
4E8
  8
0
  6
CONTINUOUS
 10
211.84587806816191
 20
65.056249956850095
 30
0.0
 11
207.4506801672363
 21
65.056249956850095
 31
0.0
 12
196.12004538934499
 22
62.455393356895023
 32
0.0
 13
196.12004538934499
 23
62.455393356895023
 33
0.0
210
0.0
220
0.0
230
-1.0
  0
SOLID
  5
4E9
  8
0
  6
CONTINUOUS
 10
-365.25951925575799
 20
65.056249956850095
 30
0.0
 11
-376.93042657952827
 21
62.390243345867788
 31
0.0
 12
-372.430222499085
 22
62.390243345867788
 32
0.0
 13
-372.430222499085
 23
62.390243345867788
 33
0.0
210
0.0
220
0.0
230
1.0
  0
SOLID
  5
4EA
  8
0
  6
CONTINUOUS
 10
365.25951925575799
 20
65.056249956850095
 30
0.0
 11
360.84587806816381
 21
65.056249956850095
 31
0.0
 12
372.430222499085
 22
62.390243345867788
 32
0.0
 13
372.430222499085
 23
62.390243345867788
 33
0.0
210
0.0
220
0.0
230
-1.0
  0
SOLID
  5
4EB
  8
0
  6
CONTINUOUS
 10
-455.84587806816091
 20
65.056249956850095
 30
0.0
 11
-444.26153363723972
 21
62.390243345867788
 31
0.0
 12
-439.76132955679628
 22
62.390243345867788
 32
0.0
 13
-439.76132955679628
 23
62.390243345867788
 33
0.0
210
0.0
220
0.0
230
1.0
  0
SOLID
  5
4EC
  8
0
  6
CONTINUOUS
 10
455.84587806816091
 20
65.056249956850095
 30
0.0
 11
451.43223688056668
 21
65.056249956850095
 31
0.0
 12
439.76132955679628
 22
62.390243345867788
 32
0.0
 13
439.76132955679628
 23
62.390243345867788
 33
0.0
210
0.0
220
0.0
230
-1.0
  0
SOLID
  5
4ED
  8
0
  6
CONTINUOUS
 10
-123.99700180207221
 20
64.396436513469439
 30
0.0
 11
-134.70044741400551
 21
62.077726901791173
 31
0.0
 12
-129.99059613544819
 22
62.077726901791173
 32
0.0
 13
-129.99059613544819
 23
62.077726901791173
 33
0.0
210
0.0
220
0.0
230
1.0
  0
SOLID
  5
4EE
  8
0
  6
CONTINUOUS
 10
123.99700180207221
 20
64.396436513469439
 30
0.0
 11
119.27846151385479
 21
64.396436513469439
 31
0.0
 12
129.99059613544819
 22
62.077726901791173
 32
0.0
 13
129.99059613544819
 23
62.077726901791173
 33
0.0
210
0.0
220
0.0
230
-1.0
  0
SOLID
  5
4EF
  8
0
  6
CONTINUOUS
 10
-200.60753698503331
 20
62.455393356895023
 30
0.0
 11
-196.58377959500081
 21
61.524186883708801
 31
0.0
 12
-189.42381894939339
 22
61.524186883708801
 32
0.0
 13
-189.42381894939339
 23
61.524186883708801
 33
0.0
210
0.0
220
0.0
230
1.0
  0
SOLID
  5
4F0
  8
0
  6
CONTINUOUS
 10
200.60753698503331
 20
62.455393356895023
 30
0.0
 11
196.12004538934499
 21
62.455393356895023
 31
0.0
 12
189.42381894939339
 22
61.524186883708801
 32
0.0
 13
189.42381894939339
 23
61.524186883708801
 33
0.0
210
0.0
220
0.0
230
-1.0
  0
SOLID
  5
4F1
  8
0
  6
CONTINUOUS
 10
-376.93042657952969
 20
62.390243345867788
 30
0.0
 11
-383.86463340648902
 21
61.447621016720952
 31
0.0
 12
-376.52610946505558
 22
61.447621016720952
 32
0.0
 13
-376.52610946505558
 23
61.447621016720952
 33
0.0
210
0.0
220
0.0
230
1.0
  0
SOLID
  5
4F2
  8
0
  6
CONTINUOUS
 10
376.93042657952969
 20
62.390243345867788
 30
0.0
 11
372.430222499085
 21
62.390243345867788
 31
0.0
 12
376.52610946505558
 22
61.447621016720952
 32
0.0
 13
376.52610946505558
 23
61.447621016720952
 33
0.0
210
0.0
220
0.0
230
-1.0
  0
SOLID
  5
4F3
  8
0
  6
CONTINUOUS
 10
-444.26153363723972
 20
62.390243345867788
 30
0.0
 11
-440.16564667126897
 21
61.447621016720952
 31
0.0
 12
-432.82712272983611
 22
61.447621016720952
 32
0.0
 13
-432.82712272983611
 23
61.447621016720952
 33
0.0
210
0.0
220
0.0
230
1.0
  0
SOLID
  5
4F4
  8
0
  6
CONTINUOUS
 10
444.26153363723972
 20
62.390243345867788
 30
0.0
 11
439.76132955679628
 21
62.390243345867788
 31
0.0
 12
432.82712272983611
 22
61.447621016720952
 32
0.0
 13
432.82712272983611
 23
61.447621016720952
 33
0.0
210
0.0
220
0.0
230
-1.0
  0
SOLID
  5
4F5
  8
0
  6
CONTINUOUS
 10
-134.70044741400551
 20
62.077726901791173
 30
0.0
 11
-142.5663898250485
 21
61.08229541141268
 31
0.0
 12
-134.58935920513241
 22
61.08229541141268
 32
0.0
 13
-134.58935920513241
 23
61.08229541141268
 33
0.0
210
0.0
220
0.0
230
1.0
  0
SOLID
  5
4F6
  8
0
  6
CONTINUOUS
 10
134.70044741400551
 20
62.077726901791173
 30
0.0
 11
129.99059613544819
 21
62.077726901791173
 31
0.0
 12
134.58935920513241
 22
61.08229541141268
 32
0.0
 13
134.58935920513241
 23
61.08229541141268
 33
0.0
210
0.0
220
0.0
230
-1.0
  0
SOLID
  5
4F7
  8
0
  6
CONTINUOUS
 10
-196.58377959500081
 20
61.524186883708801
 30
0.0
 11
-188.11816102737919
 21
60.334239007438043
 31
0.0
 12
-180.86700511627581
 22
60.334239007438043
 32
0.0
 13
-180.86700511627581
 23
60.334239007438043
 33
0.0
210
0.0
220
0.0
230
1.0
  0
SOLID
  5
4F8
  8
0
  6
CONTINUOUS
 10
196.58377959500081
 20
61.524186883708801
 30
0.0
 11
189.42381894939339
 21
61.524186883708801
 31
0.0
 12
180.86700511627581
 22
60.334239007438043
 32
0.0
 13
180.86700511627581
 23
60.334239007438043
 33
0.0
210
0.0
220
0.0
230
-1.0
  0
SOLID
  5
4F9
  8
0
  6
CONTINUOUS
 10
-383.86463340648902
 20
61.447621016720952
 30
0.0
 11
-392.54237883903289
 21
60.267985506057272
 31
0.0
 12
-385.14053612657813
 22
60.267985506057272
 32
0.0
 13
-385.14053612657813
 23
60.267985506057272
 33
0.0
210
0.0
220
0.0
230
1.0
  0
SOLID
  5
4FA
  8
0
  6
CONTINUOUS
 10
383.86463340648902
 20
61.447621016720952
 30
0.0
 11
376.52610946505558
 21
61.447621016720952
 31
0.0
 12
385.14053612657813
 22
60.267985506057272
 32
0.0
 13
385.14053612657813
 23
60.267985506057272
 33
0.0
210
0.0
220
0.0
230
-1.0
  0
SOLID
  5
4FB
  8
0
  6
CONTINUOUS
 10
-440.16564667126897
 20
61.447621016720952
 30
0.0
 11
-431.55122000974649
 21
60.267985506057272
 31
0.0
 12
-424.1493772972911
 22
60.267985506057272
 32
0.0
 13
-424.1493772972911
 23
60.267985506057272
 33
0.0
210
0.0
220
0.0
230
1.0
  0
SOLID
  5
4FC
  8
0
  6
CONTINUOUS
 10
440.16564667126897
 20
61.447621016720952
 30
0.0
 11
432.82712272983611
 21
61.447621016720952
 31
0.0
 12
424.1493772972911
 22
60.267985506057272
 32
0.0
 13
424.1493772972911
 23
60.267985506057272
 33
0.0
210
0.0
220
0.0
230
-1.0
  0
SOLID
  5
4FD
  8
0
  6
CONTINUOUS
 10
-142.5663898250485
 20
61.08229541141268
 30
0.0
 11
-149.97841909254839
 21
60.144306426123627
 31
0.0
 12
-142.03057135460611
 22
60.144306426123627
 32
0.0
 13
-142.03057135460611
 23
60.144306426123627
 33
0.0
210
0.0
220
0.0
230
1.0
  0
SOLID
  5
4FE
  8
0
  6
CONTINUOUS
 10
142.5663898250485
 20
61.08229541141268
 30
0.0
 11
134.58935920513241
 21
61.08229541141268
 31
0.0
 12
142.03057135460611
 22
60.144306426123627
 32
0.0
 13
142.03057135460611
 23
60.144306426123627
 33
0.0
210
0.0
220
0.0
230
-1.0
  0
SOLID
  5
4FF
  8
0
  6
CONTINUOUS
 10
-188.11816102737919
 20
60.334239007438043
 30
0.0
 11
-186.7669280708478
 21
60.144306426123627
 31
0.0
 12
-177.06205404866151
 22
60.144306426123627
 32
0.0
 13
-177.06205404866151
 23
60.144306426123627
 33
0.0
210
0.0
220
0.0
230
1.0
  0
SOLID
  5
500
  8
0
  6
CONTINUOUS
 10
188.11816102737919
 20
60.334239007438043
 30
0.0
 11
180.86700511627581
 21
60.334239007438043
 31
0.0
 12
177.06205404866151
 22
60.144306426123627
 32
0.0
 13
177.06205404866151
 23
60.144306426123627
 33
0.0
210
0.0
220
0.0
230
-1.0
  0
SOLID
  5
501
  8
0
  6
CONTINUOUS
 10
-149.97841909254839
 20
60.144306426123627
 30
0.0
 11
-165.4268673386577
 21
59.5635102459268
 31
0.0
 12
-146.63811756274919
 22
59.5635102459268
 32
0.0
 13
-146.63811756274919
 23
59.5635102459268
 33
0.0
210
0.0
220
0.0
230
1.0
  0
SOLID
  5
502
  8
0
  6
CONTINUOUS
 10
149.97841909254839
 20
60.144306426123627
 30
0.0
 11
142.03057135460611
 21
60.144306426123627
 31
0.0
 12
146.63811756274919
 22
59.5635102459268
 32
0.0
 13
146.63811756274919
 23
59.5635102459268
 33
0.0
210
0.0
220
0.0
230
-1.0
  0
SOLID
  5
503
  8
0
  6
CONTINUOUS
 10
-186.7669280708478
 20
60.144306426123627
 30
0.0
 11
-182.63498328139451
 21
59.5635102459268
 31
0.0
 12
-165.4268673386577
 22
59.5635102459268
 32
0.0
 13
-165.4268673386577
 23
59.5635102459268
 33
0.0
210
0.0
220
0.0
230
1.0
  0
SOLID
  5
504
  8
0
  6
CONTINUOUS
 10
186.7669280708478
 20
60.144306426123627
 30
0.0
 11
177.06205404866151
 21
60.144306426123627
 31
0.0
 12
165.4268673386577
 22
59.5635102459268
 32
0.0
 13
165.4268673386577
 23
59.5635102459268
 33
0.0
210
0.0
220
0.0
230
-1.0
  0
SOLID
  5
505
  8
0
  6
CONTINUOUS
 10
-392.54237883903591
 20
60.267985506057272
 30
0.0
 11
-408.28010969562939
 21
59.5635102459268
 31
0.0
 12
-390.28504933289599
 22
59.5635102459268
 32
0.0
 13
-390.28504933289599
 23
59.5635102459268
 33
0.0
  0
SOLID
  5
506
  8
0
  6
CONTINUOUS
 10
392.54237883903591
 20
60.267985506057272
 30
0.0
 11
385.14053612657813
 21
60.267985506057272
 31
0.0
 12
390.28504933289599
 22
59.5635102459268
 32
0.0
 13
390.28504933289599
 23
59.5635102459268
 33
0.0
210
0.0
220
0.0
230
-1.0
  0
SOLID
  5
507
  8
0
  6
CONTINUOUS
 10
-431.55122000974649
 20
60.267985506057272
 30
0.0
 11
-426.40670680342851
 21
59.5635102459268
 31
0.0
 12
-408.411646440693
 22
59.5635102459268
 32
0.0
 13
-408.411646440693
 23
59.5635102459268
 33
0.0
210
0.0
220
0.0
230
1.0
  0
SOLID
  5
508
  8
0
  6
CONTINUOUS
 10
431.55122000974649
 20
60.267985506057272
 30
0.0
 11
424.1493772972911
 21
60.267985506057272
 31
0.0
 12
408.411646440693
 22
59.5635102459268
 32
0.0
 13
408.411646440693
 23
59.5635102459268
 33
0.0
210
0.0
220
0.0
230
-1.0
  0
SOLID
  5
509
  8
0
  6
CONTINUOUS
 10
-408.28010969562939
 20
59.5635102459268
 30
0.0
 11
-408.3458780681612
 21
59.560566226120521
 31
0.0
 12
-390.30654838279912
 22
59.560566226120521
 32
0.0
 13
-390.30654838279912
 23
59.560566226120521
 33
0.0
210
0.0
220
0.0
230
1.0
  0
SOLID
  5
50A
  8
0
  6
CONTINUOUS
 10
408.28010969562939
 20
59.5635102459268
 30
0.0
 11
390.28504933289599
 21
59.5635102459268
 31
0.0
 12
390.30654838279912
 22
59.560566226120521
 32
0.0
 13
390.30654838279912
 23
59.560566226120521
 33
0.0
210
0.0
220
0.0
230
-1.0
  0
SOLID
  5
50B
  8
0
  6
CONTINUOUS
 10
-426.40670680342851
 20
59.5635102459268
 30
0.0
 11
-426.38520775352538
 21
59.560566226120521
 31
0.0
 12
-408.3458780681612
 22
59.560566226120521
 32
0.0
 13
-408.3458780681612
 23
59.560566226120521
 33
0.0
210
0.0
220
0.0
230
1.0
  0
SOLID
  5
50C
  8
0
  6
CONTINUOUS
 10
426.40670680342851
 20
59.5635102459268
 30
0.0
 11
408.411646440693
 21
59.5635102459268
 31
0.0
 12
408.3458780681612
 22
59.560566226120521
 32
0.0
 13
408.3458780681612
 23
59.560566226120521
 33
0.0
210
0.0
220
0.0
230
-1.0
  0
SOLID
  5
50D
  8
0
  6
CONTINUOUS
 10
-182.63498328139451
 20
59.5635102459268
 30
0.0
 11
-181.19071726950341
 21
59.360500712731799
 31
0.0
 12
-148.2486236865542
 22
59.360500712731799
 32
0.0
 13
-148.2486236865542
 23
59.360500712731799
 33
0.0
210
0.0
220
0.0
230
1.0
  0
SOLID
  5
50E
  8
0
  6
CONTINUOUS
 10
182.63498328139451
 20
59.5635102459268
 30
0.0
 11
146.63811756274919
 21
59.5635102459268
 31
0.0
 12
148.2486236865542
 22
59.360500712731799
 32
0.0
 13
148.2486236865542
 23
59.360500712731799
 33
0.0
210
0.0
220
0.0
230
-1.0
  0
SOLID
  5
50F
  8
0
  6
CONTINUOUS
 10
-426.38520775352538
 20
59.560566226120521
 30
0.0
 11
-424.35418504314129
 21
59.282443652643302
 31
0.0
 12
-392.33757109318321
 22
59.282443652643302
 32
0.0
 13
-392.33757109318321
 23
59.282443652643302
 33
0.0
210
0.0
220
0.0
230
1.0
  0
SOLID
  5
510
  8
0
  6
CONTINUOUS
 10
426.38520775352538
 20
59.560566226120521
 30
0.0
 11
390.30654838279912
 21
59.560566226120521
 31
0.0
 12
392.33757109318321
 22
59.282443652643302
 32
0.0
 13
392.33757109318321
 23
59.282443652643302
 33
0.0
210
0.0
220
0.0
230
-1.0
  0
SOLID
  5
511
  8
0
  6
CONTINUOUS
 10
176.83810475951759
 20
59.138259077270781
 30
0.0
 11
150.01170106149991
 21
59.138259077270781
 31
0.0
 12
165.60608908731339
 22
58.564759477481552
 32
0.0
 13
165.60608908731339
 23
58.564759477481552
 33
0.0
210
0.0
220
0.0
230
-1.0
  0
SOLID
  5
512
  8
0
  6
CONTINUOUS
 10
-181.19071726950341
 20
59.360500712731799
 30
0.0
 11
-176.83810475951759
 21
59.138259077270781
 31
0.0
 12
-150.01170106149991
 22
59.138259077270781
 32
0.0
 13
-150.01170106149991
 23
59.138259077270781
 33
0.0
210
0.0
220
0.0
230
1.0
  0
SOLID
  5
513
  8
0
  6
CONTINUOUS
 10
181.19071726950341
 20
59.360500712731799
 30
0.0
 11
148.2486236865542
 21
59.360500712731799
 31
0.0
 12
150.01170106149991
 22
59.138259077270781
 32
0.0
 13
150.01170106149991
 23
59.138259077270781
 33
0.0
210
0.0
220
0.0
230
-1.0
  0
SOLID
  5
514
  8
0
  6
CONTINUOUS
 10
408.43552344384051
 20
58.564759477481552
 30
0.0
 11
408.25623269248388
 21
58.564759477481552
 31
0.0
 12
408.34587806816222
 22
58.560717864617331
 32
0.0
 13
408.34587806816222
 23
58.560717864617331
 33
0.0
210
0.0
220
0.0
230
-1.0
  0
SOLID
  5
515
  8
0
  6
CONTINUOUS
 10
-424.35418504314129
 20
59.282443652643302
 30
0.0
 11
-408.43552344384051
 21
58.564759477481552
 31
0.0
 12
-408.25623269248388
 22
58.564759477481552
 32
0.0
 13
-408.25623269248388
 23
58.564759477481552
 33
0.0
210
0.0
220
0.0
230
1.0
  0
SOLID
  5
516
  8
0
  6
CONTINUOUS
 10
424.35418504314129
 20
59.282443652643302
 30
0.0
 11
392.33757109318321
 21
59.282443652643302
 31
0.0
 12
408.25623269248388
 22
58.564759477481552
 32
0.0
 13
408.25623269248388
 23
58.564759477481552
 33
0.0
210
0.0
220
0.0
230
-1.0
  0
LINE
  5
517
  8
0
  6
CONTINUOUS
 10
-294.13849044165357
 20
88.375849092822733
 30
0.0
 11
-305.97098253285048
 21
87.378425473706756
 31
0.0
  0
LINE
  5
518
  8
0
  6
CONTINUOUS
 10
-278.55326569467098
 20
88.375849092822733
 30
0.0
 11
-266.72077360347407
 21
87.378425473706756
 31
0.0
  0
LINE
  5
519
  8
0
  6
CONTINUOUS
 10
-538.13849044165374
 20
88.375849092822733
 30
0.0
 11
-549.97098253285071
 21
87.378425473706756
 31
0.0
  0
LINE
  5
51A
  8
0
  6
CONTINUOUS
 10
-522.55326569467115
 20
88.375849092822733
 30
0.0
 11
-510.7207736034743
 21
87.378425473706756
 31
0.0
  0
LINE
  5
51B
  8
0
  6
CONTINUOUS
 10
-278.62785550084482
 20
87.378425473706756
 30
0.0
 11
-275.0270586619236
 21
87.076117640734225
 31
0.0
  0
LINE
  5
51C
  8
0
  6
CONTINUOUS
 10
-266.72077360347407
 20
87.378425473706756
 30
0.0
 11
-263.13447889960008
 21
87.076117640734225
 31
0.0
  0
LINE
  5
51D
  8
0
  6
CONTINUOUS
 10
-305.97098253285048
 20
87.378425473706756
 30
0.0
 11
-309.55727723672442
 21
87.076117640734225
 31
0.0
  0
LINE
  5
51E
  8
0
  6
CONTINUOUS
 10
-294.06390063548042
 20
87.378425473706756
 30
0.0
 11
-297.66469747440101
 21
87.076117640734225
 31
0.0
  0
LINE
  5
51F
  8
0
  6
CONTINUOUS
 10
-522.62785550084504
 20
87.378425473706756
 30
0.0
 11
-519.02705866192389
 21
87.076117640734225
 31
0.0
  0
LINE
  5
520
  8
0
  6
CONTINUOUS
 10
-510.7207736034743
 20
87.378425473706756
 30
0.0
 11
-507.13447889960031
 21
87.076117640734225
 31
0.0
  0
LINE
  5
521
  8
0
  6
CONTINUOUS
 10
-549.97098253285071
 20
87.378425473706756
 30
0.0
 11
-553.55727723672464
 21
87.076117640734225
 31
0.0
  0
LINE
  5
522
  8
0
  6
CONTINUOUS
 10
-538.06390063548054
 20
87.378425473706756
 30
0.0
 11
-541.66469747440124
 21
87.076117640734225
 31
0.0
  0
LINE
  5
523
  8
0
  6
CONTINUOUS
 10
-275.0270586619236
 20
87.076117640734225
 30
0.0
 11
-263.35532729169603
 21
86.096207922020923
 31
0.0
  0
LINE
  5
524
  8
0
  6
CONTINUOUS
 10
-263.13447889960008
 20
87.076117640734225
 30
0.0
 11
-257.42668618736349
 21
86.096207922020923
 31
0.0
  0
LINE
  5
525
  8
0
  6
CONTINUOUS
 10
-309.55727723672442
 20
87.076117640734225
 30
0.0
 11
-315.26506994896113
 21
86.096207922020923
 31
0.0
  0
LINE
  5
526
  8
0
  6
CONTINUOUS
 10
-297.66469747440101
 20
87.076117640734225
 30
0.0
 11
-309.33642884462671
 21
86.096207922020923
 31
0.0
  0
LINE
  5
527
  8
0
  6
CONTINUOUS
 10
-519.02705866192389
 20
87.076117640734225
 30
0.0
 11
-507.35532729169682
 21
86.096207922020923
 31
0.0
  0
LINE
  5
528
  8
0
  6
CONTINUOUS
 10
-507.13447889960031
 20
87.076117640734225
 30
0.0
 11
-501.4266861873636
 21
86.096207922020923
 31
0.0
  0
LINE
  5
529
  8
0
  6
CONTINUOUS
 10
-553.55727723672464
 20
87.076117640734225
 30
0.0
 11
-559.26506994896124
 21
86.096207922020923
 31
0.0
  0
LINE
  5
52A
  8
0
  6
CONTINUOUS
 10
-541.66469747440124
 20
87.076117640734225
 30
0.0
 11
-553.33642884462699
 21
86.096207922020923
 31
0.0
  0
LINE
  5
52B
  8
0
  6
CONTINUOUS
 10
-263.35532729169807
 20
86.096207922020923
 30
0.0
 11
-253.8821697335222
 21
84.476654736557364
 31
0.0
  0
LINE
  5
52C
  8
0
  6
CONTINUOUS
 10
-257.42668618736349
 20
86.096207922020923
 30
0.0
 11
-247.99308869104831
 21
84.476654736557364
 31
0.0
  0
LINE
  5
52D
  8
0
  6
CONTINUOUS
 10
-315.26506994896113
 20
86.096207922020923
 30
0.0
 11
-324.69866744527639
 21
84.476654736557364
 31
0.0
  0
LINE
  5
52E
  8
0
  6
CONTINUOUS
 10
-309.33642884462671
 20
86.096207922020923
 30
0.0
 11
-318.80958640280193
 21
84.476654736557364
 31
0.0
  0
LINE
  5
52F
  8
0
  6
CONTINUOUS
 10
-507.35532729169842
 20
86.096207922020923
 30
0.0
 11
-497.88216973352229
 21
84.476654736557364
 31
0.0
  0
LINE
  5
530
  8
0
  6
CONTINUOUS
 10
-501.4266861873636
 20
86.096207922020923
 30
0.0
 11
-491.99308869104829
 21
84.476654736557364
 31
0.0
  0
LINE
  5
531
  8
0
  6
CONTINUOUS
 10
-559.26506994896124
 20
86.096207922020923
 30
0.0
 11
-568.69866744527644
 21
84.476654736557364
 31
0.0
  0
LINE
  5
532
  8
0
  6
CONTINUOUS
 10
-553.33642884462699
 20
86.096207922020923
 30
0.0
 11
-562.80958640280244
 21
84.476654736557364
 31
0.0
  0
LINE
  5
533
  8
0
  6
CONTINUOUS
 10
-253.8821697335222
 20
84.476654736557364
 30
0.0
 11
-248.35532729169691
 21
83.531772818649401
 31
0.0
  0
LINE
  5
534
  8
0
  6
CONTINUOUS
 10
-247.99308869104831
 20
84.476654736557364
 30
0.0
 11
-244.3642463415772
 21
83.531772818649401
 31
0.0
  0
LINE
  5
535
  8
0
  6
CONTINUOUS
 10
-324.69866744527639
 20
84.476654736557364
 30
0.0
 11
-328.3275097947473
 21
83.531772818649401
 31
0.0
  0
LINE
  5
536
  8
0
  6
CONTINUOUS
 10
-318.80958640280193
 20
84.476654736557364
 30
0.0
 11
-324.33642884462688
 21
83.531772818649401
 31
0.0
  0
LINE
  5
537
  8
0
  6
CONTINUOUS
 10
-497.88216973352229
 20
84.476654736557364
 30
0.0
 11
-492.35532729169682
 21
83.531772818649401
 31
0.0
  0
LINE
  5
538
  8
0
  6
CONTINUOUS
 10
-491.99308869104829
 20
84.476654736557364
 30
0.0
 11
-488.36424634157743
 21
83.531772818649401
 31
0.0
  0
LINE
  5
539
  8
0
  6
CONTINUOUS
 10
-568.69866744527644
 20
84.476654736557364
 30
0.0
 11
-572.32750979474747
 21
83.531772818649401
 31
0.0
  0
LINE
  5
53A
  8
0
  6
CONTINUOUS
 10
-562.80958640280244
 20
84.476654736557364
 30
0.0
 11
-568.33642884462745
 21
83.531772818649401
 31
0.0
  0
LINE
  5
53B
  8
0
  6
CONTINUOUS
 10
-248.3553272916979
 20
83.531772818649401
 30
0.0
 11
-236.96058739208939
 21
80.577460380291839
 31
0.0
  0
LINE
  5
53C
  8
0
  6
CONTINUOUS
 10
-244.3642463415772
 20
83.531772818649401
 30
0.0
 11
-233.01813643440741
 21
80.577460380291839
 31
0.0
  0
LINE
  5
53D
  8
0
  6
CONTINUOUS
 10
-328.3275097947473
 20
83.531772818649401
 30
0.0
 11
-339.67361970191672
 21
80.577460380291839
 31
0.0
  0
LINE
  5
53E
  8
0
  6
CONTINUOUS
 10
-324.33642884462688
 20
83.531772818649401
 30
0.0
 11
-335.73116874423482
 21
80.577460380291839
 31
0.0
  0
LINE
  5
53F
  8
0
  6
CONTINUOUS
 10
-492.35532729169779
 20
83.531772818649401
 30
0.0
 11
-480.96058739208951
 21
80.577460380291839
 31
0.0
  0
LINE
  5
540
  8
0
  6
CONTINUOUS
 10
-488.36424634157743
 20
83.531772818649401
 30
0.0
 11
-477.01813643440801
 21
80.577460380291839
 31
0.0
  0
LINE
  5
541
  8
0
  6
CONTINUOUS
 10
-572.32750979474747
 20
83.531772818649401
 30
0.0
 11
-583.67361970191689
 21
80.577460380291839
 31
0.0
  0
LINE
  5
542
  8
0
  6
CONTINUOUS
 10
-568.33642884462733
 20
83.531772818649401
 30
0.0
 11
-579.73116874423511
 21
80.577460380291839
 31
0.0
  0
LINE
  5
543
  8
0
  6
CONTINUOUS
 10
-583.67361970191689
 20
80.577460380291839
 30
0.0
 11
-586.15135104328988
 21
79.707586390791292
 31
0.0
  0
LINE
  5
544
  8
0
  6
CONTINUOUS
 10
-579.73116874423511
 20
80.577460380291839
 30
0.0
 11
-583.08626000916024
 21
79.707586390791292
 31
0.0
  0
LINE
  5
545
  8
0
  6
CONTINUOUS
 10
-236.96058739208939
 20
80.577460380291839
 30
0.0
 11
-233.51884421718469
 21
79.685120163592188
 31
0.0
  0
LINE
  5
546
  8
0
  6
CONTINUOUS
 10
-233.0181364344075
 20
80.577460380291839
 30
0.0
 11
-230.4764127494015
 21
79.685120163592188
 31
0.0
  0
LINE
  5
547
  8
0
  6
CONTINUOUS
 10
-339.67361970191672
 20
80.577460380291839
 30
0.0
 11
-342.21534338692283
 21
79.685120163592188
 31
0.0
  0
LINE
  5
548
  8
0
  6
CONTINUOUS
 10
-335.73116874423482
 20
80.577460380291839
 30
0.0
 11
-339.17291191913921
 21
79.685120163592188
 31
0.0
  0
LINE
  5
549
  8
0
  6
CONTINUOUS
 10
-480.96058739208951
 20
80.577460380291839
 30
0.0
 11
-477.51884421718489
 21
79.685120163592188
 31
0.0
  0
LINE
  5
54A
  8
0
  6
CONTINUOUS
 10
-477.01813643440801
 20
80.577460380291839
 30
0.0
 11
-474.47641274940179
 21
79.685120163592188
 31
0.0
  0
LINE
  5
54B
  8
0
  6
CONTINUOUS
 10
-233.51884421718549
 20
79.685120163592188
 30
0.0
 11
-221.1983170724076
 21
75.378534571938175
 31
0.0
  0
LINE
  5
54C
  8
0
  6
CONTINUOUS
 10
-230.4764127494015
 20
79.685120163592188
 30
0.0
 11
-218.20962212967891
 21
75.378534571938175
 31
0.0
  0
LINE
  5
54D
  8
0
  6
CONTINUOUS
 10
-342.21534338692283
 20
79.685120163592188
 30
0.0
 11
-354.48213400664559
 21
75.378534571938175
 31
0.0
  0
LINE
  5
54E
  8
0
  6
CONTINUOUS
 10
-339.17291191913921
 20
79.685120163592188
 30
0.0
 11
-351.49343906391658
 21
75.378534571938175
 31
0.0
  0
LINE
  5
54F
  8
0
  6
CONTINUOUS
 10
-477.51884421718552
 20
79.685120163592188
 30
0.0
 11
-465.19831707240769
 21
75.378534571938175
 31
0.0
  0
LINE
  5
550
  8
0
  6
CONTINUOUS
 10
-474.47641274940179
 20
79.685120163592188
 30
0.0
 11
-462.20962212967902
 21
75.378534571938175
 31
0.0
  0
LINE
  5
551
  8
0
  6
CONTINUOUS
 10
-586.15135104328988
 20
79.707586390791292
 30
0.0
 11
-598.48213400664577
 21
75.378534571938175
 31
0.0
  0
LINE
  5
552
  8
0
  6
CONTINUOUS
 10
-583.08626000916024
 20
79.707586390791292
 30
0.0
 11
-595.48986676699212
 21
75.378534571938175
 31
0.0
  0
LINE
  5
553
  8
0
  6
CONTINUOUS
 10
-221.1983170724076
 20
75.378534571938175
 30
0.0
 11
-218.84587806816029
 21
74.556249956849229
 31
0.0
  0
LINE
  5
554
  8
0
  6
CONTINUOUS
 10
-218.20962212967891
 20
75.378534571938175
 30
0.0
 11
-217.60372820277121
 21
74.556249956849229
 31
0.0
  0
LINE
  5
555
  8
0
  6
CONTINUOUS
 10
-354.48213400664559
 20
75.378534571938175
 30
0.0
 11
-355.08802793355318
 21
74.556249956849229
 31
0.0
  0
LINE
  5
556
  8
0
  6
CONTINUOUS
 10
-351.49343906391658
 20
75.378534571938175
 30
0.0
 11
-353.84587806816393
 21
74.556249956849229
 31
0.0
  0
LINE
  5
557
  8
0
  6
CONTINUOUS
 10
-465.19831707240769
 20
75.378534571938175
 30
0.0
 11
-462.8458780681604
 21
74.556249956849229
 31
0.0
  0
LINE
  5
558
  8
0
  6
CONTINUOUS
 10
-462.20962212967902
 20
75.378534571938175
 30
0.0
 11
-461.60372820277132
 21
74.556249956849229
 31
0.0
  0
LINE
  5
559
  8
0
  6
CONTINUOUS
 10
-598.48213400664577
 20
75.378534571938175
 30
0.0
 11
-599.08802793355335
 21
74.556249956849229
 31
0.0
  0
LINE
  5
55A
  8
0
  6
CONTINUOUS
 10
-595.48986676699212
 20
75.378534571938175
 30
0.0
 11
-597.84587806816455
 21
74.556249956849229
 31
0.0
  0
LINE
  5
55B
  8
0
  6
CONTINUOUS
 10
-117.0000000000076
 20
81.021566380362756
 30
0.0
 11
-117.0000000000076
 21
68.651098829573755
 31
0.0
  0
LINE
  5
55C
  8
0
  6
CONTINUOUS
 10
-116.0000000000075
 20
81.021566380362756
 30
0.0
 11
-116.0000000000075
 21
68.651098829573755
 31
0.0
  0
LINE
  5
55D
  8
0
  6
CONTINUOUS
 10
-117.0000000000076
 20
68.651098829573755
 30
0.0
 11
-117.0810923106246
 21
67.912958091397897
 31
0.0
  0
LINE
  5
55E
  8
0
  6
CONTINUOUS
 10
-116.0000000000075
 20
68.651098829573755
 30
0.0
 11
-116.0810923106246
 21
67.912958091397897
 31
0.0
  0
LINE
  5
55F
  8
0
  6
CONTINUOUS
 10
-117.0810923106246
 20
67.912958091397897
 30
0.0
 11
-117.1550337465648
 21
67.695857874287412
 31
0.0
  0
LINE
  5
560
  8
0
  6
CONTINUOUS
 10
-116.0810923106246
 20
67.912958091397897
 30
0.0
 11
-116.10494299021791
 21
67.695857874287412
 31
0.0
  0
LINE
  5
561
  8
0
  6
CONTINUOUS
 10
-117.1550337465648
 20
67.695857874287412
 30
0.0
 11
-117.3205010290398
 21
67.210027669704004
 31
0.0
  0
LINE
  5
562
  8
0
  6
CONTINUOUS
 10
-116.10494299021791
 20
67.695857874287412
 30
0.0
 11
-116.2704102726928
 21
67.210027669704004
 31
0.0
  0
LINE
  5
563
  8
0
  6
CONTINUOUS
 10
-117.3205010290398
 20
67.210027669704004
 30
0.0
 11
-117.5786782294654
 21
66.786183210918622
 31
0.0
  0
LINE
  5
564
  8
0
  6
CONTINUOUS
 10
-116.2704102726928
 20
67.210027669704004
 30
0.0
 11
-116.4147660375787
 21
66.786183210918622
 31
0.0
  0
LINE
  5
565
  8
0
  6
CONTINUOUS
 10
-117.5786782294654
 20
66.786183210918622
 30
0.0
 11
-117.7068060339836
 21
66.575838301020298
 31
0.0
  0
LINE
  5
566
  8
0
  6
CONTINUOUS
 10
-116.4147660375787
 20
66.786183210918622
 30
0.0
 11
-116.5428938420968
 21
66.575838301020298
 31
0.0
  0
LINE
  5
567
  8
0
  6
CONTINUOUS
 10
-117.7068060339836
 20
66.575838301020298
 30
0.0
 11
-118.2215800516597
 21
66.04064168021479
 31
0.0
  0
LINE
  5
568
  8
0
  6
CONTINUOUS
 10
-116.5428938420968
 20
66.575838301020298
 30
0.0
 11
-116.8688992017818
 21
66.04064168021479
 31
0.0
  0
LINE
  5
569
  8
0
  6
CONTINUOUS
 10
-118.2215800516597
 20
66.04064168021479
 30
0.0
 11
-118.3348311175351
 21
65.965467557328083
 31
0.0
  0
LINE
  5
56A
  8
0
  6
CONTINUOUS
 10
-116.8688992017818
 20
66.04064168021479
 30
0.0
 11
-116.9146901616235
 21
65.965467557328083
 31
0.0
  0
LINE
  5
56B
  8
0
  6
CONTINUOUS
 10
-218.8458780681614
 20
74.556249956849229
 30
0.0
 11
-212.4877337019424
 21
65.927339745552217
 31
0.0
  0
LINE
  5
56C
  8
0
  6
CONTINUOUS
 10
-217.60372820277121
 20
74.556249956849229
 30
0.0
 11
-211.24558383655221
 21
65.927339745552217
 31
0.0
  0
LINE
  5
56D
  8
0
  6
CONTINUOUS
 10
-355.08802793355318
 20
74.556249956849229
 30
0.0
 11
-361.44617229977132
 21
65.927339745552217
 31
0.0
  0
LINE
  5
56E
  8
0
  6
CONTINUOUS
 10
-353.84587806816393
 20
74.556249956849229
 30
0.0
 11
-360.20402243438201
 21
65.927339745552217
 31
0.0
  0
LINE
  5
56F
  8
0
  6
CONTINUOUS
 10
-462.84587806816143
 20
74.556249956849229
 30
0.0
 11
-456.4877337019426
 21
65.927339745552217
 31
0.0
  0
LINE
  5
570
  8
0
  6
CONTINUOUS
 10
-461.60372820277132
 20
74.556249956849229
 30
0.0
 11
-455.24558383655261
 21
65.927339745552217
 31
0.0
  0
LINE
  5
571
  8
0
  6
CONTINUOUS
 10
-599.08802793355335
 20
74.556249956849229
 30
0.0
 11
-605.44617229977155
 21
65.927339745552217
 31
0.0
  0
LINE
  5
572
  8
0
  6
CONTINUOUS
 10
-597.8458780681641
 20
74.556249956849229
 30
0.0
 11
-604.20402243438218
 21
65.927339745552217
 31
0.0
  0
LINE
  5
573
  8
0
  6
CONTINUOUS
 10
-118.3348311175351
 20
65.965467557328083
 30
0.0
 11
-118.8402676617509
 21
65.629967413531702
 31
0.0
  0
LINE
  5
574
  8
0
  6
CONTINUOUS
 10
-116.9146901616235
 20
65.965467557328083
 30
0.0
 11
-117.2373879333191
 21
65.629967413531702
 31
0.0
  0
LINE
  5
575
  8
0
  6
CONTINUOUS
 10
-118.8402676617509
 20
65.629967413531702
 30
0.0
 11
-119.533356624343
 21
65.363405221675251
 31
0.0
  0
LINE
  5
576
  8
0
  6
CONTINUOUS
 10
-117.2373879333191
 20
65.629967413531702
 30
0.0
 11
-117.4937783609267
 21
65.363405221675251
 31
0.0
  0
LINE
  5
577
  8
0
  6
CONTINUOUS
 10
-119.533356624343
 20
65.363405221675251
 30
0.0
 11
-119.9513236165045
 21
65.272860165697324
 31
0.0
  0
LINE
  5
578
  8
0
  6
CONTINUOUS
 10
-117.4937783609267
 20
65.363405221675251
 30
0.0
 11
-117.5808683021455
 21
65.272860165697324
 31
0.0
  0
LINE
  5
579
  8
0
  6
CONTINUOUS
 10
-212.4877337019424
 20
65.927339745552217
 30
0.0
 11
-211.84587806816191
 21
65.056249956850095
 31
0.0
  0
LINE
  5
57A
  8
0
  6
CONTINUOUS
 10
-211.24558383655221
 20
65.927339745552217
 30
0.0
 11
-207.4506801672363
 21
65.056249956850095
 31
0.0
  0
LINE
  5
57B
  8
0
  6
CONTINUOUS
 10
-361.44617229977331
 20
65.927339745552217
 30
0.0
 11
-365.25951925575799
 21
65.056249956850095
 31
0.0
  0
LINE
  5
57C
  8
0
  6
CONTINUOUS
 10
-360.20402243438201
 20
65.927339745552217
 30
0.0
 11
-360.84587806816251
 21
65.056249956850095
 31
0.0
  0
LINE
  5
57D
  8
0
  6
CONTINUOUS
 10
-456.4877337019426
 20
65.927339745552217
 30
0.0
 11
-455.84587806816211
 21
65.056249956850095
 31
0.0
  0
LINE
  5
57E
  8
0
  6
CONTINUOUS
 10
-455.24558383655159
 20
65.927339745552217
 30
0.0
 11
-451.43223688056668
 21
65.056249956850095
 31
0.0
  0
LINE
  5
57F
  8
0
  6
CONTINUOUS
 10
-605.44617229977609
 20
65.927339745552217
 30
0.0
 11
-608.76544032835909
 21
65.056249956850095
 31
0.0
  0
LINE
  5
580
  8
0
  6
CONTINUOUS
 10
-604.20402243438218
 20
65.927339745552217
 30
0.0
 11
-604.84587806816262
 21
65.056249956850095
 31
0.0
  0
LINE
  5
581
  8
0
  6
CONTINUOUS
 10
-119.9513236165045
 20
65.272860165697324
 30
0.0
 11
-122.40461138792161
 21
64.741399349989933
 31
0.0
  0
LINE
  5
582
  8
0
  6
CONTINUOUS
 10
-117.5808683021455
 20
65.272860165697324
 30
0.0
 11
-118.3815228563813
 21
64.741399349989933
 31
0.0
  0
LINE
  5
583
  8
0
  6
CONTINUOUS
 10
-608.76544032835909
 20
65.056249956850095
 30
0.0
 11
-610.00000000000819
 21
64.732259150968702
 31
0.0
  0
LINE
  5
584
  8
0
  6
CONTINUOUS
 10
-604.84587806816614
 20
65.056249956850095
 30
0.0
 11
-606.07904520830584
 21
64.732259150968702
 31
0.0
  0
LINE
  5
585
  8
0
  6
CONTINUOUS
 10
-607.35724642254229
 20
64.396436513469439
 30
0.0
 11
-610.00000000000819
 21
63.702104144856222
 31
0.0
  0
LINE
  5
586
  8
0
  6
CONTINUOUS
 10
-610.00000000000819
 20
63.702104144856222
 30
0.0
 11
-610.00000000000819
 21
64.396436513469439
 31
0.0
  0
LINE
  5
587
  8
0
  6
CONTINUOUS
 10
-122.40461138792161
 20
64.741399349989933
 30
0.0
 11
-123.99700180207221
 21
64.396436513469439
 31
0.0
  0
LINE
  5
588
  8
0
  6
CONTINUOUS
 10
-118.3815228563813
 20
64.741399349989933
 30
0.0
 11
-119.27846151385479
 21
64.396436513469439
 31
0.0
  0
LINE
  5
589
  8
0
  6
CONTINUOUS
 10
-610.00000000000819
 20
64.732259150968702
 30
0.0
 11
-610.00000000000819
 21
64.396436513469439
 31
0.0
  0
LINE
  5
58A
  8
0
  6
CONTINUOUS
 10
-606.07904520830584
 20
64.732259150968702
 30
0.0
 11
-607.35724642254229
 21
64.396436513469439
 31
0.0
  0
LINE
  5
58B
  8
0
  6
CONTINUOUS
 10
-211.84587806816191
 20
65.056249956850095
 30
0.0
 11
-200.60753698503331
 21
62.455393356895023
 31
0.0
  0
LINE
  5
58C
  8
0
  6
CONTINUOUS
 10
-207.4506801672363
 20
65.056249956850095
 30
0.0
 11
-196.12004538934499
 21
62.455393356895023
 31
0.0
  0
LINE
  5
58D
  8
0
  6
CONTINUOUS
 10
-365.25951925575799
 20
65.056249956850095
 30
0.0
 11
-376.93042657952827
 21
62.390243345867788
 31
0.0
  0
LINE
  5
58E
  8
0
  6
CONTINUOUS
 10
-360.84587806816381
 20
65.056249956850095
 30
0.0
 11
-372.430222499085
 21
62.390243345867788
 31
0.0
  0
LINE
  5
58F
  8
0
  6
CONTINUOUS
 10
-455.84587806816091
 20
65.056249956850095
 30
0.0
 11
-444.26153363723972
 21
62.390243345867788
 31
0.0
  0
LINE
  5
590
  8
0
  6
CONTINUOUS
 10
-451.43223688056668
 20
65.056249956850095
 30
0.0
 11
-439.76132955679628
 21
62.390243345867788
 31
0.0
  0
LINE
  5
591
  8
0
  6
CONTINUOUS
 10
-123.99700180207221
 20
64.396436513469439
 30
0.0
 11
-134.70044741400551
 21
62.077726901791173
 31
0.0
  0
LINE
  5
592
  8
0
  6
CONTINUOUS
 10
-119.27846151385479
 20
64.396436513469439
 30
0.0
 11
-129.99059613544819
 21
62.077726901791173
 31
0.0
  0
LINE
  5
593
  8
0
  6
CONTINUOUS
 10
-200.60753698503331
 20
62.455393356895023
 30
0.0
 11
-196.58377959500081
 21
61.524186883708801
 31
0.0
  0
LINE
  5
594
  8
0
  6
CONTINUOUS
 10
-196.12004538934499
 20
62.455393356895023
 30
0.0
 11
-189.42381894939339
 21
61.524186883708801
 31
0.0
  0
LINE
  5
595
  8
0
  6
CONTINUOUS
 10
-376.93042657952969
 20
62.390243345867788
 30
0.0
 11
-383.86463340648902
 21
61.447621016720952
 31
0.0
  0
LINE
  5
596
  8
0
  6
CONTINUOUS
 10
-372.430222499085
 20
62.390243345867788
 30
0.0
 11
-376.52610946505558
 21
61.447621016720952
 31
0.0
  0
LINE
  5
597
  8
0
  6
CONTINUOUS
 10
-444.26153363723972
 20
62.390243345867788
 30
0.0
 11
-440.16564667126897
 21
61.447621016720952
 31
0.0
  0
LINE
  5
598
  8
0
  6
CONTINUOUS
 10
-439.76132955679628
 20
62.390243345867788
 30
0.0
 11
-432.82712272983611
 21
61.447621016720952
 31
0.0
  0
LINE
  5
599
  8
0
  6
CONTINUOUS
 10
-134.70044741400551
 20
62.077726901791173
 30
0.0
 11
-142.5663898250485
 21
61.08229541141268
 31
0.0
  0
LINE
  5
59A
  8
0
  6
CONTINUOUS
 10
-129.99059613544819
 20
62.077726901791173
 30
0.0
 11
-134.58935920513241
 21
61.08229541141268
 31
0.0
  0
LINE
  5
59B
  8
0
  6
CONTINUOUS
 10
-196.58377959500081
 20
61.524186883708801
 30
0.0
 11
-188.11816102737919
 21
60.334239007438043
 31
0.0
  0
LINE
  5
59C
  8
0
  6
CONTINUOUS
 10
-189.42381894939339
 20
61.524186883708801
 30
0.0
 11
-180.86700511627581
 21
60.334239007438043
 31
0.0
  0
LINE
  5
59D
  8
0
  6
CONTINUOUS
 10
-383.86463340648902
 20
61.447621016720952
 30
0.0
 11
-392.54237883903289
 21
60.267985506057272
 31
0.0
  0
LINE
  5
59E
  8
0
  6
CONTINUOUS
 10
-376.52610946505558
 20
61.447621016720952
 30
0.0
 11
-385.14053612657813
 21
60.267985506057272
 31
0.0
  0
LINE
  5
59F
  8
0
  6
CONTINUOUS
 10
-440.16564667126897
 20
61.447621016720952
 30
0.0
 11
-431.55122000974649
 21
60.267985506057272
 31
0.0
  0
LINE
  5
5A0
  8
0
  6
CONTINUOUS
 10
-432.82712272983611
 20
61.447621016720952
 30
0.0
 11
-424.1493772972911
 21
60.267985506057272
 31
0.0
  0
LINE
  5
5A1
  8
0
  6
CONTINUOUS
 10
-142.5663898250485
 20
61.08229541141268
 30
0.0
 11
-149.97841909254839
 21
60.144306426123627
 31
0.0
  0
LINE
  5
5A2
  8
0
  6
CONTINUOUS
 10
-134.58935920513241
 20
61.08229541141268
 30
0.0
 11
-142.03057135460611
 21
60.144306426123627
 31
0.0
  0
LINE
  5
5A3
  8
0
  6
CONTINUOUS
 10
-188.11816102737919
 20
60.334239007438043
 30
0.0
 11
-186.7669280708478
 21
60.144306426123627
 31
0.0
  0
LINE
  5
5A4
  8
0
  6
CONTINUOUS
 10
-180.86700511627581
 20
60.334239007438043
 30
0.0
 11
-177.06205404866151
 21
60.144306426123627
 31
0.0
  0
LINE
  5
5A5
  8
0
  6
CONTINUOUS
 10
-142.03057135460611
 20
60.144306426123627
 30
0.0
 11
-146.63811756274919
 21
59.5635102459268
 31
0.0
  0
LINE
  5
5A6
  8
0
  6
CONTINUOUS
 10
-186.7669280708478
 20
60.144306426123627
 30
0.0
 11
-182.63498328139451
 21
59.5635102459268
 31
0.0
  0
LINE
  5
5A7
  8
0
  6
CONTINUOUS
 10
-392.54237883903591
 20
60.267985506057272
 30
0.0
 11
-408.28010969562939
 21
59.5635102459268
 31
0.0
  0
LINE
  5
5A8
  8
0
  6
CONTINUOUS
 10
-385.14053612657813
 20
60.267985506057272
 30
0.0
 11
-390.28504933289599
 21
59.5635102459268
 31
0.0
  0
LINE
  5
5A9
  8
0
  6
CONTINUOUS
 10
-431.55122000974649
 20
60.267985506057272
 30
0.0
 11
-426.40670680342851
 21
59.5635102459268
 31
0.0
  0
LINE
  5
5AA
  8
0
  6
CONTINUOUS
 10
-424.1493772972911
 20
60.267985506057272
 30
0.0
 11
-408.411646440693
 21
59.5635102459268
 31
0.0
  0
LINE
  5
5AB
  8
0
  6
CONTINUOUS
 10
-390.28504933289599
 20
59.5635102459268
 30
0.0
 11
-390.30654838279912
 21
59.560566226120521
 31
0.0
  0
LINE
  5
5AC
  8
0
  6
CONTINUOUS
 10
-426.40670680342851
 20
59.5635102459268
 30
0.0
 11
-426.38520775352538
 21
59.560566226120521
 31
0.0
  0
LINE
  5
5AD
  8
0
  6
CONTINUOUS
 10
-182.63498328139451
 20
59.5635102459268
 30
0.0
 11
-181.19071726950341
 21
59.360500712731799
 31
0.0
  0
LINE
  5
5AE
  8
0
  6
CONTINUOUS
 10
-146.63811756274919
 20
59.5635102459268
 30
0.0
 11
-148.2486236865542
 21
59.360500712731799
 31
0.0
  0
LINE
  5
5AF
  8
0
  6
CONTINUOUS
 10
-426.38520775352538
 20
59.560566226120521
 30
0.0
 11
-424.35418504314129
 21
59.282443652643302
 31
0.0
  0
LINE
  5
5B0
  8
0
  6
CONTINUOUS
 10
-390.30654838279912
 20
59.560566226120521
 30
0.0
 11
-392.33757109318321
 21
59.282443652643302
 31
0.0
  0
LINE
  5
5B1
  8
0
  6
CONTINUOUS
 10
-150.01170106149991
 20
59.138259077270781
 30
0.0
 11
-165.60608908731339
 21
58.564759477481552
 31
0.0
  0
LINE
  5
5B2
  8
0
  6
CONTINUOUS
 10
-165.60608908731339
 20
58.564759477481552
 30
0.0
 11
-176.83810475951759
 21
59.138259077270781
 31
0.0
  0
LINE
  5
5B3
  8
0
  6
CONTINUOUS
 10
-181.19071726950341
 20
59.360500712731799
 30
0.0
 11
-176.83810475951759
 21
59.138259077270781
 31
0.0
  0
LINE
  5
5B4
  8
0
  6
CONTINUOUS
 10
-148.2486236865542
 20
59.360500712731799
 30
0.0
 11
-150.01170106149991
 21
59.138259077270781
 31
0.0
  0
LINE
  5
5B5
  8
0
  6
CONTINUOUS
 10
-408.25623269248388
 20
58.564759477481552
 30
0.0
 11
-408.34587806816222
 21
58.560717864617331
 31
0.0
  0
LINE
  5
5B6
  8
0
  6
CONTINUOUS
 10
-408.34587806816222
 20
58.560717864617331
 30
0.0
 11
-408.43552344384051
 21
58.564759477481552
 31
0.0
  0
LINE
  5
5B7
  8
0
  6
CONTINUOUS
 10
-424.35418504314129
 20
59.282443652643302
 30
0.0
 11
-408.43552344384051
 21
58.564759477481552
 31
0.0
  0
LINE
  5
5B8
  8
0
  6
CONTINUOUS
 10
-392.33757109318321
 20
59.282443652643302
 30
0.0
 11
-408.25623269248388
 21
58.564759477481552
 31
0.0
  0
ENDBLK
  5
5BA
  8
0
  0
ENDSEC
  0
SECTION
  2
ENTITIES
  0
CIRCLE
  5
167
  8
0
 10
-550.27940071595845
 20
87.335663915141268
 30
0.0
 40
2.5000000000000848
1001
REVIT
1002
{
1070
     1
1000
685833
1002
}
1002
{
1070
     5
1000
515860
1002
}
1002
{
1070
     2
1000
-2005028
1002
}
  0
INSERT
  5
168
  8
0
  6
CONTINUOUS
  2
*U20
 10
0.0
 20
0.0
 30
0.0
1001
REVIT
1002
{
1070
     1
1000
685833
1002
}
1002
{
1070
     5
1000
515860
1002
}
1002
{
1070
     2
1000
-2005028
1002
}
1001
ACAD
1002
{
1000
R14_HATCH_DATA
1000
168
1011
1.0
1021
0.0
1031
0.0
1021
0.0
1031
0.0
1011
0.0
1021
0.0
1031
0.0
1021
1.0
1031
0.0
1011
0.0
1021
0.0
1031
0.0
1021
0.0
1031
1.0
1040
0.0
1010
0.0
1020
0.0
1030
1.0
1000
SOLID
1070
     1
1070
     0
1071
        1
1071
        0
1071
        1
1070
     2
1040
-550.27940071595845
1040
87.335663915141268
1040
2.5000000000000848
1040
0.0
1040
6.2831853071795862
1070
     1
1071
        0
1070
     0
1070
     1
1071
        1
1040
0.0
1040
0.0
1040
0.0
1002
}
  0
LINE
  5
169
  8
0
 10
-589.53491089343765
 20
140.6430561281442
 30
0.0
 11
-629.74737137815805
 21
140.6430561281442
 31
0.0
1001
REVIT
1002
{
1070
     1
1000
685833
1002
}
1002
{
1070
     5
1000
515860
1002
}
1002
{
1070
     2
1000
-2005028
1002
}
  0
LINE
  5
16A
  8
0
 10
-550.27940071595845
 20
87.335663915141268
 30
0.0
 11
-589.53491089343765
 21
140.6430561281442
 31
0.0
1001
REVIT
1002
{
1070
     1
1000
685833
1002
}
1002
{
1070
     5
1000
515860
1002
}
1002
{
1070
     2
1000
-2005028
1002
}
  0
INSERT
  5
16C
  8
0
  2
*U21
 10
0.0
 20
0.0
 30
0.0
  0
CIRCLE
  5
18F
  8
0
 10
-101.79996905039719
 20
19.814108441916328
 30
0.0
 40
2.5
1001
REVIT
1002
{
1070
     1
1000
685854
1002
}
1002
{
1070
     5
1000
233011
1002
}
1002
{
1070
     2
1000
-2005028
1002
}
  0
INSERT
  5
190
  8
0
  6
CONTINUOUS
  2
*U22
 10
0.0
 20
0.0
 30
0.0
1001
REVIT
1002
{
1070
     1
1000
685854
1002
}
1002
{
1070
     5
1000
233011
1002
}
1002
{
1070
     2
1000
-2005028
1002
}
1001
ACAD
1002
{
1000
R14_HATCH_DATA
1000
190
1011
1.0
1021
0.0
1031
0.0
1021
0.0
1031
0.0
1011
0.0
1021
0.0
1031
0.0
1021
1.0
1031
0.0
1011
0.0
1021
0.0
1031
0.0
1021
0.0
1031
1.0
1040
0.0
1010
0.0
1020
0.0
1030
1.0
1000
SOLID
1070
     1
1070
     0
1071
        1
1071
        0
1071
        1
1070
     2
1040
-101.79996905039719
1040
19.814108441916328
1040
2.5
1040
0.0
1040
6.2831853071795862
1070
     1
1071
        0
1070
     0
1070
     1
1071
        1
1040
0.0
1040
0.0
1040
0.0
1002
}
  0
LINE
  5
191
  8
0
 10
-101.79996905039719
 20
19.814108441916328
 30
0.0
 11
80.608768443613315
 21
19.814108441916328
 31
0.0
1001
REVIT
1002
{
1070
     1
1000
685854
1002
}
1002
{
1070
     5
1000
233011
1002
}
1002
{
1070
     2
1000
-2005028
1002
}
  0
INSERT
  5
192
  8
0
  2
*U23
 10
0.0
 20
0.0
 30
0.0
  0
CIRCLE
  5
193
  8
0
 10
-462.29578876225571
 20
9.3592013594455441
 30
0.0
 40
2.4999999999999698
1001
REVIT
1002
{
1070
     1
1000
685855
1002
}
1002
{
1070
     5
1000
233013
1002
}
1002
{
1070
     2
1000
-2005028
1002
}
  0
INSERT
  5
194
  8
0
  6
CONTINUOUS
  2
*U24
 10
0.0
 20
0.0
 30
0.0
1001
REVIT
1002
{
1070
     1
1000
685855
1002
}
1002
{
1070
     5
1000
233013
1002
}
1002
{
1070
     2
1000
-2005028
1002
}
1001
ACAD
1002
{
1000
R14_HATCH_DATA
1000
194
1011
1.0
1021
0.0
1031
0.0
1021
0.0
1031
0.0
1011
0.0
1021
0.0
1031
0.0
1021
1.0
1031
0.0
1011
0.0
1021
0.0
1031
0.0
1021
0.0
1031
1.0
1040
0.0
1010
0.0
1020
0.0
1030
1.0
1000
SOLID
1070
     1
1070
     0
1071
        1
1071
        0
1071
        1
1070
     2
1040
-462.29578876225571
1040
9.3592013594455441
1040
2.4999999999999698
1040
0.0
1040
6.2831853071795862
1070
     1
1071
        0
1070
     0
1070
     1
1071
        1
1040
0.0
1040
0.0
1040
0.0
1002
}
  0
LINE
  5
195
  8
0
 10
-544.61047141423751
 20
-185.09852539865869
 30
0.0
 11
-687.74737137815828
 21
-185.09852539865869
 31
0.0
1001
REVIT
1002
{
1070
     1
1000
685855
1002
}
1002
{
1070
     5
1000
233013
1002
}
1002
{
1070
     2
1000
-2005028
1002
}
  0
LINE
  5
196
  8
0
 10
-462.29578876225571
 20
9.3592013594455441
 30
0.0
 11
-544.61047141423751
 21
-185.09852539865869
 31
0.0
1001
REVIT
1002
{
1070
     1
1000
685855
1002
}
1002
{
1070
     5
1000
233013
1002
}
1002
{
1070
     2
1000
-2005028
1002
}
  0
INSERT
  5
197
  8
0
  2
*U25
 10
0.0
 20
0.0
 30
0.0
  0
CIRCLE
  5
198
  8
0
 10
-128.11066647062989
 20
248.59159605552841
 30
0.0
 40
2.500000000000012
1001
REVIT
1002
{
1070
     1
1000
685856
1002
}
1002
{
1070
     5
1000
233011
1002
}
1002
{
1070
     2
1000
-2005028
1002
}
  0
INSERT
  5
199
  8
0
  6
CONTINUOUS
  2
*U26
 10
0.0
 20
0.0
 30
0.0
1001
REVIT
1002
{
1070
     1
1000
685856
1002
}
1002
{
1070
     5
1000
233011
1002
}
1002
{
1070
     2
1000
-2005028
1002
}
1001
ACAD
1002
{
1000
R14_HATCH_DATA
1000
199
1011
1.0
1021
0.0
1031
0.0
1021
0.0
1031
0.0
1011
0.0
1021
0.0
1031
0.0
1021
1.0
1031
0.0
1011
0.0
1021
0.0
1031
0.0
1021
0.0
1031
1.0
1040
0.0
1010
0.0
1020
0.0
1030
1.0
1000
SOLID
1070
     1
1070
     0
1071
        1
1071
        0
1071
        1
1070
     2
1040
-128.11066647062989
1040
248.59159605552841
1040
2.500000000000012
1040
0.0
1040
6.2831853071795862
1070
     1
1071
        0
1070
     0
1070
     1
1071
        1
1040
0.0
1040
0.0
1040
0.0
1002
}
  0
LINE
  5
19A
  8
0
 10
-289.36493136437957
 20
331.5733971371169
 30
0.0
 11
-536.13915221298294
 21
331.5733971371169
 31
0.0
1001
REVIT
1002
{
1070
     1
1000
685856
1002
}
1002
{
1070
     5
1000
233011
1002
}
1002
{
1070
     2
1000
-2005028
1002
}
  0
LINE
  5
19B
  8
0
 10
-128.11066647062989
 20
248.59159605552841
 30
0.0
 11
-289.36493136437957
 21
331.5733971371169
 31
0.0
1001
REVIT
1002
{
1070
     1
1000
685856
1002
}
1002
{
1070
     5
1000
233011
1002
}
1002
{
1070
     2
1000
-2005028
1002
}
  0
INSERT
  5
19C
  8
0
  2
*U27
 10
0.0
 20
0.0
 30
0.0
  0
CIRCLE
  5
19D
  8
0
 10
-543.51095923631044
 20
34.191662162860972
 30
0.0
 40
2.5000000000000679
1001
REVIT
1002
{
1070
     1
1000
685857
1002
}
1002
{
1070
     5
1000
233013
1002
}
1002
{
1070
     2
1000
-2005028
1002
}
  0
INSERT
  5
19E
  8
0
  6
CONTINUOUS
  2
*U28
 10
0.0
 20
0.0
 30
0.0
1001
REVIT
1002
{
1070
     1
1000
685857
1002
}
1002
{
1070
     5
1000
233013
1002
}
1002
{
1070
     2
1000
-2005028
1002
}
1001
ACAD
1002
{
1000
R14_HATCH_DATA
1000
19E
1011
1.0
1021
0.0
1031
0.0
1021
0.0
1031
0.0
1011
0.0
1021
0.0
1031
0.0
1021
1.0
1031
0.0
1011
0.0
1021
0.0
1031
0.0
1021
0.0
1031
1.0
1040
0.0
1010
0.0
1020
0.0
1030
1.0
1000
SOLID
1070
     1
1070
     0
1071
        1
1071
        0
1071
        1
1070
     2
1040
-543.51095923631044
1040
34.191662162860972
1040
2.5000000000000679
1040
0.0
1040
6.2831853071795862
1070
     1
1071
        0
1070
     0
1070
     1
1071
        1
1040
0.0
1040
0.0
1040
0.0
1002
}
  0
LINE
  5
19F
  8
0
 10
-616.138093149523
 20
-129.42007822553319
 30
0.0
 11
-706.12237137815839
 21
-129.42007822553319
 31
0.0
1001
REVIT
1002
{
1070
     1
1000
685857
1002
}
1002
{
1070
     5
1000
233013
1002
}
1002
{
1070
     2
1000
-2005028
1002
}
  0
LINE
  5
1A0
  8
0
 10
-543.51095923631044
 20
34.191662162860972
 30
0.0
 11
-616.138093149523
 21
-129.42007822553319
 31
0.0
1001
REVIT
1002
{
1070
     1
1000
685857
1002
}
1002
{
1070
     5
1000
233013
1002
}
1002
{
1070
     2
1000
-2005028
1002
}
  0
INSERT
  5
1A1
  8
0
  2
*U29
 10
0.0
 20
0.0
 30
0.0
  0
CIRCLE
  5
1A2
  8
0
 10
-448.69164627142101
 20
-92.360775389034856
 30
0.0
 40
2.500000000000004
1001
REVIT
1002
{
1070
     1
1000
685858
1002
}
1002
{
1070
     5
1000
233013
1002
}
1002
{
1070
     2
1000
-2005028
1002
}
  0
INSERT
  5
1A3
  8
0
  6
CONTINUOUS
  2
*U30
 10
0.0
 20
0.0
 30
0.0
1001
REVIT
1002
{
1070
     1
1000
685858
1002
}
1002
{
1070
     5
1000
233013
1002
}
1002
{
1070
     2
1000
-2005028
1002
}
1001
ACAD
1002
{
1000
R14_HATCH_DATA
1000
1A3
1011
1.0
1021
0.0
1031
0.0
1021
0.0
1031
0.0
1011
0.0
1021
0.0
1031
0.0
1021
1.0
1031
0.0
1011
0.0
1021
0.0
1031
0.0
1021
0.0
1031
1.0
1040
0.0
1010
0.0
1020
0.0
1030
1.0
1000
SOLID
1070
     1
1070
     0
1071
        1
1071
        0
1071
        1
1070
     2
1040
-448.69164627142101
1040
-92.360775389034856
1040
2.500000000000004
1040
0.0
1040
6.2831853071795862
1070
     1
1071
        0
1070
     0
1070
     1
1071
        1
1040
0.0
1040
0.0
1040
0.0
1002
}
  0
LINE
  5
1A4
  8
0
 10
-516.9881973035582
 20
-244.82689161905699
 30
0.0
 11
-711.99737137815828
 21
-244.82689161905699
 31
0.0
1001
REVIT
1002
{
1070
     1
1000
685858
1002
}
1002
{
1070
     5
1000
233013
1002
}
1002
{
1070
     2
1000
-2005028
1002
}
  0
LINE
  5
1A5
  8
0
 10
-448.69164627142101
 20
-92.360775389034856
 30
0.0
 11
-516.9881973035582
 21
-244.82689161905699
 31
0.0
1001
REVIT
1002
{
1070
     1
1000
685858
1002
}
1002
{
1070
     5
1000
233013
1002
}
1002
{
1070
     2
1000
-2005028
1002
}
  0
INSERT
  5
1A6
  8
0
  2
*U31
 10
0.0
 20
0.0
 30
0.0
  0
CIRCLE
  5
1A7
  8
0
 10
-384.41382839094831
 20
-6.1164135428782087
 30
0.0
 40
2.500000000000044
1001
REVIT
1002
{
1070
     1
1000
685860
1002
}
1002
{
1070
     5
1000
233013
1002
}
1002
{
1070
     2
1000
-2005028
1002
}
  0
INSERT
  5
1A8
  8
0
  6
CONTINUOUS
  2
*U32
 10
0.0
 20
0.0
 30
0.0
1001
REVIT
1002
{
1070
     1
1000
685860
1002
}
1002
{
1070
     5
1000
233013
1002
}
1002
{
1070
     2
1000
-2005028
1002
}
1001
ACAD
1002
{
1000
R14_HATCH_DATA
1000
1A8
1011
1.0
1021
0.0
1031
0.0
1021
0.0
1031
0.0
1011
0.0
1021
0.0
1031
0.0
1021
1.0
1031
0.0
1011
0.0
1021
0.0
1031
0.0
1021
0.0
1031
1.0
1040
0.0
1010
0.0
1020
0.0
1030
1.0
1000
SOLID
1070
     1
1070
     0
1071
        1
1071
        0
1071
        1
1070
     2
1040
-384.41382839094831
1040
-6.1164135428782087
1040
2.500000000000044
1040
0.0
1040
6.2831853071795862
1070
     1
1071
        0
1070
     0
1070
     1
1071
        1
1040
0.0
1040
0.0
1040
0.0
1002
}
  0
LINE
  5
1A9
  8
0
 10
-496.86974263849839
 20
196.8664715409619
 30
0.0
 11
-643.62237137815828
 21
196.86647154096181
 31
0.0
1001
REVIT
1002
{
1070
     1
1000
685860
1002
}
1002
{
1070
     5
1000
233013
1002
}
1002
{
1070
     2
1000
-2005028
1002
}
  0
LINE
  5
1AA
  8
0
 10
-384.41382839094831
 20
-6.1164135428782087
 30
0.0
 11
-496.86974263849839
 21
196.8664715409619
 31
0.0
1001
REVIT
1002
{
1070
     1
1000
685860
1002
}
1002
{
1070
     5
1000
233013
1002
}
1002
{
1070
     2
1000
-2005028
1002
}
  0
INSERT
  5
1AB
  8
0
  2
*U33
 10
0.0
 20
0.0
 30
0.0
  0
CIRCLE
  5
1AC
  8
0
 10
-107.02977874285649
 20
80.741236354591337
 30
0.0
 40
2.5
1001
REVIT
1002
{
1070
     1
1000
685862
1002
}
1002
{
1070
     5
1000
233011
1002
}
1002
{
1070
     2
1000
-2005028
1002
}
  0
INSERT
  5
1AD
  8
0
  6
CONTINUOUS
  2
*U34
 10
0.0
 20
0.0
 30
0.0
1001
REVIT
1002
{
1070
     1
1000
685862
1002
}
1002
{
1070
     5
1000
233011
1002
}
1002
{
1070
     2
1000
-2005028
1002
}
1001
ACAD
1002
{
1000
R14_HATCH_DATA
1000
1AD
1011
1.0
1021
0.0
1031
0.0
1021
0.0
1031
0.0
1011
0.0
1021
0.0
1031
0.0
1021
1.0
1031
0.0
1011
0.0
1021
0.0
1031
0.0
1021
0.0
1031
1.0
1040
0.0
1010
0.0
1020
0.0
1030
1.0
1000
SOLID
1070
     1
1070
     0
1071
        1
1071
        0
1071
        1
1070
     2
1040
-107.02977874285649
1040
80.741236354591337
1040
2.5
1040
0.0
1040
6.2831853071795862
1070
     1
1071
        0
1070
     0
1070
     1
1071
        1
1040
0.0
1040
0.0
1040
0.0
1002
}
  0
LINE
  5
1AE
  8
0
 10
-107.02977874285649
 20
80.741236354591337
 30
0.0
 11
80.608768443613315
 21
80.741236354591337
 31
0.0
1001
REVIT
1002
{
1070
     1
1000
685862
1002
}
1002
{
1070
     5
1000
233011
1002
}
1002
{
1070
     2
1000
-2005028
1002
}
  0
INSERT
  5
1AF
  8
0
  2
*U35
 10
0.0
 20
0.0
 30
0.0
  0
LINE
  5
214
  8
0
 10
41.275571344993722
 20
353.12640353608958
 30
0.0
 11
-55.170435513406169
 21
353.12640353608958
 31
0.0
  0
LINE
  5
215
  8
0
 10
-158.72442865500631
 20
353.12640353608958
 30
0.0
 11
-62.278421796606381
 21
353.12640353608958
 31
0.0
  0
LINE
  5
216
  8
0
 10
-158.72442865500631
 20
353.12640353608958
 30
0.0
 11
-62.278421796606381
 21
353.12640353608958
 31
0.0
  0
LINE
  5
217
  8
0
 10
-62.278421796606381
 20
353.12640353608958
 30
0.0
 11
-60.460910431675593
 21
363.43402269697037
 31
0.0
  0
LINE
  5
218
  8
0
 10
-60.460910431675593
 20
363.43402269697037
 30
0.0
 11
-56.98794687833697
 21
342.81878437520868
 31
0.0
  0
LINE
  5
219
  8
0
 10
-56.98794687833697
 20
342.81878437520868
 30
0.0
 11
-55.170435513406169
 21
353.12640353608958
 31
0.0
  0
LINE
  5
21A
  8
0
 10
-55.170435513406169
 20
353.12640353608958
 30
0.0
 11
41.275571344993722
 21
353.12640353608958
 31
0.0
  0
LINE
  5
21B
  8
0
 10
-596.34005543987007
 20
-146.4289007036424
 30
0.0
 11
-596.34005543986984
 21
-24.98289384524254
 31
0.0
  0
LINE
  5
21C
  8
0
 10
-596.3400554398695
 20
103.5710992963575
 30
0.0
 11
-596.34005543986984
 21
-17.874907562042338
 31
0.0
  0
LINE
  5
21D
  8
0
 10
-596.34005543987007
 20
-146.4289007036424
 30
0.0
 11
-596.34005543986984
 21
-24.98289384524254
 31
0.0
  0
LINE
  5
21E
  8
0
 10
-596.34005543986984
 20
-24.98289384524254
 30
0.0
 11
-586.03243627898894
 21
-23.16538248031177
 31
0.0
  0
LINE
  5
21F
  8
0
 10
-586.03243627898894
 20
-23.16538248031177
 30
0.0
 11
-606.64767460075063
 21
-19.692418926973101
 31
0.0
  0
LINE
  5
220
  8
0
 10
-606.64767460075063
 20
-19.692418926973101
 30
0.0
 11
-596.34005543986984
 21
-17.874907562042338
 31
0.0
  0
LINE
  5
221
  8
0
 10
-596.34005543986984
 20
-17.874907562042338
 30
0.0
 11
-596.3400554398695
 21
103.5710992963575
 31
0.0
  0
LINE
  5
222
  8
0
 10
53.116572000159742
 20
-355.34004451763587
 30
0.0
 11
-43.329434858240148
 21
-355.34004451763587
 31
0.0
  0
LINE
  5
223
  8
0
 10
-146.88342799984019
 20
-355.34004451763587
 30
0.0
 11
-50.43742114144036
 21
-355.34004451763587
 31
0.0
  0
LINE
  5
224
  8
0
 10
53.116572000159742
 20
-355.34004451763587
 30
0.0
 11
-43.329434858240148
 21
-355.34004451763587
 31
0.0
  0
LINE
  5
225
  8
0
 10
-43.329434858240148
 20
-355.34004451763587
 30
0.0
 11
-45.146946223170943
 21
-345.03242535675503
 31
0.0
  0
LINE
  5
226
  8
0
 10
-45.146946223170943
 20
-345.03242535675503
 30
0.0
 11
-48.61990977650958
 21
-365.64766367851672
 31
0.0
  0
LINE
  5
227
  8
0
 10
-48.61990977650958
 20
-365.64766367851672
 30
0.0
 11
-50.43742114144036
 21
-355.34004451763587
 31
0.0
  0
LINE
  5
228
  8
0
 10
-50.43742114144036
 20
-355.34004451763587
 30
0.0
 11
-146.88342799984019
 21
-355.34004451763587
 31
0.0
  0
LINE
  5
229
  8
0
 10
-106.8834279998477
 20
109.7679646000301
 30
0.0
 11
-106.8834279998479
 21
20.16796460003011
 31
0.0
1001
REVIT
1002
{
1070
     3
1000
3443
1002
}
  0
LINE
  5
22A
  8
0
 10
-106.8834279998479
 20
20.16796460003011
 30
0.0
 11
-141.5500946665147
 21
20.167964600030171
 31
0.0
1001
REVIT
1002
{
1070
     3
1000
3443
1002
}
  0
LINE
  5
22B
  8
0
 10
-208.37456105918039
 20
20.167964600030079
 30
0.0
 11
-236.8834279998479
 21
20.167964600030171
 31
0.0
1001
REVIT
1002
{
1070
     3
1000
3443
1002
}
  0
LINE
  5
22C
  8
0
 10
-162.68530593255059
 20
20.16796460003005
 30
0.0
 11
-153.0422459930343
 21
31.660115926549871
 31
0.0
1001
REVIT
1002
{
1070
     3
1000
3443
1002
}
  0
LINE
  5
22D
  8
0
 10
-141.5500946665147
 20
20.167964600030171
 30
0.0
 11
-153.0422459930343
 21
31.66011592654986
 31
0.0
1001
REVIT
1002
{
1070
     3
1000
3443
1002
}
  0
LINE
  5
22E
  8
0
 10
-162.68530593255059
 20
20.16796460003005
 30
0.0
 11
-186.70789439251391
 21
20.167964600030121
 31
0.0
1001
REVIT
1002
{
1070
     3
1000
3443
1002
}
  0
LINE
  5
22F
  8
0
 10
-208.37456105918039
 20
20.167964600030071
 30
0.0
 11
-198.4890215807113
 21
31.949091788227499
 31
0.0
1001
REVIT
1002
{
1070
     3
1000
3443
1002
}
  0
LINE
  5
230
  8
0
 10
-186.70789439251391
 20
20.167964600030128
 30
0.0
 11
-198.4890215807113
 21
31.949091788227499
 31
0.0
1001
REVIT
1002
{
1070
     3
1000
3443
1002
}
  0
LINE
  5
231
  8
0
 10
-236.8834279998479
 20
20.167964600030171
 30
0.0
 11
-226.9978885213788
 21
31.949091788227591
 31
0.0
1001
REVIT
1002
{
1070
     3
1000
3443
1002
}
  0
LINE
  5
232
  8
0
 10
-96.883427999838204
 20
-19.44374999999965
 30
0.0
 11
-96.883427999838204
 21
5.5562500000005128
 31
0.0
  0
LINE
  5
233
  8
0
 10
-96.883427999838204
 20
5.5562500000005128
 30
0.0
 11
-609.57107933676514
 21
5.5562500000005128
 31
0.0
  0
LINE
  5
234
  8
0
 10
-609.57107933676514
 20
5.5562500000005128
 30
0.0
 11
-609.57107933676514
 21
-19.44374999999965
 31
0.0
  0
LINE
  5
235
  8
0
 10
-609.57107933676514
 20
-19.44374999999965
 30
0.0
 11
-96.883427999838204
 21
-19.44374999999965
 31
0.0
  0
LINE
  5
236
  8
0
 10
-609.57107933676514
 20
-19.44374999999965
 30
0.0
 11
-96.883427999838204
 21
-19.44374999999965
 31
0.0
  0
LINE
  5
237
  8
0
 10
-609.57107933676514
 20
5.5562500000005128
 30
0.0
 11
-609.57107933676514
 21
-19.44374999999965
 31
0.0
  0
LINE
  5
238
  8
0
 10
-96.883427999838204
 20
5.5562500000005128
 30
0.0
 11
-609.57107933676514
 21
5.5562500000005128
 31
0.0
  0
LINE
  5
239
  8
0
 10
-96.883427999838204
 20
-19.44374999999965
 30
0.0
 11
-96.883427999838204
 21
5.5562500000005128
 31
0.0
  0
LINE
  5
23A
  8
0
  6
DASH
 10
-111.8834279998476
 20
115.65044750154109
 30
0.0
 11
-99.883427999837195
 21
135.34727711434161
 31
0.0
1001
REVIT
1002
{
1070
     3
1000
217411
1002
}
  0
LINE
  5
23B
  8
0
 10
-146.88342799983809
 20
-22.443749999998222
 30
0.0
 11
-596.34005543986984
 21
-22.443749999998222
 31
0.0
1001
REVIT
1002
{
1070
     3
1000
206265
1002
}
  0
LINE
  5
23C
  8
0
 10
-596.34005543986984
 20
-122.4437499999984
 30
0.0
 11
-146.88342799983809
 21
-122.4437499999984
 31
0.0
1001
REVIT
1002
{
1070
     3
1000
206265
1002
}
  0
LINE
  5
23D
  8
0
  6
DASH
 10
-99.883427999837195
 20
135.34727711434169
 30
0.0
 11
-99.88342799983684
 21
353.12640353608953
 31
0.0
1001
REVIT
1002
{
1070
     3
1000
217411
1002
}
  0
LINE
  5
23E
  8
0
  6
DASH
 10
-111.8834279998477
 20
55.650447501541173
 30
0.0
 11
-111.8834279998476
 21
115.65044750154109
 31
0.0
1001
REVIT
1002
{
1070
     3
1000
217411
1002
}
  0
LINE
  5
23F
  8
0
  6
DASH
 10
-102.3922253062477
 20
12.55625000000007
 30
0.0
 11
-209.4422899182112
 21
12.556250000000089
 31
0.0
1001
REVIT
1002
{
1070
     3
1000
217411
1002
}
  0
LINE
  5
240
  8
0
  6
DASH
 10
-102.3922253062477
 20
12.55625000000007
 30
0.0
 11
-99.883427999847811
 21
15.06504730640002
 31
0.0
1001
REVIT
1002
{
1070
     3
1000
217411
1002
}
  0
LINE
  5
241
  8
0
  6
DASH
 10
-101.8834279998476
 20
110.0650473064
 30
0.0
 11
-101.8834279998478
 21
15.06504730639997
 31
0.0
1001
REVIT
1002
{
1070
     3
1000
217411
1002
}
  0
LINE
  5
242
  8
0
  6
DASH
 10
-98.984050614474867
 20
8.5562499999987072
 30
0.0
 11
-596.34005543986984
 21
8.5562499999987676
 31
0.0
1001
REVIT
1002
{
1070
     3
1000
217411
1002
}
  0
INSERT
  5
243
  8
0
  6
CONTINUOUS
  2
*X36
 10
0.0
 20
0.0
 30
0.0
1001
ACAD
1000
HATCH
1002
{
1070
    19
1000
FP_1
1040
1.0
1040
3.1415926535897931
1000
R14_HATCH_DATA
1000
243
1011
1.0
1021
0.0
1031
0.0
1021
0.0
1031
0.0
1011
0.0
1021
0.0
1031
0.0
1021
1.0
1031
0.0
1011
0.0
1021
0.0
1031
0.0
1021
0.0
1031
1.0
1040
0.0
1010
0.0
1020
0.0
1030
1.0
1000
FP_1
1070
     0
1070
     0
1071
        1
1071
        0
1071
        4
1070
     1
1040
-116.8834279998447
1040
113.756221620831
1040
-116.88342799984569
1040
353.12640353609038
1070
     1
1040
-116.88342799984569
1040
353.12640353609038
1040
-141.88342799984571
1040
353.12640353609032
1070
     1
1040
-141.88342799984571
1040
353.12640353609021
1040
-141.8834279998448
1040
113.756221620831
1070
     1
1040
-141.8834279998448
1040
113.756221620831
1040
-116.8834279998447
1040
113.756221620831
1071
        0
1070
     0
1070
     2
1040
3.1415926535897931
1040
1.0
1070
     0
1070
     1
1040
6.2831853071795862
1040
-0.000427999846238
1040
0.0004035360896069
1040
0.0
1040
15.0
1070
     0
1071
        1
1040
-129.38342799984611
1040
353.12640353608958
1040
0.0
1002
}
  0
LINE
  5
244
  8
0
 10
-141.88342799984451
 20
113.7562216208307
 30
0.0
 11
-116.8834279998445
 21
113.7562216208308
 31
0.0
1001
REVIT
1002
{
1070
     3
1000
224526
1002
}
  0
LINE
  5
245
  8
0
 10
-116.8834279998445
 20
113.7562216208308
 30
0.0
 11
-116.8834279998453
 21
353.12640353608992
 31
0.0
1001
REVIT
1002
{
1070
     3
1000
224526
1002
}
  0
LINE
  5
246
  8
0
 10
-141.88342799984531
 20
353.12640353608981
 30
0.0
 11
-141.88342799984451
 21
113.7562216208307
 31
0.0
1001
REVIT
1002
{
1070
     3
1000
224526
1002
}
  0
LINE
  5
247
  8
0
 10
-239.0334055555054
 20
15.55625000000202
 30
0.0
 11
-239.0334055555054
 21
55.556250000002187
 31
0.0
1001
REVIT
1002
{
1070
     3
1000
211597
1002
}
  0
LINE
  5
248
  8
0
 10
-239.0334055555054
 20
55.556250000002187
 30
0.0
 11
-596.34005543986984
 21
55.556250000002187
 31
0.0
1001
REVIT
1002
{
1070
     3
1000
211597
1002
}
  0
LINE
  5
249
  8
0
 10
-596.34005543986984
 20
15.55625000000202
 30
0.0
 11
-239.0334055555054
 21
15.55625000000202
 31
0.0
1001
REVIT
1002
{
1070
     3
1000
211597
1002
}
  0
ARC
  5
24A
  8
0
 10
-98.883427999838744
 20
-24.443749999999788
 30
0.0
 40
1.9999999999999969
 50
0.0
 51
90.0
1001
REVIT
1002
{
1070
     3
1000
224526
1002
}
  0
ARC
  5
24B
  8
0
 10
-144.88342799983869
 20
-24.443749999999721
 30
0.0
 40
2.0
 50
90.0
 51
180.0
1001
REVIT
1002
{
1070
     3
1000
224526
1002
}
  0
ARC
  5
24C
  8
0
 10
-144.8834279998386
 20
-120.4437499999997
 30
0.0
 40
1.999999999999996
 50
180.0
 51
269.9999999999992
1001
REVIT
1002
{
1070
     3
1000
224526
1002
}
  0
ARC
  5
24D
  8
0
 10
-98.883427999838688
 20
-120.4437499999997
 30
0.0
 40
2.0000000000000009
 50
270.0
 51
0.0
1001
REVIT
1002
{
1070
     3
1000
224526
1002
}
  0
LINE
  5
24E
  8
0
 10
-98.883427999838744
 20
-22.443749999999731
 30
0.0
 11
-144.88342799983869
 21
-22.443749999999731
 31
0.0
1001
REVIT
1002
{
1070
     3
1000
224526
1002
}
  0
LINE
  5
24F
  8
0
 10
-144.88342799983869
 20
-122.4437499999997
 30
0.0
 11
-98.883427999838673
 21
-122.4437499999997
 31
0.0
1001
REVIT
1002
{
1070
     3
1000
224526
1002
}
  0
LINE
  5
250
  8
0
 10
-96.883427999838673
 20
-120.4437499999997
 30
0.0
 11
-96.883427999838673
 21
-24.443749999999788
 31
0.0
1001
REVIT
1002
{
1070
     3
1000
224526
1002
}
  0
LINE
  5
251
  8
0
 10
-144.8834279998388
 20
-24.44374999999955
 30
0.0
 11
-98.883427999838645
 21
-120.4437499999997
 31
0.0
  0
LINE
  5
252
  8
0
 10
-98.883427999838645
 20
-24.44374999999955
 30
0.0
 11
-144.8834279998386
 21
-120.4437499999997
 31
0.0
  0
LINE
  5
253
  8
0
 10
3.1165720001624702
 20
-355.34004451763627
 30
0.0
 11
3.1165720001638841
 21
367.28754638135558
 31
0.0
1001
REVIT
1002
{
1070
     3
1000
206265
1002
}
  0
LINE
  5
254
  8
0
 10
-96.883427999836286
 20
367.28754638135592
 30
0.0
 11
-96.883427999836996
 21
5.5562500000006017
 31
0.0
1001
REVIT
1002
{
1070
     3
1000
206265
1002
}
  0
LINE
  5
255
  8
0
 10
-96.883427999837039
 20
-19.443749999999621
 30
0.0
 11
-96.883427999837039
 21
-22.443749999999739
 31
0.0
1001
REVIT
1002
{
1070
     3
1000
206265
1002
}
  0
LINE
  5
256
  8
0
 10
-96.883427999837238
 20
-122.4437499999996
 30
0.0
 11
-96.883427999837707
 21
-355.34004451763599
 31
0.0
1001
REVIT
1002
{
1070
     3
1000
206265
1002
}
  0
INSERT
  5
257
  8
0
  6
CONTINUOUS
  2
*U37
 10
0.0
 20
0.0
 30
0.0
1001
ACAD
1002
{
1000
R14_HATCH_DATA
1000
257
1011
1.0
1021
0.0
1031
0.0
1021
0.0
1031
0.0
1011
0.0
1021
0.0
1031
0.0
1021
1.0
1031
0.0
1011
0.0
1021
0.0
1031
0.0
1021
0.0
1031
1.0
1040
0.0
1010
0.0
1020
0.0
1030
1.0
1000
SOLID
1070
     1
1070
     0
1071
        1
1071
        0
1071
       86
1070
     1
1040
-408.34587806816222
1040
58.560717864617331
1040
-392.33757109318333
1040
59.282443652643302
1070
     1
1040
-392.33757109318321
1040
59.282443652643302
1040
-376.52610946505558
1040
61.447621016720952
1070
     1
1040
-376.52610946505558
1040
61.447621016720952
1040
-360.84587806816228
1040
65.056249956850451
1070
     1
1040
-360.84587806816228
1040
65.056249956850451
1040
-353.84587806816393
1040
74.556249956849229
1070
     1
1040
-353.84587806816393
1040
74.556249956849229
1040
-339.17291191913921
1040
79.685120163592188
1070
     1
1040
-339.17291191913921
1040
79.685120163592188
1040
-324.33642884462688
1040
83.531772818649401
1070
     1
1040
-324.33642884462688
1040
83.531772818649401
1040
-309.33642884462671
1040
86.096207922020923
1070
     1
1040
-309.33642884462671
1040
86.096207922020923
1040
-294.06390063548042
1040
87.378425473706727
1070
     1
1040
-294.06390063548042
1040
87.378425473706756
1040
-278.62785550084641
1040
87.378425473706884
1070
     1
1040
-278.62785550084629
1040
87.378425473706869
1040
-263.35532729170012
1040
86.096207922021264
1070
     1
1040
-263.35532729170012
1040
86.096207922021264
1040
-248.35532729170001
1040
83.531772818649941
1070
     1
1040
-248.35532729170001
1040
83.531772818649941
1040
-233.51884421718759
1040
79.685120163592927
1070
     1
1040
-233.51884421718759
1040
79.685120163592927
1040
-218.8458780681618
1040
74.556249956849769
1070
     1
1040
-218.8458780681618
1040
74.556249956849769
1040
-211.84587806816191
1040
65.056249956850095
1070
     1
1040
-211.84587806816191
1040
65.056249956850095
1040
-196.58377959500081
1040
61.524186883708801
1070
     1
1040
-196.58377959500081
1040
61.524186883708801
1040
-181.19071726950341
1040
59.360500712731799
1070
     1
1040
-181.19071726950341
1040
59.360500712731799
1040
-165.60608908731339
1040
58.564759477481552
1070
     1
1040
-165.60608908731339
1040
58.564759477481552
1040
-150.01170106149991
1040
59.138259077270781
1070
     1
1040
-150.01170106149991
1040
59.138259077270781
1040
-134.58935920513241
1040
61.08229541141268
1070
     1
1040
-134.58935920513241
1040
61.08229541141268
1040
-119.27846151385479
1040
64.396436513469439
1070
     1
1040
-119.27846151385479
1040
64.396436513469439
1040
-118.3815228563813
1040
64.741399349989933
1070
     1
1040
-118.3815228563813
1040
64.741399349989933
1040
-117.5808683021455
1040
65.27286016569731
1070
     1
1040
-117.5808683021455
1040
65.272860165697324
1040
-116.9146901616235
1040
65.965467557328083
1070
     1
1040
-116.9146901616235
1040
65.965467557328083
1040
-116.4147660375787
1040
66.786183210918637
1070
     1
1040
-116.4147660375787
1040
66.786183210918622
1040
-116.10494299021791
1040
67.695857874287412
1070
     1
1040
-116.10494299021791
1040
67.695857874287412
1040
-116.0000000000075
1040
68.651098829573755
1070
     1
1040
-116.0000000000075
1040
68.651098829573755
1040
-116.0000000000075
1040
81.021566380362756
1070
     1
1040
-116.0000000000075
1040
81.021566380362756
1040
-117.0000000000076
1040
81.021566380362756
1070
     1
1040
-117.0000000000076
1040
81.021566380362756
1040
-117.0000000000076
1040
68.651098829573755
1070
     1
1040
-117.0000000000076
1040
68.651098829573755
1040
-117.0810923106246
1040
67.912958091397911
1070
     1
1040
-117.0810923106246
1040
67.912958091397897
1040
-117.3205010290398
1040
67.210027669704004
1070
     1
1040
-117.3205010290398
1040
67.210027669704004
1040
-117.7068060339835
1040
66.575838301020298
1070
     1
1040
-117.7068060339836
1040
66.575838301020298
1040
-118.2215800516597
1040
66.040641680214776
1070
     1
1040
-118.2215800516597
1040
66.04064168021479
1040
-118.8402676617509
1040
65.629967413531702
1070
     1
1040
-118.8402676617509
1040
65.629967413531702
1040
-119.533356624343
1040
65.363405221675251
1070
     1
1040
-119.533356624343
1040
65.363405221675251
1040
-134.70044741400551
1040
62.077726901791173
1070
     1
1040
-134.70044741400551
1040
62.077726901791173
1040
-149.97841909254839
1040
60.144306426123627
1070
     1
1040
-149.97841909254839
1040
60.144306426123627
1040
-165.4268673386577
1040
59.5635102459268
1070
     1
1040
-165.4268673386577
1040
59.5635102459268
1040
-180.86700511627581
1040
60.334239007438043
1070
     1
1040
-180.86700511627581
1040
60.334239007438043
1040
-196.12004538934499
1040
62.455393356895023
1070
     1
1040
-196.12004538934499
1040
62.455393356895023
1040
-211.24558383655221
1040
65.927339745552217
1070
     1
1040
-211.24558383655221
1040
65.927339745552217
1040
-218.20962212967891
1040
75.378534571938175
1070
     1
1040
-218.20962212967891
1040
75.378534571938175
1040
-233.01813643440789
1040
80.577460380291996
1070
     1
1040
-233.01813643440789
1040
80.577460380291996
1040
-247.99308869104831
1040
84.476654736557364
1070
     1
1040
-247.99308869104831
1040
84.476654736557364
1040
-263.13447889960008
1040
87.076117640734225
1070
     1
1040
-263.13447889960008
1040
87.076117640734225
1040
-278.55326569467098
1040
88.375849092822733
1070
     1
1040
-278.55326569467098
1040
88.375849092822733
1040
-294.13849044165369
1040
88.375849092822733
1070
     1
1040
-294.13849044165357
1040
88.375849092822733
1040
-309.55727723672442
1040
87.076117640734225
1070
     1
1040
-309.55727723672442
1040
87.076117640734225
1040
-324.69866744527639
1040
84.47665473655735
1070
     1
1040
-324.69866744527639
1040
84.476654736557364
1040
-339.67361970191678
1040
80.577460380291839
1070
     1
1040
-339.67361970191672
1040
80.577460380291839
1040
-354.48213400664559
1040
75.378534571938175
1070
     1
1040
-354.48213400664559
1040
75.378534571938175
1040
-361.44617229977092
1040
65.927339745552757
1070
     1
1040
-361.44617229977092
1040
65.927339745552757
1040
-376.93042657952623
1040
62.390243345868257
1070
     1
1040
-376.93042657952623
1040
62.390243345868257
1040
-392.54237883903141
1040
60.267985506057471
1070
     1
1040
-392.54237883903141
1040
60.267985506057471
1040
-408.3458780681612
1040
59.560566226120521
1070
     1
1040
-408.3458780681612
1040
59.560566226120521
1040
-424.1493772972911
1040
60.267985506057272
1070
     1
1040
-424.1493772972911
1040
60.267985506057272
1040
-439.76132955679628
1040
62.390243345867788
1070
     1
1040
-439.76132955679628
1040
62.390243345867788
1040
-455.24558383655278
1040
65.927339745552473
1070
     1
1040
-455.24558383655278
1040
65.927339745552473
1040
-462.20962212967902
1040
75.378534571938175
1070
     1
1040
-462.20962212967902
1040
75.378534571938175
1040
-477.01813643440789
1040
80.577460380291839
1070
     1
1040
-477.01813643440801
1040
80.577460380291839
1040
-491.9930886910484
1040
84.47665473655735
1070
     1
1040
-491.99308869104829
1040
84.476654736557364
1040
-507.13447889960031
1040
87.076117640734225
1070
     1
1040
-507.13447889960031
1040
87.076117640734225
1040
-522.55326569467138
1040
88.375849092822733
1070
     1
1040
-522.55326569467115
1040
88.375849092822733
1040
-538.13849044165363
1040
88.375849092822733
1070
     1
1040
-538.13849044165374
1040
88.375849092822733
1040
-553.55727723672464
1040
87.076117640734225
1070
     1
1040
-553.55727723672464
1040
87.076117640734225
1040
-568.69866744527644
1040
84.47665473655735
1070
     1
1040
-568.69866744527644
1040
84.476654736557364
1040
-583.67361970191689
1040
80.577460380291839
1070
     1
1040
-583.67361970191689
1040
80.577460380291839
1040
-598.48213400664565
1040
75.378534571938175
1070
     1
1040
-598.48213400664577
1040
75.378534571938175
1040
-605.44617229977052
1040
65.927339745553695
1070
     1
1040
-605.44617229977041
1040
65.927339745553695
1040
-610.00000000000819
1040
64.732259150968673
1070
     1
1040
-610.00000000000819
1040
64.732259150968702
1040
-610.00000000000819
1040
63.702104144856222
1070
     1
1040
-610.00000000000819
1040
63.702104144856222
1040
-604.84587806816182
1040
65.056249956851261
1070
     1
1040
-604.84587806816182
1040
65.056249956851261
1040
-597.84587806816398
1040
74.556249956849371
1070
     1
1040
-597.84587806816398
1040
74.556249956849371
1040
-583.08626000916024
1040
79.707586390791292
1070
     1
1040
-583.08626000916024
1040
79.707586390791292
1040
-568.33642884462711
1040
83.531772818649472
1070
     1
1040
-568.33642884462711
1040
83.531772818649472
1040
-553.33642884462699
1040
86.096207922020952
1070
     1
1040
-553.33642884462699
1040
86.096207922020923
1040
-538.06390063548065
1040
87.378425473706727
1070
     1
1040
-538.06390063548054
1040
87.378425473706756
1040
-522.62785550084629
1040
87.378425473706884
1070
     1
1040
-522.62785550084652
1040
87.378425473706869
1040
-507.35532729170012
1040
86.096207922021193
1070
     1
1040
-507.35532729170001
1040
86.096207922021193
1040
-492.35532729169989
1040
83.531772818649941
1070
     1
1040
-492.35532729169989
1040
83.531772818649941
1040
-477.51884421718739
1040
79.68512016359287
1070
     1
1040
-477.51884421718751
1040
79.68512016359287
1040
-462.84587806816188
1040
74.556249956849712
1070
     1
1040
-462.84587806816182
1040
74.556249956849712
1040
-455.84587806816228
1040
65.056249956850451
1070
     1
1040
-455.84587806816239
1040
65.056249956850451
1040
-440.16564667126897
1040
61.447621016720952
1070
     1
1040
-440.16564667126897
1040
61.447621016720952
1040
-424.35418504314129
1040
59.282443652643302
1070
     1
1040
-424.35418504314129
1040
59.282443652643302
1040
-408.34587806816222
1040
58.560717864617331
1071
        0
1070
     0
1070
     1
1071
        1
1040
-116.0000000000074
1040
112.2928799903608
1040
0.0
1002
}
  0
LINE
  5
258
  8
0
 10
-116.0000000000074
 20
81.021566380362614
 30
0.0
 11
-117.0000000000074
 21
81.021566380362614
 31
0.0
1001
REVIT
1002
{
1070
     3
1000
476644
1002
}
  0
LINE
  5
259
  8
0
 10
-117.0000000000074
 20
81.021566380362614
 30
0.0
 11
-117.0000000000074
 21
68.651098829573641
 31
0.0
1001
REVIT
1002
{
1070
     3
1000
476644
1002
}
  0
ARC
  5
25A
  8
0
 10
-120.4000000000073
 20
68.651098829573641
 30
0.0
 40
3.3999999999999408
 50
284.76737004574039
 51
0.0000000000008142
1001
REVIT
1002
{
1070
     3
1000
476644
1002
}
  0
ARC
  5
25B
  8
0
 10
-164.3458780681618
 20
235.3639434383044
 30
0.0
 40
175.80769343830309
 50
254.5280202875301
 51
284.76737004574039
1001
REVIT
1002
{
1070
     3
1000
476644
1002
}
  0
LINE
  5
25C
  8
0
 10
-211.24558383655199
 20
65.927339745552075
 30
0.0
 11
-218.20962212967859
 21
75.378534571938076
 31
0.0
1001
REVIT
1002
{
1070
     3
1000
476644
1002
}
  0
ARC
  5
25D
  8
0
 10
-286.34587806816182
 20
-94.184137006040658
 30
0.0
 40
182.74038679497181
 50
68.10800032718025
 51
111.89199967281969
1001
REVIT
1002
{
1070
     3
1000
476644
1002
}
  0
LINE
  5
25E
  8
0
 10
-354.4821340066452
 20
75.378534571938019
 30
0.0
 11
-361.44617229977138
 21
65.927339745552359
 31
0.0
1001
REVIT
1002
{
1070
     3
1000
476644
1002
}
  0
ARC
  5
25F
  8
0
 10
-408.34587806816182
 20
235.363943438299
 30
0.0
 40
175.8076934382976
 50
254.5280202875293
 51
285.47197971247073
1001
REVIT
1002
{
1070
     3
1000
476644
1002
}
  0
LINE
  5
260
  8
0
 10
-455.24558383655221
 20
65.927339745552388
 30
0.0
 11
-462.20962212967839
 21
75.378534571938005
 31
0.0
1001
REVIT
1002
{
1070
     3
1000
476644
1002
}
  0
ARC
  5
261
  8
0
 10
-530.34587806816182
 20
-94.184137006040615
 30
0.0
 40
182.74038679497181
 50
68.10800032718025
 51
111.89199967281969
1001
REVIT
1002
{
1070
     3
1000
476644
1002
}
  0
LINE
  5
262
  8
0
 10
-598.4821340066452
 20
75.378534571938033
 30
0.0
 11
-605.44617229977075
 21
65.927339745553212
 31
0.0
1001
REVIT
1002
{
1070
     3
1000
476644
1002
}
  0
ARC
  5
263
  8
0
 10
-652.34587806814659
 20
235.36394343824989
 30
0.0
 40
175.80769343824559
 50
283.93758486727307
 51
285.47197971247073
1001
REVIT
1002
{
1070
     3
1000
476644
1002
}
  0
LINE
  5
264
  8
0
 10
-610.0000000000075
 20
64.732259150968559
 30
0.0
 11
-610.0000000000075
 21
63.702104144856122
 31
0.0
1001
REVIT
1002
{
1070
     3
1000
476644
1002
}
  0
ARC
  5
265
  8
0
 10
-652.34587806812817
 20
235.3639434381806
 30
0.0
 40
176.80769343817391
 50
283.85717720047211
 51
285.58415605425068
1001
REVIT
1002
{
1070
     3
1000
476644
1002
}
  0
LINE
  5
266
  8
0
 10
-604.84587806816114
 20
65.056249956851204
 30
0.0
 11
-597.84587806816239
 21
74.556249956849655
 31
0.0
1001
REVIT
1002
{
1070
     3
1000
476644
1002
}
  0
ARC
  5
267
  8
0
 10
-530.34587806816182
 20
-94.184137006040487
 30
0.0
 40
181.7403867949717
 50
68.197464968811644
 51
111.80253503118909
1001
REVIT
1002
{
1070
     3
1000
476644
1002
}
  0
LINE
  5
268
  8
0
 10
-462.8458780681612
 20
74.556249956849598
 30
0.0
 11
-455.84587806816171
 21
65.056249956850294
 31
0.0
1001
REVIT
1002
{
1070
     3
1000
476644
1002
}
  0
ARC
  5
269
  8
0
 10
-408.34587806816182
 20
235.36394343829929
 30
0.0
 40
176.807693438298
 50
254.4158439457494
 51
285.58415605425068
1001
REVIT
1002
{
1070
     3
1000
476644
1002
}
  0
LINE
  5
26A
  8
0
 10
-360.84587806816182
 20
65.056249956850351
 30
0.0
 11
-353.84587806816228
 21
74.556249956849598
 31
0.0
1001
REVIT
1002
{
1070
     3
1000
476644
1002
}
  0
ARC
  5
26B
  8
0
 10
-286.34587806816182
 20
-94.184137006040771
 30
0.0
 40
181.7403867949719
 50
68.197464968811644
 51
111.80253503118909
1001
REVIT
1002
{
1070
     3
1000
476644
1002
}
  0
LINE
  5
26C
  8
0
 10
-218.8458780681614
 20
74.556249956849655
 30
0.0
 11
-211.84587806816171
 21
65.056249956850081
 31
0.0
1001
REVIT
1002
{
1070
     3
1000
476644
1002
}
  0
ARC
  5
26D
  8
0
 10
-164.34587806816191
 20
235.36394343830381
 30
0.0
 40
176.80769343830249
 50
254.4158439457494
 51
284.76737004574039
1001
REVIT
1002
{
1070
     3
1000
476644
1002
}
  0
ARC
  5
26E
  8
0
 10
-120.4000000000073
 20
68.651098829573641
 30
0.0
 40
4.3999999999999524
 50
284.76737004574039
 51
0.0
1001
REVIT
1002
{
1070
     3
1000
476644
1002
}
  0
LINE
  5
26F
  8
0
 10
-116.0000000000074
 20
68.651098829573641
 30
0.0
 11
-116.0000000000074
 21
81.021566380362614
 31
0.0
1001
REVIT
1002
{
1070
     3
1000
476644
1002
}
  0
VIEWPORT
  5
203
 67
     1
  8
0
 10
143.41473388671869
 20
99.790247440338135
 30
0.0
 40
334.673629294997
 41
222.15178063964851
 68
     1
 69
     1
1001
ACAD
1000
MVIEW
1002
{
1070
    16
1010
0.0
1020
0.0
1030
0.0
1010
0.0
1020
0.0
1030
1.0
1040
0.0
1040
222.15178063964851
1040
143.41473388671869
1040
99.790247440338135
1040
50.0
1040
0.0
1040
0.0
1070
     0
1070
   100
1070
     1
1070
     1
1070
     0
1070
     0
1070
     0
1070
     0
1040
0.0
1040
0.0
1040
0.0
1040
10.0
1040
10.0
1040
10.0
1040
10.0
1070
     0
1002
{
1002
}
1002
}
  0
VIEWPORT
  5
207
 67
     1
  8
0
 10
143.3724060058594
 20
99.832585573196425
 30
0.0
 40
229.39584960937501
 41
159.73213691711419
 68
     2
 69
     2
1001
ACAD
1000
MVIEW
1002
{
1070
    16
1010
0.0
1020
0.0
1030
0.0
1010
0.0
1020
0.0
1030
1.0
1040
0.0
1040
764.01087518770873
1040
-213.711109840022
1040
0.8199413514195725
1040
50.0
1040
0.0
1040
0.0
1070
     0
1070
  1000
1070
     1
1070
     1
1070
     0
1070
     0
1070
     0
1070
     0
1040
0.0
1040
0.0
1040
0.0
1040
1.0
1040
1.0
1040
0.0
1040
0.0
1070
     0
1002
{
1002
}
1002
}
  0
ENDSEC
  0
EOF
