  0
SECTION
  2
HEADER
  9
$ACADVER
  1
AC1009
  9
$INSBASE
 10
0.0
 20
0.0
 30
0.0
  9
$EXTMIN
 10
-155.94206553299369
 20
-398.10426081010752
 30
0.0
  9
$EXTMAX
 10
1878.919079515711
 20
1111.4549578814481
 30
0.0
  9
$LIMMIN
 10
0.0
 20
0.0
  9
$LIMMAX
 10
12.0
 20
9.0
  9
$ORTHOMODE
 70
     0
  9
$REGENMODE
 70
     1
  9
$FILLMODE
 70
     1
  9
$QTEXTMODE
 70
     0
  9
$MIRRTEXT
 70
     0
  9
$DRAGMODE
 70
     2
  9
$LTSCALE
 40
1.0
  9
$OSMODE
 70
     0
  9
$ATTMODE
 70
     1
  9
$TEXTSIZE
 40
0.2
  9
$TRACEWID
 40
0.05
  9
$TEXTSTYLE
  7
STANDARD
  9
$CLAYER
  8
0
  9
$CELTYPE
  6
BYLAYER
  9
$CECOLOR
 62
   256
  9
$DIMSCALE
 40
1.0
  9
$DIMASZ
 40
0.18
  9
$DIMEXO
 40
0.0625
  9
$DIMDLI
 40
0.38
  9
$DIMRND
 40
0.0
  9
$DIMDLE
 40
0.0
  9
$DIMEXE
 40
0.18
  9
$DIMTP
 40
0.0
  9
$DIMTM
 40
0.0
  9
$DIMTXT
 40
0.18
  9
$DIMCEN
 40
0.09
  9
$DIMTSZ
 40
0.0
  9
$DIMTOL
 70
     0
  9
$DIMLIM
 70
     0
  9
$DIMTIH
 70
     1
  9
$DIMTOH
 70
     1
  9
$DIMSE1
 70
     0
  9
$DIMSE2
 70
     0
  9
$DIMTAD
 70
     0
  9
$DIMZIN
 70
     0
  9
$DIMBLK
  1

  9
$DIMASO
 70
     1
  9
$DIMSHO
 70
     1
  9
$DIMPOST
  1

  9
$DIMAPOST
  1

  9
$DIMALT
 70
     0
  9
$DIMALTD
 70
     2
  9
$DIMALTF
 40
25.399999999999999
  9
$DIMLFAC
 40
1.0
  9
$DIMTOFL
 70
     0
  9
$DIMTVP
 40
0.0
  9
$DIMTIX
 70
     0
  9
$DIMSOXD
 70
     0
  9
$DIMSAH
 70
     0
  9
$DIMBLK1
  1

  9
$DIMBLK2
  1

  9
$DIMSTYLE
  2
STANDARD
  9
$DIMCLRD
 70
     0
  9
$DIMCLRE
 70
     0
  9
$DIMCLRT
 70
     0
  9
$DIMTFAC
 40
1.0
  9
$DIMGAP
 40
0.09
  9
$LUNITS
 70
     2
  9
$LUPREC
 70
     4
  9
$SKETCHINC
 40
0.1
  9
$FILLETRAD
 40
0.0
  9
$AUNITS
 70
     0
  9
$AUPREC
 70
     0
  9
$MENU
  1
.
  9
$ELEVATION
 40
0.0
  9
$PELEVATION
 40
0.0
  9
$THICKNESS
 40
0.0
  9
$LIMCHECK
 70
     0
  9
$BLIPMODE
 70
     0
  9
$CHAMFERA
 40
0.0
  9
$CHAMFERB
 40
0.0
  9
$SKPOLY
 70
     0
  9
$TDCREATE
 40
2457745.6348615051
  9
$TDUPDATE
 40
2457745.656568055
  9
$TDINDWG
 40
0.0001315625
  9
$TDUSRTIMER
 40
0.0001315625
  9
$USRTIMER
 70
     1
  9
$ANGBASE
 50
0.0
  9
$ANGDIR
 70
     0
  9
$PDMODE
 70
     0
  9
$PDSIZE
 40
0.0
  9
$PLINEWID
 40
0.0
  9
$COORDS
 70
     2
  9
$SPLFRAME
 70
     0
  9
$SPLINETYPE
 70
     6
  9
$SPLINESEGS
 70
     8
  9
$ATTDIA
 70
     0
  9
$ATTREQ
 70
     0
  9
$HANDLING
 70
     1
  9
$HANDSEED
  5
D04
  9
$SURFTAB1
 70
     6
  9
$SURFTAB2
 70
     6
  9
$SURFTYPE
 70
     6
  9
$SURFU
 70
     6
  9
$SURFV
 70
     6
  9
$UCSNAME
  2

  9
$UCSORG
 10
0.0
 20
0.0
 30
0.0
  9
$UCSXDIR
 10
1.0
 20
0.0
 30
0.0
  9
$UCSYDIR
 10
0.0
 20
1.0
 30
0.0
  9
$PUCSNAME
  2

  9
$PUCSORG
 10
0.0
 20
0.0
 30
0.0
  9
$PUCSXDIR
 10
1.0
 20
0.0
 30
0.0
  9
$PUCSYDIR
 10
0.0
 20
1.0
 30
0.0
  9
$USERI1
 70
     0
  9
$USERI2
 70
     0
  9
$USERI3
 70
     0
  9
$USERI4
 70
     0
  9
$USERI5
 70
     0
  9
$USERR1
 40
0.0
  9
$USERR2
 40
0.0
  9
$USERR3
 40
0.0
  9
$USERR4
 40
0.0
  9
$USERR5
 40
0.0
  9
$WORLDVIEW
 70
     1
  9
$SHADEDGE
 70
     3
  9
$SHADEDIF
 70
    70
  9
$TILEMODE
 70
     1
  9
$MAXACTVP
 70
    64
  9
$PLIMCHECK
 70
     0
  9
$PEXTMIN
 10
28.674481201171879
 20
19.966517114639291
 30
0.0
  9
$PEXTMAX
 10
258.07033081054692
 20
179.69865403175351
 30
0.0
  9
$PLIMMIN
 10
-5.069427490234375
 20
-5.1964163780212402
  9
$PLIMMAX
 10
291.89889526367187
 20
204.77691125869751
  9
$UNITMODE
 70
     0
  9
$VISRETAIN
 70
     1
  9
$PLINEGEN
 70
     0
  9
$PSLTSCALE
 70
     1
  0
ENDSEC
  0
SECTION
  2
TABLES
  0
TABLE
  2
VPORT
 70
     1
  0
VPORT
  2
*ACTIVE
 70
     0
 10
0.0
 20
0.0
 11
1.0
 21
1.0
 12
987.28793547245994
 22
356.67485769195503
 13
0.0
 23
0.0
 14
1.0
 24
1.0
 15
0.0
 25
0.0
 16
0.0
 26
0.0
 36
1.0
 17
0.0
 27
0.0
 37
0.0
 40
1509.560200378987
 41
1.5065088757396441
 42
50.0
 43
0.0
 44
0.0
 50
0.0
 51
0.0
 71
     0
 72
  1000
 73
     1
 74
     1
 75
     0
 76
     0
 77
     0
 78
     0
  0
ENDTAB
  0
TABLE
  2
LTYPE
 70
     1
  0
LTYPE
  2
CONTINUOUS
 70
     0
  3
Solid line
 72
    65
 73
     0
 40
0.0
  0
ENDTAB
  0
TABLE
  2
LAYER
 70
     8
  0
LAYER
  2
0
 70
     0
 62
     7
  6
CONTINUOUS
  0
ENDTAB
  0
TABLE
  2
STYLE
 70
     8
  0
STYLE
  2
STANDARD
 70
     0
 40
0.0
 41
1.0
 50
0.0
 71
     0
 42
0.2
  3
txt
  4

  0
STYLE
  2
ARIAL
 70
     0
 40
24.588323353293418
 41
1.0
 50
0.0
 71
     0
 42
0.2
  3
txt
  4

  0
ENDTAB
  0
TABLE
  2
VIEW
 70
     1
  0
ENDTAB
  0
TABLE
  2
UCS
 70
     0
  0
ENDTAB
  0
TABLE
  2
APPID
 70
     6
  0
APPID
  2
ACAD
 70
     0
  0
APPID
  2
ACADANNOTATIVE
 70
     0
  0
APPID
  2
REVIT
 70
     0
  0
APPID
  2
ACAD_PSEXT
 70
     0
  0
APPID
  2
ACAD_NAV_VCDISPLAY
 70
     0
  0
APPID
  2
ACAD_MLEADERVER
 70
     0
  0
ENDTAB
  0
TABLE
  2
DIMSTYLE
 70
     2
  0
DIMSTYLE
  2
STANDARD
 70
     0
  3

  4

  5

  6

  7

 40
1.0
 41
0.18
 42
0.0625
 43
0.38
 44
0.18
 45
0.0
 46
0.0
 47
0.0
 48
0.0
140
0.18
141
0.09
142
0.0
143
25.399999999999999
144
1.0
145
0.0
146
1.0
147
0.09
 71
     0
 72
     0
 73
     1
 74
     1
 75
     0
 76
     0
 77
     0
 78
     0
170
     0
171
     2
172
     0
173
     0
174
     0
175
     0
176
     0
177
     0
178
     0
  0
ENDTAB
  0
ENDSEC
  0
SECTION
  2
BLOCKS
  0
BLOCK
  8
0
  2
$MODEL_SPACE
 70
     0
 10
0.0
 20
0.0
 30
0.0
  3
$MODEL_SPACE
  1

  0
ENDBLK
  5
72
  8
0
  0
BLOCK
 67
     1
  8
0
  2
$PAPER_SPACE
 70
     0
 10
0.0
 20
0.0
 30
0.0
  3
$PAPER_SPACE
  1

  0
ENDBLK
  5
76
 67
     1
  8
0
  0
BLOCK
  8
0
  2
*U4
 70
     1
 10
0.0
 20
0.0
 30
0.0
  3
*U4
  1

  0
SOLID
  5
908
  8
0
  6
CONTINUOUS
 62
     7
 10
1279.894410002343
 20
458.52226968979761
 30
0.0
 11
1278.859133821933
 21
458.38597299495387
 31
0.0
 12
1280.9296861827529
 22
458.38597299495387
 32
0.0
 13
1280.9296861827529
 23
458.38597299495387
 33
0.0
210
0.0
220
0.0
230
1.0
  0
SOLID
  5
909
  8
0
  6
CONTINUOUS
 62
     7
 10
1278.859133821933
 20
458.38597299495387
 30
0.0
 11
1277.894410002343
 21
457.98637130493552
 31
0.0
 12
1281.894410002343
 22
457.98637130493552
 32
0.0
 13
1281.894410002343
 23
457.98637130493552
 33
0.0
210
0.0
220
0.0
230
1.0
  0
SOLID
  5
90A
  8
0
  6
CONTINUOUS
 62
     7
 10
-1278.859133821933
 20
458.38597299495387
 30
0.0
 11
-1280.9296861827529
 21
458.38597299495387
 31
0.0
 12
-1281.894410002343
 22
457.98637130493552
 32
0.0
 13
-1281.894410002343
 23
457.98637130493552
 33
0.0
210
0.0
220
0.0
230
-1.0
  0
SOLID
  5
90B
  8
0
  6
CONTINUOUS
 62
     7
 10
1277.894410002343
 20
457.98637130493552
 30
0.0
 11
1277.065982877597
 21
457.35069681454382
 31
0.0
 12
1282.722837127089
 22
457.35069681454382
 32
0.0
 13
1282.722837127089
 23
457.35069681454382
 33
0.0
210
0.0
220
0.0
230
1.0
  0
SOLID
  5
90C
  8
0
  6
CONTINUOUS
 62
     7
 10
-1277.894410002343
 20
457.98637130493552
 30
0.0
 11
-1281.894410002343
 21
457.98637130493552
 31
0.0
 12
-1282.722837127089
 22
457.35069681454382
 32
0.0
 13
-1282.722837127089
 23
457.35069681454382
 33
0.0
210
0.0
220
0.0
230
-1.0
  0
SOLID
  5
90D
  8
0
  6
CONTINUOUS
 62
     7
 10
1277.065982877597
 20
457.35069681454382
 30
0.0
 11
1276.4303083872051
 21
456.52226968979761
 31
0.0
 12
1283.3585116174811
 22
456.52226968979761
 32
0.0
 13
1283.3585116174811
 23
456.52226968979761
 33
0.0
210
0.0
220
0.0
230
1.0
  0
SOLID
  5
90E
  8
0
  6
CONTINUOUS
 62
     7
 10
-1277.065982877597
 20
457.35069681454382
 30
0.0
 11
-1282.722837127089
 21
457.35069681454382
 31
0.0
 12
-1283.3585116174811
 22
456.52226968979761
 32
0.0
 13
-1283.3585116174811
 23
456.52226968979761
 33
0.0
210
0.0
220
0.0
230
-1.0
  0
SOLID
  5
90F
  8
0
  6
CONTINUOUS
 62
     7
 10
1276.4303083872051
 20
456.52226968979761
 30
0.0
 11
1276.030706697187
 21
455.55754587020778
 31
0.0
 12
1283.7581133075
 22
455.55754587020778
 32
0.0
 13
1283.7581133075
 23
455.55754587020778
 33
0.0
  0
SOLID
  5
910
  8
0
  6
CONTINUOUS
 62
     7
 10
-1276.4303083872051
 20
456.52226968979761
 30
0.0
 11
-1283.3585116174811
 21
456.52226968979761
 31
0.0
 12
-1283.7581133075
 22
455.55754587020778
 32
0.0
 13
-1283.7581133075
 23
455.55754587020778
 33
0.0
210
0.0
220
0.0
230
-1.0
  0
SOLID
  5
911
  8
0
  6
CONTINUOUS
 62
     7
 10
1276.030706697187
 20
455.55754587020778
 30
0.0
 11
1275.894410002343
 21
454.5222696897975
 31
0.0
 12
1283.894410002343
 22
454.5222696897975
 32
0.0
 13
1283.894410002343
 23
454.5222696897975
 33
0.0
210
0.0
220
0.0
230
1.0
  0
SOLID
  5
912
  8
0
  6
CONTINUOUS
 62
     7
 10
-1276.030706697187
 20
455.55754587020778
 30
0.0
 11
-1283.7581133075
 21
455.55754587020778
 31
0.0
 12
-1283.894410002343
 22
454.5222696897975
 32
0.0
 13
-1283.894410002343
 23
454.5222696897975
 33
0.0
210
0.0
220
0.0
230
-1.0
  0
SOLID
  5
913
  8
0
  6
CONTINUOUS
 62
     7
 10
1275.894410002343
 20
454.5222696897975
 30
0.0
 11
1276.030706697187
 21
453.48699350938739
 31
0.0
 12
1283.7581133075
 22
453.48699350938739
 32
0.0
 13
1283.7581133075
 23
453.48699350938739
 33
0.0
210
0.0
220
0.0
230
1.0
  0
SOLID
  5
914
  8
0
  6
CONTINUOUS
 62
     7
 10
-1275.894410002343
 20
454.5222696897975
 30
0.0
 11
-1283.894410002343
 21
454.5222696897975
 31
0.0
 12
-1283.7581133075
 22
453.48699350938739
 32
0.0
 13
-1283.7581133075
 23
453.48699350938739
 33
0.0
210
0.0
220
0.0
230
-1.0
  0
SOLID
  5
915
  8
0
  6
CONTINUOUS
 62
     7
 10
1276.030706697187
 20
453.48699350938739
 30
0.0
 11
1276.4303083872051
 21
452.52226968979761
 31
0.0
 12
1283.3585116174811
 22
452.52226968979761
 32
0.0
 13
1283.3585116174811
 23
452.52226968979761
 33
0.0
210
0.0
220
0.0
230
1.0
  0
SOLID
  5
916
  8
0
  6
CONTINUOUS
 62
     7
 10
-1276.030706697187
 20
453.48699350938739
 30
0.0
 11
-1283.7581133075
 21
453.48699350938739
 31
0.0
 12
-1283.3585116174811
 22
452.52226968979761
 32
0.0
 13
-1283.3585116174811
 23
452.52226968979761
 33
0.0
210
0.0
220
0.0
230
-1.0
  0
SOLID
  5
917
  8
0
  6
CONTINUOUS
 62
     7
 10
1276.4303083872051
 20
452.52226968979761
 30
0.0
 11
1277.065982877597
 21
451.6938425650514
 31
0.0
 12
1282.722837127089
 22
451.6938425650514
 32
0.0
 13
1282.722837127089
 23
451.6938425650514
 33
0.0
210
0.0
220
0.0
230
1.0
  0
SOLID
  5
918
  8
0
  6
CONTINUOUS
 62
     7
 10
-1276.4303083872051
 20
452.52226968979761
 30
0.0
 11
-1283.3585116174811
 21
452.52226968979761
 31
0.0
 12
-1282.722837127089
 22
451.6938425650514
 32
0.0
 13
-1282.722837127089
 23
451.6938425650514
 33
0.0
210
0.0
220
0.0
230
-1.0
  0
SOLID
  5
919
  8
0
  6
CONTINUOUS
 62
     7
 10
1277.065982877597
 20
451.6938425650514
 30
0.0
 11
1277.894410002343
 21
451.05816807465987
 31
0.0
 12
1281.894410002343
 22
451.05816807465987
 32
0.0
 13
1281.894410002343
 23
451.05816807465987
 33
0.0
210
0.0
220
0.0
230
1.0
  0
SOLID
  5
91A
  8
0
  6
CONTINUOUS
 62
     7
 10
-1277.065982877597
 20
451.6938425650514
 30
0.0
 11
-1282.722837127089
 21
451.6938425650514
 31
0.0
 12
-1281.894410002343
 22
451.05816807465987
 32
0.0
 13
-1281.894410002343
 23
451.05816807465987
 33
0.0
210
0.0
220
0.0
230
-1.0
  0
SOLID
  5
91B
  8
0
  6
CONTINUOUS
 62
     7
 10
-1278.859133821933
 20
450.6585663846414
 30
0.0
 11
-1280.9296861827529
 21
450.6585663846414
 31
0.0
 12
-1279.894410002343
 22
450.52226968979761
 32
0.0
 13
-1279.894410002343
 23
450.52226968979761
 33
0.0
210
0.0
220
0.0
230
-1.0
  0
SOLID
  5
91C
  8
0
  6
CONTINUOUS
 62
     7
 10
1277.894410002343
 20
451.05816807465987
 30
0.0
 11
1278.859133821933
 21
450.6585663846414
 31
0.0
 12
1280.9296861827529
 22
450.6585663846414
 32
0.0
 13
1280.9296861827529
 23
450.6585663846414
 33
0.0
210
0.0
220
0.0
230
1.0
  0
SOLID
  5
91D
  8
0
  6
CONTINUOUS
 62
     7
 10
-1277.894410002343
 20
451.05816807465987
 30
0.0
 11
-1281.894410002343
 21
451.05816807465987
 31
0.0
 12
-1280.9296861827529
 22
450.6585663846414
 32
0.0
 13
-1280.9296861827529
 23
450.6585663846414
 33
0.0
210
0.0
220
0.0
230
-1.0
  0
LINE
  5
91E
  8
0
  6
CONTINUOUS
 62
     7
 10
1279.894410002343
 20
458.52226968979761
 30
0.0
 11
1278.859133821933
 21
458.38597299495387
 31
0.0
  0
LINE
  5
91F
  8
0
  6
CONTINUOUS
 62
     7
 10
1280.9296861827529
 20
458.38597299495387
 30
0.0
 11
1279.894410002343
 21
458.52226968979761
 31
0.0
  0
LINE
  5
920
  8
0
  6
CONTINUOUS
 62
     7
 10
1278.859133821933
 20
458.38597299495387
 30
0.0
 11
1277.894410002343
 21
457.98637130493552
 31
0.0
  0
LINE
  5
921
  8
0
  6
CONTINUOUS
 62
     7
 10
1280.9296861827529
 20
458.38597299495387
 30
0.0
 11
1281.894410002343
 21
457.98637130493552
 31
0.0
  0
LINE
  5
922
  8
0
  6
CONTINUOUS
 62
     7
 10
1277.894410002343
 20
457.98637130493552
 30
0.0
 11
1277.065982877597
 21
457.35069681454382
 31
0.0
  0
LINE
  5
923
  8
0
  6
CONTINUOUS
 62
     7
 10
1281.894410002343
 20
457.98637130493552
 30
0.0
 11
1282.722837127089
 21
457.35069681454382
 31
0.0
  0
LINE
  5
924
  8
0
  6
CONTINUOUS
 62
     7
 10
1277.065982877597
 20
457.35069681454382
 30
0.0
 11
1276.4303083872051
 21
456.52226968979761
 31
0.0
  0
LINE
  5
925
  8
0
  6
CONTINUOUS
 62
     7
 10
1282.722837127089
 20
457.35069681454382
 30
0.0
 11
1283.3585116174811
 21
456.52226968979761
 31
0.0
  0
LINE
  5
926
  8
0
  6
CONTINUOUS
 62
     7
 10
1276.4303083872051
 20
456.52226968979761
 30
0.0
 11
1276.030706697187
 21
455.55754587020778
 31
0.0
  0
LINE
  5
927
  8
0
  6
CONTINUOUS
 62
     7
 10
1283.3585116174811
 20
456.52226968979761
 30
0.0
 11
1283.7581133075
 21
455.55754587020778
 31
0.0
  0
LINE
  5
928
  8
0
  6
CONTINUOUS
 62
     7
 10
1276.030706697187
 20
455.55754587020778
 30
0.0
 11
1275.894410002343
 21
454.5222696897975
 31
0.0
  0
LINE
  5
929
  8
0
  6
CONTINUOUS
 62
     7
 10
1283.7581133075
 20
455.55754587020778
 30
0.0
 11
1283.894410002343
 21
454.5222696897975
 31
0.0
  0
LINE
  5
92A
  8
0
  6
CONTINUOUS
 62
     7
 10
1275.894410002343
 20
454.5222696897975
 30
0.0
 11
1276.030706697187
 21
453.48699350938739
 31
0.0
  0
LINE
  5
92B
  8
0
  6
CONTINUOUS
 62
     7
 10
1283.894410002343
 20
454.5222696897975
 30
0.0
 11
1283.7581133075
 21
453.48699350938739
 31
0.0
  0
LINE
  5
92C
  8
0
  6
CONTINUOUS
 62
     7
 10
1276.030706697187
 20
453.48699350938739
 30
0.0
 11
1276.4303083872051
 21
452.52226968979761
 31
0.0
  0
LINE
  5
92D
  8
0
  6
CONTINUOUS
 62
     7
 10
1283.7581133075
 20
453.48699350938739
 30
0.0
 11
1283.3585116174811
 21
452.52226968979761
 31
0.0
  0
LINE
  5
92E
  8
0
  6
CONTINUOUS
 62
     7
 10
1276.4303083872051
 20
452.52226968979761
 30
0.0
 11
1277.065982877597
 21
451.6938425650514
 31
0.0
  0
LINE
  5
92F
  8
0
  6
CONTINUOUS
 62
     7
 10
1283.3585116174811
 20
452.52226968979761
 30
0.0
 11
1282.722837127089
 21
451.6938425650514
 31
0.0
  0
LINE
  5
930
  8
0
  6
CONTINUOUS
 62
     7
 10
1277.065982877597
 20
451.6938425650514
 30
0.0
 11
1277.894410002343
 21
451.05816807465987
 31
0.0
  0
LINE
  5
931
  8
0
  6
CONTINUOUS
 62
     7
 10
1282.722837127089
 20
451.6938425650514
 30
0.0
 11
1281.894410002343
 21
451.05816807465987
 31
0.0
  0
LINE
  5
932
  8
0
  6
CONTINUOUS
 62
     7
 10
1280.9296861827529
 20
450.6585663846414
 30
0.0
 11
1279.894410002343
 21
450.52226968979761
 31
0.0
  0
LINE
  5
933
  8
0
  6
CONTINUOUS
 62
     7
 10
1279.894410002343
 20
450.52226968979761
 30
0.0
 11
1278.859133821933
 21
450.6585663846414
 31
0.0
  0
LINE
  5
934
  8
0
  6
CONTINUOUS
 62
     7
 10
1277.894410002343
 20
451.05816807465987
 30
0.0
 11
1278.859133821933
 21
450.6585663846414
 31
0.0
  0
LINE
  5
935
  8
0
  6
CONTINUOUS
 62
     7
 10
1281.894410002343
 20
451.05816807465987
 30
0.0
 11
1280.9296861827529
 21
450.6585663846414
 31
0.0
  0
ENDBLK
  5
937
  8
0
  0
BLOCK
  8
0
  2
*U5
 70
     1
 10
0.0
 20
0.0
 30
0.0
  3
*U5
  1

  0
TEXT
  5
939
  8
0
 62
     7
 10
-151.3380445504022
 20
726.61436813692922
 30
0.0
 40
24.588323353293418
  1
Stucco/Siding
  7
ARIAL
  0
ENDBLK
  5
93B
  8
0
  0
BLOCK
  8
0
  2
*U6
 70
     1
 10
0.0
 20
0.0
 30
0.0
  3
*U6
  1

  0
TEXT
  5
93D
  8
0
 62
     7
 10
1291.6614925760609
 20
832.41537413155481
 30
0.0
 40
24.588323353293418
  1
112 A.E. Apron Flashing
  7
ARIAL
  0
TEXT
  5
93E
  8
0
 62
     7
 10
1293.3219591599459
 20
793.95383567001625
 30
0.0
 40
24.588323353293418
  1
(Side Flashing)
  7
ARIAL
  0
ENDBLK
  5
940
  8
0
  0
BLOCK
  8
0
  2
*U7
 70
     1
 10
0.0
 20
0.0
 30
0.0
  3
*U7
  1

  0
TEXT
  5
942
  8
0
 62
     7
 10
1292.8858770268041
 20
942.71855059403686
 30
0.0
 40
24.588323353293418
  1
Building paper
  7
ARIAL
  0
ENDBLK
  5
944
  8
0
  0
BLOCK
  8
0
  2
*U8
 70
     1
 10
0.0
 20
0.0
 30
0.0
  3
*U8
  1

  0
TEXT
  5
946
  8
0
 62
     7
 10
1382.3889849030979
 20
163.8430596548782
 30
0.0
 40
24.588323353293418
  1
Tile batten
  7
ARIAL
  0
ENDBLK
  5
948
  8
0
  0
BLOCK
  8
0
  2
*U9
 70
     1
 10
0.0
 20
0.0
 30
0.0
  3
*U9
  1

  0
TEXT
  5
94A
  8
0
 62
     7
 10
218.3011882832908
 20
-337.81185174760151
 30
0.0
 40
24.588323353293418
  1
No Bend Flashing
  7
ARIAL
  0
ENDBLK
  5
94C
  8
0
  0
BLOCK
  8
0
  2
*U10
 70
     1
 10
0.0
 20
0.0
 30
0.0
  3
*U10
  1

  0
TEXT
  5
94E
  8
0
 62
     7
 10
1083.350453984383
 20
-254.85879385576791
 30
0.0
 40
24.588323353293418
  1
Underlay over first batten
  7
ARIAL
  0
ENDBLK
  5
950
  8
0
  0
BLOCK
  8
0
  2
*U11
 70
     1
 10
0.0
 20
0.0
 30
0.0
  3
*U11
  1

  0
TEXT
  5
952
  8
0
 62
     7
 10
1294.3450749338549
 20
1046.2684713547339
 30
0.0
 40
24.588323353293418
  1
stucco/siding
  7
ARIAL
  0
ENDBLK
  5
954
  8
0
  0
BLOCK
  8
0
  2
*U12
 70
     1
 10
0.0
 20
0.0
 30
0.0
  3
*U12
  1

  0
TEXT
  5
956
  8
0
 62
     7
 10
-152.31084315510259
 20
625.31553261015995
 30
0.0
 40
24.588323353293418
  1
Building paper
  7
ARIAL
  0
ENDBLK
  5
958
  8
0
  0
BLOCK
  8
0
  2
*U13
 70
     1
 10
0.0
 20
0.0
 30
0.0
  3
*U13
  1

  0
TEXT
  5
95A
  8
0
 62
     7
 10
1520.7317557662111
 20
442.99465010041922
 30
0.0
 40
24.588323353293418
  1
1x4 Coutner batten
  7
ARIAL
  0
ENDBLK
  5
95C
  8
0
  0
BLOCK
  8
0
  2
*U14
 70
     1
 10
0.0
 20
0.0
 30
0.0
  3
*U14
  1

  0
SOLID
  5
968
  8
0
  6
CONTINUOUS
 10
790.66010658891059
 20
-187.30877987180131
 30
0.0
 11
789.36601136339812
 21
-187.479150740356
 31
0.0
 12
791.95420181442296
 22
-187.479150740356
 32
0.0
 13
791.95420181442296
 23
-187.479150740356
 33
0.0
210
0.0
220
0.0
230
1.0
  0
SOLID
  5
969
  8
0
  6
CONTINUOUS
 10
789.36601136339812
 20
-187.479150740356
 30
0.0
 11
788.16010658891071
 21
-187.97865285287909
 31
0.0
 12
793.16010658891093
 22
-187.97865285287909
 32
0.0
 13
793.16010658891093
 23
-187.97865285287909
 33
0.0
210
0.0
220
0.0
230
1.0
  0
SOLID
  5
96A
  8
0
  6
CONTINUOUS
 10
-789.36601136339812
 20
-187.479150740356
 30
0.0
 11
-791.95420181442296
 21
-187.479150740356
 31
0.0
 12
-793.16010658891093
 22
-187.97865285287909
 32
0.0
 13
-793.16010658891093
 23
-187.97865285287909
 33
0.0
210
0.0
220
0.0
230
-1.0
  0
SOLID
  5
96B
  8
0
  6
CONTINUOUS
 10
788.16010658891071
 20
-187.97865285287909
 30
0.0
 11
787.12457268297771
 21
-188.7732459658688
 31
0.0
 12
794.19564049484347
 22
-188.7732459658688
 32
0.0
 13
794.19564049484347
 23
-188.7732459658688
 33
0.0
210
0.0
220
0.0
230
1.0
  0
SOLID
  5
96C
  8
0
  6
CONTINUOUS
 10
-788.16010658891071
 20
-187.97865285287909
 30
0.0
 11
-793.16010658891093
 21
-187.97865285287909
 31
0.0
 12
-794.19564049484347
 22
-188.7732459658688
 32
0.0
 13
-794.19564049484347
 23
-188.7732459658688
 33
0.0
210
0.0
220
0.0
230
-1.0
  0
SOLID
  5
96D
  8
0
  6
CONTINUOUS
 10
787.12457268297771
 20
-188.7732459658688
 30
0.0
 11
786.32997956998861
 21
-189.80877987180159
 31
0.0
 12
794.99023360783315
 22
-189.80877987180159
 32
0.0
 13
794.99023360783315
 23
-189.80877987180159
 33
0.0
210
0.0
220
0.0
230
1.0
  0
SOLID
  5
96E
  8
0
  6
CONTINUOUS
 10
-787.12457268297771
 20
-188.7732459658688
 30
0.0
 11
-794.19564049484347
 21
-188.7732459658688
 31
0.0
 12
-794.99023360783315
 22
-189.80877987180159
 32
0.0
 13
-794.99023360783315
 23
-189.80877987180159
 33
0.0
210
0.0
220
0.0
230
-1.0
  0
SOLID
  5
96F
  8
0
  6
CONTINUOUS
 10
786.32997956998861
 20
-189.80877987180159
 30
0.0
 11
785.83047745746535
 21
-191.014684646289
 31
0.0
 12
795.48973572035595
 22
-191.014684646289
 32
0.0
 13
795.48973572035595
 23
-191.014684646289
 33
0.0
210
0.0
220
0.0
230
1.0
  0
SOLID
  5
970
  8
0
  6
CONTINUOUS
 10
-786.32997956998861
 20
-189.80877987180159
 30
0.0
 11
-794.99023360783315
 21
-189.80877987180159
 31
0.0
 12
-795.48973572035595
 22
-191.014684646289
 32
0.0
 13
-795.48973572035595
 23
-191.014684646289
 33
0.0
210
0.0
220
0.0
230
-1.0
  0
SOLID
  5
971
  8
0
  6
CONTINUOUS
 10
785.83047745746535
 20
-191.014684646289
 30
0.0
 11
785.66010658891082
 21
-192.30877987180131
 31
0.0
 12
795.66010658891093
 22
-192.30877987180131
 32
0.0
 13
795.66010658891093
 23
-192.30877987180131
 33
0.0
210
0.0
220
0.0
230
1.0
  0
SOLID
  5
972
  8
0
  6
CONTINUOUS
 10
-785.83047745746535
 20
-191.014684646289
 30
0.0
 11
-795.48973572035595
 21
-191.014684646289
 31
0.0
 12
-795.66010658891093
 22
-192.30877987180131
 32
0.0
 13
-795.66010658891093
 23
-192.30877987180131
 33
0.0
210
0.0
220
0.0
230
-1.0
  0
SOLID
  5
973
  8
0
  6
CONTINUOUS
 10
785.66010658891082
 20
-192.30877987180131
 30
0.0
 11
785.83047745746535
 21
-193.6028750973141
 31
0.0
 12
795.48973572035595
 22
-193.6028750973141
 32
0.0
 13
795.48973572035595
 23
-193.6028750973141
 33
0.0
  0
SOLID
  5
974
  8
0
  6
CONTINUOUS
 10
-785.66010658891082
 20
-192.30877987180131
 30
0.0
 11
-795.66010658891093
 21
-192.30877987180131
 31
0.0
 12
-795.48973572035595
 22
-193.6028750973141
 32
0.0
 13
-795.48973572035595
 23
-193.6028750973141
 33
0.0
210
0.0
220
0.0
230
-1.0
  0
SOLID
  5
975
  8
0
  6
CONTINUOUS
 10
785.83047745746535
 20
-193.6028750973141
 30
0.0
 11
786.32997956998861
 21
-194.80877987180151
 31
0.0
 12
794.99023360783315
 22
-194.80877987180151
 32
0.0
 13
794.99023360783315
 23
-194.80877987180151
 33
0.0
210
0.0
220
0.0
230
1.0
  0
SOLID
  5
976
  8
0
  6
CONTINUOUS
 10
-785.83047745746535
 20
-193.6028750973141
 30
0.0
 11
-795.48973572035595
 21
-193.6028750973141
 31
0.0
 12
-794.99023360783315
 22
-194.80877987180151
 32
0.0
 13
-794.99023360783315
 23
-194.80877987180151
 33
0.0
210
0.0
220
0.0
230
-1.0
  0
SOLID
  5
977
  8
0
  6
CONTINUOUS
 10
786.32997956998861
 20
-194.80877987180151
 30
0.0
 11
787.12457268297771
 21
-195.8443137777343
 31
0.0
 12
794.19564049484347
 22
-195.8443137777343
 32
0.0
 13
794.19564049484347
 23
-195.8443137777343
 33
0.0
210
0.0
220
0.0
230
1.0
  0
SOLID
  5
978
  8
0
  6
CONTINUOUS
 10
-786.32997956998861
 20
-194.80877987180151
 30
0.0
 11
-794.99023360783315
 21
-194.80877987180151
 31
0.0
 12
-794.19564049484347
 22
-195.8443137777343
 32
0.0
 13
-794.19564049484347
 23
-195.8443137777343
 33
0.0
210
0.0
220
0.0
230
-1.0
  0
SOLID
  5
979
  8
0
  6
CONTINUOUS
 10
787.12457268297771
 20
-195.8443137777343
 30
0.0
 11
788.16010658891071
 21
-196.63890689072369
 31
0.0
 12
793.16010658891025
 22
-196.63890689072369
 32
0.0
 13
793.16010658891025
 23
-196.63890689072369
 33
0.0
210
0.0
220
0.0
230
1.0
  0
SOLID
  5
97A
  8
0
  6
CONTINUOUS
 10
-787.12457268297771
 20
-195.8443137777343
 30
0.0
 11
-794.19564049484347
 21
-195.8443137777343
 31
0.0
 12
-793.16010658891025
 22
-196.63890689072369
 32
0.0
 13
-793.16010658891025
 23
-196.63890689072369
 33
0.0
210
0.0
220
0.0
230
-1.0
  0
SOLID
  5
97B
  8
0
  6
CONTINUOUS
 10
-789.36601136339812
 20
-197.13840900324681
 30
0.0
 11
-791.95420181442296
 21
-197.13840900324681
 31
0.0
 12
-790.66010658891059
 22
-197.30877987180151
 32
0.0
 13
-790.66010658891059
 23
-197.30877987180151
 33
0.0
210
0.0
220
0.0
230
-1.0
  0
SOLID
  5
97C
  8
0
  6
CONTINUOUS
 10
788.16010658891071
 20
-196.63890689072369
 30
0.0
 11
789.36601136339812
 21
-197.13840900324681
 31
0.0
 12
791.95420181442296
 22
-197.13840900324681
 32
0.0
 13
791.95420181442296
 23
-197.13840900324681
 33
0.0
210
0.0
220
0.0
230
1.0
  0
SOLID
  5
97D
  8
0
  6
CONTINUOUS
 10
-788.16010658891071
 20
-196.63890689072369
 30
0.0
 11
-793.16010658891025
 21
-196.63890689072369
 31
0.0
 12
-791.95420181442296
 22
-197.13840900324681
 32
0.0
 13
-791.95420181442296
 23
-197.13840900324681
 33
0.0
210
0.0
220
0.0
230
-1.0
  0
LINE
  5
97E
  8
0
  6
CONTINUOUS
 10
790.66010658891059
 20
-187.30877987180131
 30
0.0
 11
789.36601136339812
 21
-187.479150740356
 31
0.0
  0
LINE
  5
97F
  8
0
  6
CONTINUOUS
 10
791.95420181442296
 20
-187.479150740356
 30
0.0
 11
790.66010658891059
 21
-187.30877987180131
 31
0.0
  0
LINE
  5
980
  8
0
  6
CONTINUOUS
 10
789.36601136339812
 20
-187.479150740356
 30
0.0
 11
788.16010658891071
 21
-187.97865285287909
 31
0.0
  0
LINE
  5
981
  8
0
  6
CONTINUOUS
 10
791.95420181442296
 20
-187.479150740356
 30
0.0
 11
793.16010658891093
 21
-187.97865285287909
 31
0.0
  0
LINE
  5
982
  8
0
  6
CONTINUOUS
 10
788.16010658891071
 20
-187.97865285287909
 30
0.0
 11
787.12457268297771
 21
-188.7732459658688
 31
0.0
  0
LINE
  5
983
  8
0
  6
CONTINUOUS
 10
793.16010658891093
 20
-187.97865285287909
 30
0.0
 11
794.19564049484347
 21
-188.7732459658688
 31
0.0
  0
LINE
  5
984
  8
0
  6
CONTINUOUS
 10
787.12457268297771
 20
-188.7732459658688
 30
0.0
 11
786.32997956998861
 21
-189.80877987180159
 31
0.0
  0
LINE
  5
985
  8
0
  6
CONTINUOUS
 10
794.19564049484347
 20
-188.7732459658688
 30
0.0
 11
794.99023360783315
 21
-189.80877987180159
 31
0.0
  0
LINE
  5
986
  8
0
  6
CONTINUOUS
 10
786.32997956998861
 20
-189.80877987180159
 30
0.0
 11
785.83047745746535
 21
-191.014684646289
 31
0.0
  0
LINE
  5
987
  8
0
  6
CONTINUOUS
 10
794.99023360783315
 20
-189.80877987180159
 30
0.0
 11
795.48973572035595
 21
-191.014684646289
 31
0.0
  0
LINE
  5
988
  8
0
  6
CONTINUOUS
 10
785.83047745746535
 20
-191.014684646289
 30
0.0
 11
785.66010658891082
 21
-192.30877987180131
 31
0.0
  0
LINE
  5
989
  8
0
  6
CONTINUOUS
 10
795.48973572035595
 20
-191.014684646289
 30
0.0
 11
795.66010658891093
 21
-192.30877987180131
 31
0.0
  0
LINE
  5
98A
  8
0
  6
CONTINUOUS
 10
785.66010658891082
 20
-192.30877987180131
 30
0.0
 11
785.83047745746535
 21
-193.6028750973141
 31
0.0
  0
LINE
  5
98B
  8
0
  6
CONTINUOUS
 10
795.66010658891093
 20
-192.30877987180131
 30
0.0
 11
795.48973572035595
 21
-193.6028750973141
 31
0.0
  0
LINE
  5
98C
  8
0
  6
CONTINUOUS
 10
785.83047745746535
 20
-193.6028750973141
 30
0.0
 11
786.32997956998861
 21
-194.80877987180151
 31
0.0
  0
LINE
  5
98D
  8
0
  6
CONTINUOUS
 10
795.48973572035595
 20
-193.6028750973141
 30
0.0
 11
794.99023360783315
 21
-194.80877987180151
 31
0.0
  0
LINE
  5
98E
  8
0
  6
CONTINUOUS
 10
786.32997956998861
 20
-194.80877987180151
 30
0.0
 11
787.12457268297771
 21
-195.8443137777343
 31
0.0
  0
LINE
  5
98F
  8
0
  6
CONTINUOUS
 10
794.99023360783315
 20
-194.80877987180151
 30
0.0
 11
794.19564049484347
 21
-195.8443137777343
 31
0.0
  0
LINE
  5
990
  8
0
  6
CONTINUOUS
 10
787.12457268297771
 20
-195.8443137777343
 30
0.0
 11
788.16010658891071
 21
-196.63890689072369
 31
0.0
  0
LINE
  5
991
  8
0
  6
CONTINUOUS
 10
794.19564049484347
 20
-195.8443137777343
 30
0.0
 11
793.16010658891025
 21
-196.63890689072369
 31
0.0
  0
LINE
  5
992
  8
0
  6
CONTINUOUS
 10
791.95420181442296
 20
-197.13840900324681
 30
0.0
 11
790.66010658891059
 21
-197.30877987180151
 31
0.0
  0
LINE
  5
993
  8
0
  6
CONTINUOUS
 10
790.66010658891059
 20
-197.30877987180151
 30
0.0
 11
789.36601136339812
 21
-197.13840900324681
 31
0.0
  0
LINE
  5
994
  8
0
  6
CONTINUOUS
 10
788.16010658891071
 20
-196.63890689072369
 30
0.0
 11
789.36601136339812
 21
-197.13840900324681
 31
0.0
  0
LINE
  5
995
  8
0
  6
CONTINUOUS
 10
793.16010658891025
 20
-196.63890689072369
 30
0.0
 11
791.95420181442296
 21
-197.13840900324681
 31
0.0
  0
ENDBLK
  5
997
  8
0
  0
BLOCK
  8
0
  2
*U15
 70
     1
 10
0.0
 20
0.0
 30
0.0
  3
*U15
  1

  0
SOLID
  5
999
  8
0
  6
CONTINUOUS
 10
1215.702315263236
 20
300.8955825992827
 30
0.0
 11
1214.4082200377229
 21
300.72521173072812
 31
0.0
 12
1216.9964104887481
 22
300.72521173072812
 32
0.0
 13
1216.9964104887481
 23
300.72521173072812
 33
0.0
210
0.0
220
0.0
230
1.0
  0
SOLID
  5
99A
  8
0
  6
CONTINUOUS
 10
1214.4082200377229
 20
300.72521173072812
 30
0.0
 11
1213.202315263236
 21
300.22570961820492
 31
0.0
 12
1218.202315263236
 22
300.22570961820492
 32
0.0
 13
1218.202315263236
 23
300.22570961820492
 33
0.0
210
0.0
220
0.0
230
1.0
  0
SOLID
  5
99B
  8
0
  6
CONTINUOUS
 10
-1214.4082200377229
 20
300.72521173072812
 30
0.0
 11
-1216.9964104887481
 21
300.72521173072812
 31
0.0
 12
-1218.202315263236
 22
300.22570961820492
 32
0.0
 13
-1218.202315263236
 23
300.22570961820492
 33
0.0
210
0.0
220
0.0
230
-1.0
  0
SOLID
  5
99C
  8
0
  6
CONTINUOUS
 10
1213.202315263236
 20
300.22570961820492
 30
0.0
 11
1212.1667813573019
 21
299.43111650521553
 31
0.0
 12
1219.2378491691679
 22
299.43111650521553
 32
0.0
 13
1219.2378491691679
 23
299.43111650521553
 33
0.0
210
0.0
220
0.0
230
1.0
  0
SOLID
  5
99D
  8
0
  6
CONTINUOUS
 10
-1213.202315263236
 20
300.22570961820492
 30
0.0
 11
-1218.202315263236
 21
300.22570961820492
 31
0.0
 12
-1219.2378491691679
 22
299.43111650521553
 32
0.0
 13
-1219.2378491691679
 23
299.43111650521553
 33
0.0
210
0.0
220
0.0
230
-1.0
  0
SOLID
  5
99E
  8
0
  6
CONTINUOUS
 10
1212.1667813573019
 20
299.43111650521553
 30
0.0
 11
1211.3721882443131
 21
298.39558259928282
 31
0.0
 12
1220.0324422821579
 22
298.39558259928282
 32
0.0
 13
1220.0324422821579
 23
298.39558259928282
 33
0.0
210
0.0
220
0.0
230
1.0
  0
SOLID
  5
99F
  8
0
  6
CONTINUOUS
 10
-1212.1667813573019
 20
299.43111650521553
 30
0.0
 11
-1219.2378491691679
 21
299.43111650521553
 31
0.0
 12
-1220.0324422821579
 22
298.39558259928282
 32
0.0
 13
-1220.0324422821579
 23
298.39558259928282
 33
0.0
210
0.0
220
0.0
230
-1.0
  0
SOLID
  5
9A0
  8
0
  6
CONTINUOUS
 10
1211.3721882443131
 20
298.39558259928282
 30
0.0
 11
1210.87268613179
 21
297.18967782479541
 31
0.0
 12
1220.531944394681
 22
297.18967782479541
 32
0.0
 13
1220.531944394681
 23
297.18967782479541
 33
0.0
  0
SOLID
  5
9A1
  8
0
  6
CONTINUOUS
 10
-1211.3721882443131
 20
298.39558259928282
 30
0.0
 11
-1220.0324422821579
 21
298.39558259928282
 31
0.0
 12
-1220.531944394681
 22
297.18967782479541
 32
0.0
 13
-1220.531944394681
 23
297.18967782479541
 33
0.0
210
0.0
220
0.0
230
-1.0
  0
SOLID
  5
9A2
  8
0
  6
CONTINUOUS
 10
1210.87268613179
 20
297.18967782479541
 30
0.0
 11
1210.702315263236
 21
295.8955825992827
 31
0.0
 12
1220.702315263236
 22
295.8955825992827
 32
0.0
 13
1220.702315263236
 23
295.8955825992827
 33
0.0
210
0.0
220
0.0
230
1.0
  0
SOLID
  5
9A3
  8
0
  6
CONTINUOUS
 10
-1210.87268613179
 20
297.18967782479541
 30
0.0
 11
-1220.531944394681
 21
297.18967782479541
 31
0.0
 12
-1220.702315263236
 22
295.8955825992827
 32
0.0
 13
-1220.702315263236
 23
295.8955825992827
 33
0.0
210
0.0
220
0.0
230
-1.0
  0
SOLID
  5
9A4
  8
0
  6
CONTINUOUS
 10
1210.702315263236
 20
295.8955825992827
 30
0.0
 11
1210.87268613179
 21
294.60148737376988
 31
0.0
 12
1220.531944394681
 22
294.60148737376988
 32
0.0
 13
1220.531944394681
 23
294.60148737376988
 33
0.0
210
0.0
220
0.0
230
1.0
  0
SOLID
  5
9A5
  8
0
  6
CONTINUOUS
 10
-1210.702315263236
 20
295.8955825992827
 30
0.0
 11
-1220.702315263236
 21
295.8955825992827
 31
0.0
 12
-1220.531944394681
 22
294.60148737376988
 32
0.0
 13
-1220.531944394681
 23
294.60148737376988
 33
0.0
210
0.0
220
0.0
230
-1.0
  0
SOLID
  5
9A6
  8
0
  6
CONTINUOUS
 10
1210.87268613179
 20
294.60148737376988
 30
0.0
 11
1211.3721882443131
 21
293.39558259928248
 31
0.0
 12
1220.0324422821579
 22
293.39558259928248
 32
0.0
 13
1220.0324422821579
 23
293.39558259928248
 33
0.0
210
0.0
220
0.0
230
1.0
  0
SOLID
  5
9A7
  8
0
  6
CONTINUOUS
 10
-1210.87268613179
 20
294.60148737376988
 30
0.0
 11
-1220.531944394681
 21
294.60148737376988
 31
0.0
 12
-1220.0324422821579
 22
293.39558259928248
 32
0.0
 13
-1220.0324422821579
 23
293.39558259928248
 33
0.0
210
0.0
220
0.0
230
-1.0
  0
SOLID
  5
9A8
  8
0
  6
CONTINUOUS
 10
1211.3721882443131
 20
293.39558259928248
 30
0.0
 11
1212.1667813573031
 21
292.36004869334982
 31
0.0
 12
1219.2378491691679
 22
292.36004869334982
 32
0.0
 13
1219.2378491691679
 23
292.36004869334982
 33
0.0
210
0.0
220
0.0
230
1.0
  0
SOLID
  5
9A9
  8
0
  6
CONTINUOUS
 10
-1211.3721882443131
 20
293.39558259928248
 30
0.0
 11
-1220.0324422821579
 21
293.39558259928248
 31
0.0
 12
-1219.2378491691679
 22
292.36004869334982
 32
0.0
 13
-1219.2378491691679
 23
292.36004869334982
 33
0.0
210
0.0
220
0.0
230
-1.0
  0
SOLID
  5
9AA
  8
0
  6
CONTINUOUS
 10
1212.1667813573031
 20
292.36004869334982
 30
0.0
 11
1213.202315263236
 21
291.56545558036038
 31
0.0
 12
1218.202315263236
 22
291.56545558036038
 32
0.0
 13
1218.202315263236
 23
291.56545558036038
 33
0.0
210
0.0
220
0.0
230
1.0
  0
SOLID
  5
9AB
  8
0
  6
CONTINUOUS
 10
-1212.1667813573031
 20
292.36004869334982
 30
0.0
 11
-1219.2378491691679
 21
292.36004869334982
 31
0.0
 12
-1218.202315263236
 22
291.56545558036038
 32
0.0
 13
-1218.202315263236
 23
291.56545558036038
 33
0.0
210
0.0
220
0.0
230
-1.0
  0
SOLID
  5
9AC
  8
0
  6
CONTINUOUS
 10
-1214.4082200377229
 20
291.06595346783752
 30
0.0
 11
-1216.9964104887481
 21
291.06595346783752
 31
0.0
 12
-1215.702315263236
 22
290.89558259928248
 32
0.0
 13
-1215.702315263236
 23
290.89558259928248
 33
0.0
210
0.0
220
0.0
230
-1.0
  0
SOLID
  5
9AD
  8
0
  6
CONTINUOUS
 10
1213.202315263236
 20
291.56545558036038
 30
0.0
 11
1214.4082200377229
 21
291.06595346783752
 31
0.0
 12
1216.9964104887481
 22
291.06595346783752
 32
0.0
 13
1216.9964104887481
 23
291.06595346783752
 33
0.0
210
0.0
220
0.0
230
1.0
  0
SOLID
  5
9AE
  8
0
  6
CONTINUOUS
 10
-1213.202315263236
 20
291.56545558036038
 30
0.0
 11
-1218.202315263236
 21
291.56545558036038
 31
0.0
 12
-1216.9964104887481
 22
291.06595346783752
 32
0.0
 13
-1216.9964104887481
 23
291.06595346783752
 33
0.0
210
0.0
220
0.0
230
-1.0
  0
LINE
  5
9AF
  8
0
  6
CONTINUOUS
 10
1215.702315263236
 20
300.8955825992827
 30
0.0
 11
1214.4082200377229
 21
300.72521173072812
 31
0.0
  0
LINE
  5
9B0
  8
0
  6
CONTINUOUS
 10
1216.9964104887481
 20
300.72521173072812
 30
0.0
 11
1215.702315263236
 21
300.8955825992827
 31
0.0
  0
LINE
  5
9B1
  8
0
  6
CONTINUOUS
 10
1214.4082200377229
 20
300.72521173072812
 30
0.0
 11
1213.202315263236
 21
300.22570961820492
 31
0.0
  0
LINE
  5
9B2
  8
0
  6
CONTINUOUS
 10
1216.9964104887481
 20
300.72521173072812
 30
0.0
 11
1218.202315263236
 21
300.22570961820492
 31
0.0
  0
LINE
  5
9B3
  8
0
  6
CONTINUOUS
 10
1213.202315263236
 20
300.22570961820492
 30
0.0
 11
1212.1667813573019
 21
299.43111650521553
 31
0.0
  0
LINE
  5
9B4
  8
0
  6
CONTINUOUS
 10
1218.202315263236
 20
300.22570961820492
 30
0.0
 11
1219.2378491691679
 21
299.43111650521553
 31
0.0
  0
LINE
  5
9B5
  8
0
  6
CONTINUOUS
 10
1212.1667813573019
 20
299.43111650521553
 30
0.0
 11
1211.3721882443131
 21
298.39558259928282
 31
0.0
  0
LINE
  5
9B6
  8
0
  6
CONTINUOUS
 10
1219.2378491691679
 20
299.43111650521553
 30
0.0
 11
1220.0324422821579
 21
298.39558259928282
 31
0.0
  0
LINE
  5
9B7
  8
0
  6
CONTINUOUS
 10
1211.3721882443131
 20
298.39558259928282
 30
0.0
 11
1210.87268613179
 21
297.18967782479541
 31
0.0
  0
LINE
  5
9B8
  8
0
  6
CONTINUOUS
 10
1220.0324422821579
 20
298.39558259928282
 30
0.0
 11
1220.531944394681
 21
297.18967782479541
 31
0.0
  0
LINE
  5
9B9
  8
0
  6
CONTINUOUS
 10
1210.87268613179
 20
297.18967782479541
 30
0.0
 11
1210.702315263236
 21
295.8955825992827
 31
0.0
  0
LINE
  5
9BA
  8
0
  6
CONTINUOUS
 10
1220.531944394681
 20
297.18967782479541
 30
0.0
 11
1220.702315263236
 21
295.8955825992827
 31
0.0
  0
LINE
  5
9BB
  8
0
  6
CONTINUOUS
 10
1210.702315263236
 20
295.8955825992827
 30
0.0
 11
1210.87268613179
 21
294.60148737376988
 31
0.0
  0
LINE
  5
9BC
  8
0
  6
CONTINUOUS
 10
1220.702315263236
 20
295.8955825992827
 30
0.0
 11
1220.531944394681
 21
294.60148737376988
 31
0.0
  0
LINE
  5
9BD
  8
0
  6
CONTINUOUS
 10
1210.87268613179
 20
294.60148737376988
 30
0.0
 11
1211.3721882443131
 21
293.39558259928248
 31
0.0
  0
LINE
  5
9BE
  8
0
  6
CONTINUOUS
 10
1220.531944394681
 20
294.60148737376988
 30
0.0
 11
1220.0324422821579
 21
293.39558259928248
 31
0.0
  0
LINE
  5
9BF
  8
0
  6
CONTINUOUS
 10
1211.3721882443131
 20
293.39558259928248
 30
0.0
 11
1212.1667813573031
 21
292.36004869334982
 31
0.0
  0
LINE
  5
9C0
  8
0
  6
CONTINUOUS
 10
1220.0324422821579
 20
293.39558259928248
 30
0.0
 11
1219.2378491691679
 21
292.36004869334982
 31
0.0
  0
LINE
  5
9C1
  8
0
  6
CONTINUOUS
 10
1212.1667813573031
 20
292.36004869334982
 30
0.0
 11
1213.202315263236
 21
291.56545558036038
 31
0.0
  0
LINE
  5
9C2
  8
0
  6
CONTINUOUS
 10
1219.2378491691679
 20
292.36004869334982
 30
0.0
 11
1218.202315263236
 21
291.56545558036038
 31
0.0
  0
LINE
  5
9C3
  8
0
  6
CONTINUOUS
 10
1216.9964104887481
 20
291.06595346783752
 30
0.0
 11
1215.702315263236
 21
290.89558259928248
 31
0.0
  0
LINE
  5
9C4
  8
0
  6
CONTINUOUS
 10
1215.702315263236
 20
290.89558259928248
 30
0.0
 11
1214.4082200377229
 21
291.06595346783752
 31
0.0
  0
LINE
  5
9C5
  8
0
  6
CONTINUOUS
 10
1213.202315263236
 20
291.56545558036038
 30
0.0
 11
1214.4082200377229
 21
291.06595346783752
 31
0.0
  0
LINE
  5
9C6
  8
0
  6
CONTINUOUS
 10
1218.202315263236
 20
291.56545558036038
 30
0.0
 11
1216.9964104887481
 21
291.06595346783752
 31
0.0
  0
ENDBLK
  5
9C8
  8
0
  0
BLOCK
  8
0
  2
*U16
 70
     1
 10
0.0
 20
0.0
 30
0.0
  3
*U16
  1

  0
SOLID
  5
9CA
  8
0
  6
CONTINUOUS
 10
845.22288052467309
 20
914.93298477469898
 30
0.0
 11
843.92878529916084
 21
914.76261390614434
 31
0.0
 12
846.51697575018579
 22
914.76261390614434
 32
0.0
 13
846.51697575018579
 23
914.76261390614434
 33
0.0
210
0.0
220
0.0
230
1.0
  0
SOLID
  5
9CB
  8
0
  6
CONTINUOUS
 10
843.92878529916084
 20
914.76261390614434
 30
0.0
 11
842.72288052467366
 21
914.26311179362108
 31
0.0
 12
847.72288052467309
 22
914.26311179362108
 32
0.0
 13
847.72288052467309
 23
914.26311179362108
 33
0.0
210
0.0
220
0.0
230
1.0
  0
SOLID
  5
9CC
  8
0
  6
CONTINUOUS
 10
-843.92878529916084
 20
914.76261390614434
 30
0.0
 11
-846.51697575018579
 21
914.76261390614434
 31
0.0
 12
-847.72288052467309
 22
914.26311179362108
 32
0.0
 13
-847.72288052467309
 23
914.26311179362108
 33
0.0
210
0.0
220
0.0
230
-1.0
  0
SOLID
  5
9CD
  8
0
  6
CONTINUOUS
 10
842.72288052467366
 20
914.26311179362108
 30
0.0
 11
841.68734661874066
 21
913.46851868063175
 31
0.0
 12
848.75841443060585
 22
913.46851868063175
 32
0.0
 13
848.75841443060585
 23
913.46851868063175
 33
0.0
210
0.0
220
0.0
230
1.0
  0
SOLID
  5
9CE
  8
0
  6
CONTINUOUS
 10
-842.72288052467366
 20
914.26311179362108
 30
0.0
 11
-847.72288052467309
 21
914.26311179362108
 31
0.0
 12
-848.75841443060585
 22
913.46851868063175
 32
0.0
 13
-848.75841443060585
 23
913.46851868063175
 33
0.0
210
0.0
220
0.0
230
-1.0
  0
SOLID
  5
9CF
  8
0
  6
CONTINUOUS
 10
841.68734661874066
 20
913.46851868063175
 30
0.0
 11
840.89275350575133
 21
912.43298477469898
 31
0.0
 12
849.5530075435953
 22
912.43298477469898
 32
0.0
 13
849.5530075435953
 23
912.43298477469898
 33
0.0
210
0.0
220
0.0
230
1.0
  0
SOLID
  5
9D0
  8
0
  6
CONTINUOUS
 10
-841.68734661874066
 20
913.46851868063175
 30
0.0
 11
-848.75841443060585
 21
913.46851868063175
 31
0.0
 12
-849.5530075435953
 22
912.43298477469898
 32
0.0
 13
-849.5530075435953
 23
912.43298477469898
 33
0.0
210
0.0
220
0.0
230
-1.0
  0
SOLID
  5
9D1
  8
0
  6
CONTINUOUS
 10
840.89275350575133
 20
912.43298477469898
 30
0.0
 11
840.39325139322796
 21
911.22708000021157
 31
0.0
 12
850.05250965611845
 22
911.22708000021157
 32
0.0
 13
850.05250965611845
 23
911.22708000021157
 33
0.0
210
0.0
220
0.0
230
1.0
  0
SOLID
  5
9D2
  8
0
  6
CONTINUOUS
 10
-840.89275350575133
 20
912.43298477469898
 30
0.0
 11
-849.5530075435953
 21
912.43298477469898
 31
0.0
 12
-850.05250965611845
 22
911.22708000021157
 32
0.0
 13
-850.05250965611845
 23
911.22708000021157
 33
0.0
210
0.0
220
0.0
230
-1.0
  0
SOLID
  5
9D3
  8
0
  6
CONTINUOUS
 10
840.39325139322796
 20
911.22708000021157
 30
0.0
 11
840.2228805246732
 21
909.93298477469909
 31
0.0
 12
850.22288052467297
 22
909.93298477469909
 32
0.0
 13
850.22288052467297
 23
909.93298477469909
 33
0.0
210
0.0
220
0.0
230
1.0
  0
SOLID
  5
9D4
  8
0
  6
CONTINUOUS
 10
-840.39325139322796
 20
911.22708000021157
 30
0.0
 11
-850.05250965611845
 21
911.22708000021157
 31
0.0
 12
-850.22288052467297
 22
909.93298477469909
 32
0.0
 13
-850.22288052467297
 23
909.93298477469909
 33
0.0
210
0.0
220
0.0
230
-1.0
  0
SOLID
  5
9D5
  8
0
  6
CONTINUOUS
 10
840.2228805246732
 20
909.93298477469909
 30
0.0
 11
840.39325139322796
 21
908.6388895491865
 31
0.0
 12
850.05250965611845
 22
908.6388895491865
 32
0.0
 13
850.05250965611845
 23
908.6388895491865
 33
0.0
210
0.0
220
0.0
230
1.0
  0
SOLID
  5
9D6
  8
0
  6
CONTINUOUS
 10
-840.2228805246732
 20
909.93298477469909
 30
0.0
 11
-850.22288052467297
 21
909.93298477469909
 31
0.0
 12
-850.05250965611845
 22
908.6388895491865
 32
0.0
 13
-850.05250965611845
 23
908.6388895491865
 33
0.0
210
0.0
220
0.0
230
-1.0
  0
SOLID
  5
9D7
  8
0
  6
CONTINUOUS
 10
840.39325139322796
 20
908.6388895491865
 30
0.0
 11
840.89275350575133
 21
907.43298477469887
 31
0.0
 12
849.5530075435953
 22
907.43298477469887
 32
0.0
 13
849.5530075435953
 23
907.43298477469887
 33
0.0
210
0.0
220
0.0
230
1.0
  0
SOLID
  5
9D8
  8
0
  6
CONTINUOUS
 10
-840.39325139322796
 20
908.6388895491865
 30
0.0
 11
-850.05250965611845
 21
908.6388895491865
 31
0.0
 12
-849.5530075435953
 22
907.43298477469887
 32
0.0
 13
-849.5530075435953
 23
907.43298477469887
 33
0.0
210
0.0
220
0.0
230
-1.0
  0
SOLID
  5
9D9
  8
0
  6
CONTINUOUS
 10
840.89275350575133
 20
907.43298477469887
 30
0.0
 11
841.68734661874066
 21
906.39745086876644
 31
0.0
 12
848.75841443060585
 22
906.39745086876644
 32
0.0
 13
848.75841443060585
 23
906.39745086876644
 33
0.0
210
0.0
220
0.0
230
1.0
  0
SOLID
  5
9DA
  8
0
  6
CONTINUOUS
 10
-840.89275350575133
 20
907.43298477469887
 30
0.0
 11
-849.5530075435953
 21
907.43298477469887
 31
0.0
 12
-848.75841443060585
 22
906.39745086876644
 32
0.0
 13
-848.75841443060585
 23
906.39745086876644
 33
0.0
210
0.0
220
0.0
230
-1.0
  0
SOLID
  5
9DB
  8
0
  6
CONTINUOUS
 10
841.68734661874066
 20
906.39745086876644
 30
0.0
 11
842.72288052467366
 21
905.60285775577699
 31
0.0
 12
847.72288052467309
 22
905.60285775577699
 32
0.0
 13
847.72288052467309
 23
905.60285775577699
 33
0.0
210
0.0
220
0.0
230
1.0
  0
SOLID
  5
9DC
  8
0
  6
CONTINUOUS
 10
-841.68734661874066
 20
906.39745086876644
 30
0.0
 11
-848.75841443060585
 21
906.39745086876644
 31
0.0
 12
-847.72288052467309
 22
905.60285775577699
 32
0.0
 13
-847.72288052467309
 23
905.60285775577699
 33
0.0
210
0.0
220
0.0
230
-1.0
  0
SOLID
  5
9DD
  8
0
  6
CONTINUOUS
 10
-843.92878529916084
 20
905.10335564325385
 30
0.0
 11
-846.51697575018579
 21
905.10335564325385
 31
0.0
 12
-845.22288052467309
 22
904.93298477469887
 32
0.0
 13
-845.22288052467309
 23
904.93298477469887
 33
0.0
210
0.0
220
0.0
230
-1.0
  0
SOLID
  5
9DE
  8
0
  6
CONTINUOUS
 10
842.72288052467366
 20
905.60285775577699
 30
0.0
 11
843.92878529916084
 21
905.10335564325385
 31
0.0
 12
846.51697575018579
 22
905.10335564325385
 32
0.0
 13
846.51697575018579
 23
905.10335564325385
 33
0.0
210
0.0
220
0.0
230
1.0
  0
SOLID
  5
9DF
  8
0
  6
CONTINUOUS
 10
-842.72288052467366
 20
905.60285775577699
 30
0.0
 11
-847.72288052467309
 21
905.60285775577699
 31
0.0
 12
-846.51697575018579
 22
905.10335564325385
 32
0.0
 13
-846.51697575018579
 23
905.10335564325385
 33
0.0
210
0.0
220
0.0
230
-1.0
  0
LINE
  5
9E0
  8
0
  6
CONTINUOUS
 10
845.22288052467309
 20
914.93298477469898
 30
0.0
 11
843.92878529916084
 21
914.76261390614434
 31
0.0
  0
LINE
  5
9E1
  8
0
  6
CONTINUOUS
 10
846.51697575018579
 20
914.76261390614434
 30
0.0
 11
845.22288052467309
 21
914.93298477469898
 31
0.0
  0
LINE
  5
9E2
  8
0
  6
CONTINUOUS
 10
843.92878529916084
 20
914.76261390614434
 30
0.0
 11
842.72288052467366
 21
914.26311179362108
 31
0.0
  0
LINE
  5
9E3
  8
0
  6
CONTINUOUS
 10
846.51697575018579
 20
914.76261390614434
 30
0.0
 11
847.72288052467309
 21
914.26311179362108
 31
0.0
  0
LINE
  5
9E4
  8
0
  6
CONTINUOUS
 10
842.72288052467366
 20
914.26311179362108
 30
0.0
 11
841.68734661874066
 21
913.46851868063175
 31
0.0
  0
LINE
  5
9E5
  8
0
  6
CONTINUOUS
 10
847.72288052467309
 20
914.26311179362108
 30
0.0
 11
848.75841443060585
 21
913.46851868063175
 31
0.0
  0
LINE
  5
9E6
  8
0
  6
CONTINUOUS
 10
841.68734661874066
 20
913.46851868063175
 30
0.0
 11
840.89275350575133
 21
912.43298477469898
 31
0.0
  0
LINE
  5
9E7
  8
0
  6
CONTINUOUS
 10
848.75841443060585
 20
913.46851868063175
 30
0.0
 11
849.5530075435953
 21
912.43298477469898
 31
0.0
  0
LINE
  5
9E8
  8
0
  6
CONTINUOUS
 10
840.89275350575133
 20
912.43298477469898
 30
0.0
 11
840.39325139322796
 21
911.22708000021157
 31
0.0
  0
LINE
  5
9E9
  8
0
  6
CONTINUOUS
 10
849.5530075435953
 20
912.43298477469898
 30
0.0
 11
850.05250965611845
 21
911.22708000021157
 31
0.0
  0
LINE
  5
9EA
  8
0
  6
CONTINUOUS
 10
840.39325139322796
 20
911.22708000021157
 30
0.0
 11
840.2228805246732
 21
909.93298477469909
 31
0.0
  0
LINE
  5
9EB
  8
0
  6
CONTINUOUS
 10
850.05250965611845
 20
911.22708000021157
 30
0.0
 11
850.22288052467297
 21
909.93298477469909
 31
0.0
  0
LINE
  5
9EC
  8
0
  6
CONTINUOUS
 10
840.2228805246732
 20
909.93298477469909
 30
0.0
 11
840.39325139322796
 21
908.6388895491865
 31
0.0
  0
LINE
  5
9ED
  8
0
  6
CONTINUOUS
 10
850.22288052467297
 20
909.93298477469909
 30
0.0
 11
850.05250965611845
 21
908.6388895491865
 31
0.0
  0
LINE
  5
9EE
  8
0
  6
CONTINUOUS
 10
840.39325139322796
 20
908.6388895491865
 30
0.0
 11
840.89275350575133
 21
907.43298477469887
 31
0.0
  0
LINE
  5
9EF
  8
0
  6
CONTINUOUS
 10
850.05250965611845
 20
908.6388895491865
 30
0.0
 11
849.5530075435953
 21
907.43298477469887
 31
0.0
  0
LINE
  5
9F0
  8
0
  6
CONTINUOUS
 10
840.89275350575133
 20
907.43298477469887
 30
0.0
 11
841.68734661874066
 21
906.39745086876644
 31
0.0
  0
LINE
  5
9F1
  8
0
  6
CONTINUOUS
 10
849.5530075435953
 20
907.43298477469887
 30
0.0
 11
848.75841443060585
 21
906.39745086876644
 31
0.0
  0
LINE
  5
9F2
  8
0
  6
CONTINUOUS
 10
841.68734661874066
 20
906.39745086876644
 30
0.0
 11
842.72288052467366
 21
905.60285775577699
 31
0.0
  0
LINE
  5
9F3
  8
0
  6
CONTINUOUS
 10
848.75841443060585
 20
906.39745086876644
 30
0.0
 11
847.72288052467309
 21
905.60285775577699
 31
0.0
  0
LINE
  5
9F4
  8
0
  6
CONTINUOUS
 10
846.51697575018579
 20
905.10335564325385
 30
0.0
 11
845.22288052467309
 21
904.93298477469887
 31
0.0
  0
LINE
  5
9F5
  8
0
  6
CONTINUOUS
 10
845.22288052467309
 20
904.93298477469887
 30
0.0
 11
843.92878529916084
 21
905.10335564325385
 31
0.0
  0
LINE
  5
9F6
  8
0
  6
CONTINUOUS
 10
842.72288052467366
 20
905.60285775577699
 30
0.0
 11
843.92878529916084
 21
905.10335564325385
 31
0.0
  0
LINE
  5
9F7
  8
0
  6
CONTINUOUS
 10
847.72288052467309
 20
905.60285775577699
 30
0.0
 11
846.51697575018579
 21
905.10335564325385
 31
0.0
  0
ENDBLK
  5
9F9
  8
0
  0
BLOCK
  8
0
  2
*U17
 70
     1
 10
0.0
 20
0.0
 30
0.0
  3
*U17
  1

  0
SOLID
  5
9FB
  8
0
  6
CONTINUOUS
 10
1162.83257175012
 20
836.38171451871847
 30
0.0
 11
1161.5384765246081
 21
836.21134365016394
 31
0.0
 12
1164.126666975633
 22
836.21134365016394
 32
0.0
 13
1164.126666975633
 23
836.21134365016394
 33
0.0
210
0.0
220
0.0
230
1.0
  0
SOLID
  5
9FC
  8
0
  6
CONTINUOUS
 10
1161.5384765246081
 20
836.21134365016394
 30
0.0
 11
1160.33257175012
 21
835.71184153764057
 31
0.0
 12
1165.33257175012
 22
835.71184153764057
 32
0.0
 13
1165.33257175012
 23
835.71184153764057
 33
0.0
210
0.0
220
0.0
230
1.0
  0
SOLID
  5
9FD
  8
0
  6
CONTINUOUS
 10
-1161.5384765246081
 20
836.21134365016394
 30
0.0
 11
-1164.126666975633
 21
836.21134365016394
 31
0.0
 12
-1165.33257175012
 22
835.71184153764057
 32
0.0
 13
-1165.33257175012
 23
835.71184153764057
 33
0.0
210
0.0
220
0.0
230
-1.0
  0
SOLID
  5
9FE
  8
0
  6
CONTINUOUS
 10
1160.33257175012
 20
835.71184153764057
 30
0.0
 11
1159.2970378441869
 21
834.91724842465101
 31
0.0
 12
1166.3681056560531
 22
834.91724842465101
 32
0.0
 13
1166.3681056560531
 23
834.91724842465101
 33
0.0
210
0.0
220
0.0
230
1.0
  0
SOLID
  5
9FF
  8
0
  6
CONTINUOUS
 10
-1160.33257175012
 20
835.71184153764057
 30
0.0
 11
-1165.33257175012
 21
835.71184153764057
 31
0.0
 12
-1166.3681056560531
 22
834.91724842465101
 32
0.0
 13
-1166.3681056560531
 23
834.91724842465101
 33
0.0
210
0.0
220
0.0
230
-1.0
  0
SOLID
  5
A00
  8
0
  6
CONTINUOUS
 10
1159.2970378441869
 20
834.91724842465101
 30
0.0
 11
1158.502444731198
 21
833.88171451871847
 31
0.0
 12
1167.162698769042
 22
833.88171451871847
 32
0.0
 13
1167.162698769042
 23
833.88171451871847
 33
0.0
210
0.0
220
0.0
230
1.0
  0
SOLID
  5
A01
  8
0
  6
CONTINUOUS
 10
-1159.2970378441869
 20
834.91724842465101
 30
0.0
 11
-1166.3681056560531
 21
834.91724842465101
 31
0.0
 12
-1167.162698769042
 22
833.88171451871847
 32
0.0
 13
-1167.162698769042
 23
833.88171451871847
 33
0.0
210
0.0
220
0.0
230
-1.0
  0
SOLID
  5
A02
  8
0
  6
CONTINUOUS
 10
1158.502444731198
 20
833.88171451871847
 30
0.0
 11
1158.002942618675
 21
832.67580974423095
 31
0.0
 12
1167.6622008815659
 22
832.67580974423095
 32
0.0
 13
1167.6622008815659
 23
832.67580974423095
 33
0.0
210
0.0
220
0.0
230
1.0
  0
SOLID
  5
A03
  8
0
  6
CONTINUOUS
 10
-1158.502444731198
 20
833.88171451871847
 30
0.0
 11
-1167.162698769042
 21
833.88171451871847
 31
0.0
 12
-1167.6622008815659
 22
832.67580974423095
 32
0.0
 13
-1167.6622008815659
 23
832.67580974423095
 33
0.0
210
0.0
220
0.0
230
-1.0
  0
SOLID
  5
A04
  8
0
  6
CONTINUOUS
 10
1158.002942618675
 20
832.67580974423095
 30
0.0
 11
1157.83257175012
 21
831.38171451871847
 31
0.0
 12
1167.8325717501209
 22
831.38171451871847
 32
0.0
 13
1167.8325717501209
 23
831.38171451871847
 33
0.0
210
0.0
220
0.0
230
1.0
  0
SOLID
  5
A05
  8
0
  6
CONTINUOUS
 10
-1158.002942618675
 20
832.67580974423095
 30
0.0
 11
-1167.6622008815659
 21
832.67580974423095
 31
0.0
 12
-1167.8325717501209
 22
831.38171451871847
 32
0.0
 13
-1167.8325717501209
 23
831.38171451871847
 33
0.0
210
0.0
220
0.0
230
-1.0
  0
SOLID
  5
A06
  8
0
  6
CONTINUOUS
 10
1157.83257175012
 20
831.38171451871847
 30
0.0
 11
1158.002942618675
 21
830.08761929320576
 31
0.0
 12
1167.6622008815659
 22
830.08761929320576
 32
0.0
 13
1167.6622008815659
 23
830.08761929320576
 33
0.0
210
0.0
220
0.0
230
1.0
  0
SOLID
  5
A07
  8
0
  6
CONTINUOUS
 10
-1157.83257175012
 20
831.38171451871847
 30
0.0
 11
-1167.8325717501209
 21
831.38171451871847
 31
0.0
 12
-1167.6622008815659
 22
830.08761929320576
 32
0.0
 13
-1167.6622008815659
 23
830.08761929320576
 33
0.0
210
0.0
220
0.0
230
-1.0
  0
SOLID
  5
A08
  8
0
  6
CONTINUOUS
 10
1158.002942618675
 20
830.08761929320576
 30
0.0
 11
1158.502444731198
 21
828.88171451871835
 31
0.0
 12
1167.162698769042
 22
828.88171451871835
 32
0.0
 13
1167.162698769042
 23
828.88171451871835
 33
0.0
210
0.0
220
0.0
230
1.0
  0
SOLID
  5
A09
  8
0
  6
CONTINUOUS
 10
-1158.002942618675
 20
830.08761929320576
 30
0.0
 11
-1167.6622008815659
 21
830.08761929320576
 31
0.0
 12
-1167.162698769042
 22
828.88171451871835
 32
0.0
 13
-1167.162698769042
 23
828.88171451871835
 33
0.0
210
0.0
220
0.0
230
-1.0
  0
SOLID
  5
A0A
  8
0
  6
CONTINUOUS
 10
1158.502444731198
 20
828.88171451871835
 30
0.0
 11
1159.2970378441869
 21
827.84618061278559
 31
0.0
 12
1166.3681056560531
 22
827.84618061278559
 32
0.0
 13
1166.3681056560531
 23
827.84618061278559
 33
0.0
210
0.0
220
0.0
230
1.0
  0
SOLID
  5
A0B
  8
0
  6
CONTINUOUS
 10
-1158.502444731198
 20
828.88171451871835
 30
0.0
 11
-1167.162698769042
 21
828.88171451871835
 31
0.0
 12
-1166.3681056560531
 22
827.84618061278559
 32
0.0
 13
-1166.3681056560531
 23
827.84618061278559
 33
0.0
210
0.0
220
0.0
230
-1.0
  0
SOLID
  5
A0C
  8
0
  6
CONTINUOUS
 10
1159.2970378441869
 20
827.84618061278559
 30
0.0
 11
1160.33257175012
 21
827.05158749979614
 31
0.0
 12
1165.33257175012
 22
827.05158749979614
 32
0.0
 13
1165.33257175012
 23
827.05158749979614
 33
0.0
210
0.0
220
0.0
230
1.0
  0
SOLID
  5
A0D
  8
0
  6
CONTINUOUS
 10
-1159.2970378441869
 20
827.84618061278559
 30
0.0
 11
-1166.3681056560531
 21
827.84618061278559
 31
0.0
 12
-1165.33257175012
 22
827.05158749979614
 32
0.0
 13
-1165.33257175012
 23
827.05158749979614
 33
0.0
210
0.0
220
0.0
230
-1.0
  0
SOLID
  5
A0E
  8
0
  6
CONTINUOUS
 10
-1161.5384765246081
 20
826.55208538727288
 30
0.0
 11
-1164.126666975633
 21
826.55208538727288
 31
0.0
 12
-1162.83257175012
 22
826.38171451871835
 32
0.0
 13
-1162.83257175012
 23
826.38171451871835
 33
0.0
210
0.0
220
0.0
230
-1.0
  0
SOLID
  5
A0F
  8
0
  6
CONTINUOUS
 10
1160.33257175012
 20
827.05158749979614
 30
0.0
 11
1161.5384765246081
 21
826.55208538727288
 31
0.0
 12
1164.126666975633
 22
826.55208538727288
 32
0.0
 13
1164.126666975633
 23
826.55208538727288
 33
0.0
210
0.0
220
0.0
230
1.0
  0
SOLID
  5
A10
  8
0
  6
CONTINUOUS
 10
-1160.33257175012
 20
827.05158749979614
 30
0.0
 11
-1165.33257175012
 21
827.05158749979614
 31
0.0
 12
-1164.126666975633
 22
826.55208538727288
 32
0.0
 13
-1164.126666975633
 23
826.55208538727288
 33
0.0
210
0.0
220
0.0
230
-1.0
  0
LINE
  5
A11
  8
0
  6
CONTINUOUS
 10
1162.83257175012
 20
836.38171451871847
 30
0.0
 11
1161.5384765246081
 21
836.21134365016394
 31
0.0
  0
LINE
  5
A12
  8
0
  6
CONTINUOUS
 10
1164.126666975633
 20
836.21134365016394
 30
0.0
 11
1162.83257175012
 21
836.38171451871847
 31
0.0
  0
LINE
  5
A13
  8
0
  6
CONTINUOUS
 10
1161.5384765246081
 20
836.21134365016394
 30
0.0
 11
1160.33257175012
 21
835.71184153764057
 31
0.0
  0
LINE
  5
A14
  8
0
  6
CONTINUOUS
 10
1164.126666975633
 20
836.21134365016394
 30
0.0
 11
1165.33257175012
 21
835.71184153764057
 31
0.0
  0
LINE
  5
A15
  8
0
  6
CONTINUOUS
 10
1160.33257175012
 20
835.71184153764057
 30
0.0
 11
1159.2970378441869
 21
834.91724842465101
 31
0.0
  0
LINE
  5
A16
  8
0
  6
CONTINUOUS
 10
1165.33257175012
 20
835.71184153764057
 30
0.0
 11
1166.3681056560531
 21
834.91724842465101
 31
0.0
  0
LINE
  5
A17
  8
0
  6
CONTINUOUS
 10
1159.2970378441869
 20
834.91724842465101
 30
0.0
 11
1158.502444731198
 21
833.88171451871847
 31
0.0
  0
LINE
  5
A18
  8
0
  6
CONTINUOUS
 10
1166.3681056560531
 20
834.91724842465101
 30
0.0
 11
1167.162698769042
 21
833.88171451871847
 31
0.0
  0
LINE
  5
A19
  8
0
  6
CONTINUOUS
 10
1158.502444731198
 20
833.88171451871847
 30
0.0
 11
1158.002942618675
 21
832.67580974423095
 31
0.0
  0
LINE
  5
A1A
  8
0
  6
CONTINUOUS
 10
1167.162698769042
 20
833.88171451871847
 30
0.0
 11
1167.6622008815659
 21
832.67580974423095
 31
0.0
  0
LINE
  5
A1B
  8
0
  6
CONTINUOUS
 10
1158.002942618675
 20
832.67580974423095
 30
0.0
 11
1157.83257175012
 21
831.38171451871847
 31
0.0
  0
LINE
  5
A1C
  8
0
  6
CONTINUOUS
 10
1167.6622008815659
 20
832.67580974423095
 30
0.0
 11
1167.8325717501209
 21
831.38171451871847
 31
0.0
  0
LINE
  5
A1D
  8
0
  6
CONTINUOUS
 10
1157.83257175012
 20
831.38171451871847
 30
0.0
 11
1158.002942618675
 21
830.08761929320576
 31
0.0
  0
LINE
  5
A1E
  8
0
  6
CONTINUOUS
 10
1167.8325717501209
 20
831.38171451871847
 30
0.0
 11
1167.6622008815659
 21
830.08761929320576
 31
0.0
  0
LINE
  5
A1F
  8
0
  6
CONTINUOUS
 10
1158.002942618675
 20
830.08761929320576
 30
0.0
 11
1158.502444731198
 21
828.88171451871835
 31
0.0
  0
LINE
  5
A20
  8
0
  6
CONTINUOUS
 10
1167.6622008815659
 20
830.08761929320576
 30
0.0
 11
1167.162698769042
 21
828.88171451871835
 31
0.0
  0
LINE
  5
A21
  8
0
  6
CONTINUOUS
 10
1158.502444731198
 20
828.88171451871835
 30
0.0
 11
1159.2970378441869
 21
827.84618061278559
 31
0.0
  0
LINE
  5
A22
  8
0
  6
CONTINUOUS
 10
1167.162698769042
 20
828.88171451871835
 30
0.0
 11
1166.3681056560531
 21
827.84618061278559
 31
0.0
  0
LINE
  5
A23
  8
0
  6
CONTINUOUS
 10
1159.2970378441869
 20
827.84618061278559
 30
0.0
 11
1160.33257175012
 21
827.05158749979614
 31
0.0
  0
LINE
  5
A24
  8
0
  6
CONTINUOUS
 10
1166.3681056560531
 20
827.84618061278559
 30
0.0
 11
1165.33257175012
 21
827.05158749979614
 31
0.0
  0
LINE
  5
A25
  8
0
  6
CONTINUOUS
 10
1164.126666975633
 20
826.55208538727288
 30
0.0
 11
1162.83257175012
 21
826.38171451871835
 31
0.0
  0
LINE
  5
A26
  8
0
  6
CONTINUOUS
 10
1162.83257175012
 20
826.38171451871835
 30
0.0
 11
1161.5384765246081
 21
826.55208538727288
 31
0.0
  0
LINE
  5
A27
  8
0
  6
CONTINUOUS
 10
1160.33257175012
 20
827.05158749979614
 30
0.0
 11
1161.5384765246081
 21
826.55208538727288
 31
0.0
  0
LINE
  5
A28
  8
0
  6
CONTINUOUS
 10
1165.33257175012
 20
827.05158749979614
 30
0.0
 11
1164.126666975633
 21
826.55208538727288
 31
0.0
  0
ENDBLK
  5
A2A
  8
0
  0
BLOCK
  8
0
  2
*U18
 70
     1
 10
0.0
 20
0.0
 30
0.0
  3
*U18
  1

  0
SOLID
  5
A2C
  8
0
  6
CONTINUOUS
 10
341.59534287577787
 20
328.55011492239868
 30
0.0
 11
340.30124765026522
 21
328.37974405384409
 31
0.0
 12
342.88943810129041
 22
328.37974405384409
 32
0.0
 13
342.88943810129041
 23
328.37974405384409
 33
0.0
210
0.0
220
0.0
230
1.0
  0
SOLID
  5
A2D
  8
0
  6
CONTINUOUS
 10
340.30124765026522
 20
328.37974405384409
 30
0.0
 11
339.09534287577719
 21
327.88024194132089
 31
0.0
 12
344.09534287577782
 22
327.88024194132089
 32
0.0
 13
344.09534287577782
 23
327.88024194132089
 33
0.0
210
0.0
220
0.0
230
1.0
  0
SOLID
  5
A2E
  8
0
  6
CONTINUOUS
 10
-340.30124765026522
 20
328.37974405384409
 30
0.0
 11
-342.88943810129041
 21
328.37974405384409
 31
0.0
 12
-344.09534287577782
 22
327.88024194132089
 32
0.0
 13
-344.09534287577782
 23
327.88024194132089
 33
0.0
210
0.0
220
0.0
230
-1.0
  0
SOLID
  5
A2F
  8
0
  6
CONTINUOUS
 10
339.09534287577742
 20
327.88024194132089
 30
0.0
 11
338.05980896984511
 21
327.0856488283315
 31
0.0
 12
345.13087678171053
 22
327.0856488283315
 32
0.0
 13
345.13087678171053
 23
327.0856488283315
 33
0.0
210
0.0
220
0.0
230
1.0
  0
SOLID
  5
A30
  8
0
  6
CONTINUOUS
 10
-339.09534287577742
 20
327.88024194132089
 30
0.0
 11
-344.09534287577782
 21
327.88024194132089
 31
0.0
 12
-345.13087678171053
 22
327.0856488283315
 32
0.0
 13
-345.13087678171053
 23
327.0856488283315
 33
0.0
210
0.0
220
0.0
230
-1.0
  0
SOLID
  5
A31
  8
0
  6
CONTINUOUS
 10
338.05980896984511
 20
327.0856488283315
 30
0.0
 11
337.26521585685572
 21
326.05011492239879
 31
0.0
 12
345.92546989469992
 22
326.05011492239879
 32
0.0
 13
345.92546989469992
 23
326.05011492239879
 33
0.0
210
0.0
220
0.0
230
1.0
  0
SOLID
  5
A32
  8
0
  6
CONTINUOUS
 10
-338.05980896984511
 20
327.0856488283315
 30
0.0
 11
-345.13087678171053
 21
327.0856488283315
 31
0.0
 12
-345.92546989469992
 22
326.05011492239879
 32
0.0
 13
-345.92546989469992
 23
326.05011492239879
 33
0.0
210
0.0
220
0.0
230
-1.0
  0
SOLID
  5
A33
  8
0
  6
CONTINUOUS
 10
337.26521585685572
 20
326.05011492239879
 30
0.0
 11
336.76571374433269
 21
324.84421014791138
 31
0.0
 12
346.42497200722318
 22
324.84421014791138
 32
0.0
 13
346.42497200722318
 23
324.84421014791138
 33
0.0
210
0.0
220
0.0
230
1.0
  0
SOLID
  5
A34
  8
0
  6
CONTINUOUS
 10
-337.26521585685572
 20
326.05011492239879
 30
0.0
 11
-345.92546989469992
 21
326.05011492239879
 31
0.0
 12
-346.42497200722318
 22
324.84421014791138
 32
0.0
 13
-346.42497200722318
 23
324.84421014791138
 33
0.0
210
0.0
220
0.0
230
-1.0
  0
SOLID
  5
A35
  8
0
  6
CONTINUOUS
 10
336.76571374433269
 20
324.84421014791138
 30
0.0
 11
336.5953428757777
 21
323.55011492239879
 31
0.0
 12
346.59534287577787
 22
323.55011492239879
 32
0.0
 13
346.59534287577787
 23
323.55011492239879
 33
0.0
210
0.0
220
0.0
230
1.0
  0
SOLID
  5
A36
  8
0
  6
CONTINUOUS
 10
-336.76571374433269
 20
324.84421014791138
 30
0.0
 11
-346.42497200722318
 21
324.84421014791138
 31
0.0
 12
-346.59534287577787
 22
323.55011492239879
 32
0.0
 13
-346.59534287577787
 23
323.55011492239879
 33
0.0
210
0.0
220
0.0
230
-1.0
  0
SOLID
  5
A37
  8
0
  6
CONTINUOUS
 10
336.5953428757777
 20
323.55011492239879
 30
0.0
 11
336.76571374433269
 21
322.25601969688591
 31
0.0
 12
346.42497200722318
 22
322.25601969688591
 32
0.0
 13
346.42497200722318
 23
322.25601969688591
 33
0.0
210
0.0
220
0.0
230
1.0
  0
SOLID
  5
A38
  8
0
  6
CONTINUOUS
 10
-336.5953428757777
 20
323.55011492239879
 30
0.0
 11
-346.59534287577787
 21
323.55011492239879
 31
0.0
 12
-346.42497200722318
 22
322.25601969688591
 32
0.0
 13
-346.42497200722318
 23
322.25601969688591
 33
0.0
210
0.0
220
0.0
230
-1.0
  0
SOLID
  5
A39
  8
0
  6
CONTINUOUS
 10
336.7657137443328
 20
322.25601969688591
 30
0.0
 11
337.26521585685578
 21
321.05011492239862
 31
0.0
 12
345.92546989469992
 22
321.05011492239862
 32
0.0
 13
345.92546989469992
 23
321.05011492239862
 33
0.0
210
0.0
220
0.0
230
1.0
  0
SOLID
  5
A3A
  8
0
  6
CONTINUOUS
 10
-336.7657137443328
 20
322.25601969688591
 30
0.0
 11
-346.42497200722318
 21
322.25601969688591
 31
0.0
 12
-345.92546989469992
 22
321.05011492239862
 32
0.0
 13
-345.92546989469992
 23
321.05011492239862
 33
0.0
210
0.0
220
0.0
230
-1.0
  0
SOLID
  5
A3B
  8
0
  6
CONTINUOUS
 10
337.26521585685589
 20
321.05011492239862
 30
0.0
 11
338.05980896984511
 21
320.01458101646608
 31
0.0
 12
345.13087678171053
 22
320.01458101646608
 32
0.0
 13
345.13087678171053
 23
320.01458101646608
 33
0.0
210
0.0
220
0.0
230
1.0
  0
SOLID
  5
A3C
  8
0
  6
CONTINUOUS
 10
-337.26521585685589
 20
321.05011492239862
 30
0.0
 11
-345.92546989469992
 21
321.05011492239862
 31
0.0
 12
-345.13087678171053
 22
320.01458101646608
 32
0.0
 13
-345.13087678171053
 23
320.01458101646608
 33
0.0
210
0.0
220
0.0
230
-1.0
  0
SOLID
  5
A3D
  8
0
  6
CONTINUOUS
 10
338.05980896984511
 20
320.01458101646608
 30
0.0
 11
339.09534287577782
 21
319.21998790347641
 31
0.0
 12
344.09534287577782
 22
319.21998790347641
 32
0.0
 13
344.09534287577782
 23
319.21998790347641
 33
0.0
210
0.0
220
0.0
230
1.0
  0
SOLID
  5
A3E
  8
0
  6
CONTINUOUS
 10
-338.05980896984511
 20
320.01458101646608
 30
0.0
 11
-345.13087678171053
 21
320.01458101646608
 31
0.0
 12
-344.09534287577782
 22
319.21998790347641
 32
0.0
 13
-344.09534287577782
 23
319.21998790347641
 33
0.0
210
0.0
220
0.0
230
-1.0
  0
SOLID
  5
A3F
  8
0
  6
CONTINUOUS
 10
-340.30124765026522
 20
318.72048579095349
 30
0.0
 11
-342.88943810129041
 21
318.72048579095349
 31
0.0
 12
-341.59534287577787
 22
318.5501149223989
 32
0.0
 13
-341.59534287577787
 23
318.5501149223989
 33
0.0
210
0.0
220
0.0
230
-1.0
  0
SOLID
  5
A40
  8
0
  6
CONTINUOUS
 10
339.09534287577782
 20
319.21998790347641
 30
0.0
 11
340.30124765026522
 21
318.72048579095349
 31
0.0
 12
342.88943810129041
 22
318.72048579095349
 32
0.0
 13
342.88943810129041
 23
318.72048579095349
 33
0.0
210
0.0
220
0.0
230
1.0
  0
SOLID
  5
A41
  8
0
  6
CONTINUOUS
 10
-339.09534287577782
 20
319.21998790347641
 30
0.0
 11
-344.09534287577782
 21
319.21998790347641
 31
0.0
 12
-342.88943810129041
 22
318.72048579095349
 32
0.0
 13
-342.88943810129041
 23
318.72048579095349
 33
0.0
210
0.0
220
0.0
230
-1.0
  0
LINE
  5
A42
  8
0
  6
CONTINUOUS
 10
341.59534287577787
 20
328.55011492239868
 30
0.0
 11
340.30124765026522
 21
328.37974405384409
 31
0.0
  0
LINE
  5
A43
  8
0
  6
CONTINUOUS
 10
342.88943810129041
 20
328.37974405384409
 30
0.0
 11
341.59534287577787
 21
328.55011492239868
 31
0.0
  0
LINE
  5
A44
  8
0
  6
CONTINUOUS
 10
340.30124765026522
 20
328.37974405384409
 30
0.0
 11
339.09534287577719
 21
327.88024194132089
 31
0.0
  0
LINE
  5
A45
  8
0
  6
CONTINUOUS
 10
342.88943810129041
 20
328.37974405384409
 30
0.0
 11
344.09534287577782
 21
327.88024194132089
 31
0.0
  0
LINE
  5
A46
  8
0
  6
CONTINUOUS
 10
339.09534287577742
 20
327.88024194132089
 30
0.0
 11
338.05980896984511
 21
327.0856488283315
 31
0.0
  0
LINE
  5
A47
  8
0
  6
CONTINUOUS
 10
344.09534287577782
 20
327.88024194132089
 30
0.0
 11
345.13087678171053
 21
327.0856488283315
 31
0.0
  0
LINE
  5
A48
  8
0
  6
CONTINUOUS
 10
338.05980896984511
 20
327.0856488283315
 30
0.0
 11
337.26521585685572
 21
326.05011492239879
 31
0.0
  0
LINE
  5
A49
  8
0
  6
CONTINUOUS
 10
345.13087678171053
 20
327.0856488283315
 30
0.0
 11
345.92546989469992
 21
326.05011492239879
 31
0.0
  0
LINE
  5
A4A
  8
0
  6
CONTINUOUS
 10
337.26521585685572
 20
326.05011492239879
 30
0.0
 11
336.76571374433269
 21
324.84421014791138
 31
0.0
  0
LINE
  5
A4B
  8
0
  6
CONTINUOUS
 10
345.92546989469992
 20
326.05011492239879
 30
0.0
 11
346.42497200722318
 21
324.84421014791138
 31
0.0
  0
LINE
  5
A4C
  8
0
  6
CONTINUOUS
 10
336.76571374433269
 20
324.84421014791138
 30
0.0
 11
336.5953428757777
 21
323.55011492239879
 31
0.0
  0
LINE
  5
A4D
  8
0
  6
CONTINUOUS
 10
346.42497200722318
 20
324.84421014791138
 30
0.0
 11
346.59534287577787
 21
323.55011492239879
 31
0.0
  0
LINE
  5
A4E
  8
0
  6
CONTINUOUS
 10
336.5953428757777
 20
323.55011492239879
 30
0.0
 11
336.76571374433269
 21
322.25601969688591
 31
0.0
  0
LINE
  5
A4F
  8
0
  6
CONTINUOUS
 10
346.59534287577787
 20
323.55011492239879
 30
0.0
 11
346.42497200722318
 21
322.25601969688591
 31
0.0
  0
LINE
  5
A50
  8
0
  6
CONTINUOUS
 10
336.7657137443328
 20
322.25601969688591
 30
0.0
 11
337.26521585685578
 21
321.05011492239862
 31
0.0
  0
LINE
  5
A51
  8
0
  6
CONTINUOUS
 10
346.42497200722318
 20
322.25601969688591
 30
0.0
 11
345.92546989469992
 21
321.05011492239862
 31
0.0
  0
LINE
  5
A52
  8
0
  6
CONTINUOUS
 10
337.26521585685589
 20
321.05011492239862
 30
0.0
 11
338.05980896984511
 21
320.01458101646608
 31
0.0
  0
LINE
  5
A53
  8
0
  6
CONTINUOUS
 10
345.92546989469992
 20
321.05011492239862
 30
0.0
 11
345.13087678171053
 21
320.01458101646608
 31
0.0
  0
LINE
  5
A54
  8
0
  6
CONTINUOUS
 10
338.05980896984511
 20
320.01458101646608
 30
0.0
 11
339.09534287577782
 21
319.21998790347641
 31
0.0
  0
LINE
  5
A55
  8
0
  6
CONTINUOUS
 10
345.13087678171053
 20
320.01458101646608
 30
0.0
 11
344.09534287577782
 21
319.21998790347641
 31
0.0
  0
LINE
  5
A56
  8
0
  6
CONTINUOUS
 10
342.88943810129041
 20
318.72048579095349
 30
0.0
 11
341.59534287577787
 21
318.5501149223989
 31
0.0
  0
LINE
  5
A57
  8
0
  6
CONTINUOUS
 10
341.59534287577787
 20
318.5501149223989
 30
0.0
 11
340.30124765026522
 21
318.72048579095349
 31
0.0
  0
LINE
  5
A58
  8
0
  6
CONTINUOUS
 10
339.09534287577782
 20
319.21998790347641
 30
0.0
 11
340.30124765026522
 21
318.72048579095349
 31
0.0
  0
LINE
  5
A59
  8
0
  6
CONTINUOUS
 10
344.09534287577782
 20
319.21998790347641
 30
0.0
 11
342.88943810129041
 21
318.72048579095349
 31
0.0
  0
ENDBLK
  5
A5B
  8
0
  0
BLOCK
  8
0
  2
*U19
 70
     1
 10
0.0
 20
0.0
 30
0.0
  3
*U19
  1

  0
SOLID
  5
A5D
  8
0
  6
CONTINUOUS
 10
575.58178472362351
 20
746.37121894492179
 30
0.0
 11
574.28768949810922
 21
746.20084807636704
 31
0.0
 12
576.87587994913633
 22
746.20084807636704
 32
0.0
 13
576.87587994913633
 23
746.20084807636704
 33
0.0
210
0.0
220
0.0
230
1.0
  0
SOLID
  5
A5E
  8
0
  6
CONTINUOUS
 10
574.28768949811035
 20
746.20084807636704
 30
0.0
 11
573.08178472362272
 21
745.70134596384389
 31
0.0
 12
578.08178472362374
 22
745.70134596384389
 32
0.0
 13
578.08178472362374
 23
745.70134596384389
 33
0.0
210
0.0
220
0.0
230
1.0
  0
SOLID
  5
A5F
  8
0
  6
CONTINUOUS
 10
-574.28768949811035
 20
746.20084807636704
 30
0.0
 11
-576.87587994913633
 21
746.20084807636704
 31
0.0
 12
-578.08178472362374
 22
745.70134596384389
 32
0.0
 13
-578.08178472362374
 23
745.70134596384389
 33
0.0
210
0.0
220
0.0
230
-1.0
  0
SOLID
  5
A60
  8
0
  6
CONTINUOUS
 10
573.08178472362295
 20
745.70134596384389
 30
0.0
 11
572.04625081769075
 21
744.90675285085445
 31
0.0
 12
579.11731862955639
 22
744.90675285085445
 32
0.0
 13
579.11731862955639
 23
744.90675285085445
 33
0.0
210
0.0
220
0.0
230
1.0
  0
SOLID
  5
A61
  8
0
  6
CONTINUOUS
 10
-573.08178472362295
 20
745.70134596384389
 30
0.0
 11
-578.08178472362374
 21
745.70134596384389
 31
0.0
 12
-579.11731862955639
 22
744.90675285085445
 32
0.0
 13
-579.11731862955639
 23
744.90675285085445
 33
0.0
210
0.0
220
0.0
230
-1.0
  0
SOLID
  5
A62
  8
0
  6
CONTINUOUS
 10
572.04625081769075
 20
744.90675285085445
 30
0.0
 11
571.25165770470096
 21
743.87121894492168
 31
0.0
 12
579.91191174254584
 22
743.87121894492168
 32
0.0
 13
579.91191174254584
 23
743.87121894492168
 33
0.0
210
0.0
220
0.0
230
1.0
  0
SOLID
  5
A63
  8
0
  6
CONTINUOUS
 10
-572.04625081769075
 20
744.90675285085445
 30
0.0
 11
-579.11731862955639
 21
744.90675285085445
 31
0.0
 12
-579.91191174254584
 22
743.87121894492168
 32
0.0
 13
-579.91191174254584
 23
743.87121894492168
 33
0.0
210
0.0
220
0.0
230
-1.0
  0
SOLID
  5
A64
  8
0
  6
CONTINUOUS
 10
571.25165770470107
 20
743.87121894492168
 30
0.0
 11
570.75215559217816
 21
742.66531417043439
 31
0.0
 12
580.41141385506899
 22
742.66531417043439
 32
0.0
 13
580.41141385506899
 23
742.66531417043439
 33
0.0
  0
SOLID
  5
A65
  8
0
  6
CONTINUOUS
 10
-571.25165770470107
 20
743.87121894492168
 30
0.0
 11
-579.91191174254584
 21
743.87121894492168
 31
0.0
 12
-580.41141385506899
 22
742.66531417043439
 32
0.0
 13
-580.41141385506899
 23
742.66531417043439
 33
0.0
210
0.0
220
0.0
230
-1.0
  0
SOLID
  5
A66
  8
0
  6
CONTINUOUS
 10
570.75215559217816
 20
742.66531417043439
 30
0.0
 11
570.58178472362351
 21
741.37121894492179
 31
0.0
 12
580.58178472362363
 22
741.37121894492179
 32
0.0
 13
580.58178472362363
 23
741.37121894492179
 33
0.0
210
0.0
220
0.0
230
1.0
  0
SOLID
  5
A67
  8
0
  6
CONTINUOUS
 10
-570.75215559217816
 20
742.66531417043439
 30
0.0
 11
-580.41141385506899
 21
742.66531417043439
 31
0.0
 12
-580.58178472362363
 22
741.37121894492179
 32
0.0
 13
-580.58178472362363
 23
741.37121894492179
 33
0.0
210
0.0
220
0.0
230
-1.0
  0
SOLID
  5
A68
  8
0
  6
CONTINUOUS
 10
570.58178472362351
 20
741.37121894492179
 30
0.0
 11
570.75215559217816
 21
740.0771237194092
 31
0.0
 12
580.41141385506899
 22
740.0771237194092
 32
0.0
 13
580.41141385506899
 23
740.0771237194092
 33
0.0
210
0.0
220
0.0
230
1.0
  0
SOLID
  5
A69
  8
0
  6
CONTINUOUS
 10
-570.58178472362351
 20
741.37121894492179
 30
0.0
 11
-580.58178472362363
 21
741.37121894492179
 31
0.0
 12
-580.41141385506899
 22
740.0771237194092
 32
0.0
 13
-580.41141385506899
 23
740.0771237194092
 33
0.0
210
0.0
220
0.0
230
-1.0
  0
SOLID
  5
A6A
  8
0
  6
CONTINUOUS
 10
570.75215559217816
 20
740.0771237194092
 30
0.0
 11
571.25165770470119
 21
738.87121894492179
 31
0.0
 12
579.91191174254584
 22
738.87121894492179
 32
0.0
 13
579.91191174254584
 23
738.87121894492179
 33
0.0
210
0.0
220
0.0
230
1.0
  0
SOLID
  5
A6B
  8
0
  6
CONTINUOUS
 10
-570.75215559217816
 20
740.0771237194092
 30
0.0
 11
-580.41141385506899
 21
740.0771237194092
 31
0.0
 12
-579.91191174254584
 22
738.87121894492179
 32
0.0
 13
-579.91191174254584
 23
738.87121894492179
 33
0.0
210
0.0
220
0.0
230
-1.0
  0
SOLID
  5
A6C
  8
0
  6
CONTINUOUS
 10
571.25165770470119
 20
738.87121894492179
 30
0.0
 11
572.04625081769075
 21
737.83568503898914
 31
0.0
 12
579.11731862955639
 22
737.83568503898914
 32
0.0
 13
579.11731862955639
 23
737.83568503898914
 33
0.0
210
0.0
220
0.0
230
1.0
  0
SOLID
  5
A6D
  8
0
  6
CONTINUOUS
 10
-571.25165770470119
 20
738.87121894492179
 30
0.0
 11
-579.91191174254584
 21
738.87121894492179
 31
0.0
 12
-579.11731862955639
 22
737.83568503898914
 32
0.0
 13
-579.11731862955639
 23
737.83568503898914
 33
0.0
210
0.0
220
0.0
230
-1.0
  0
SOLID
  5
A6E
  8
0
  6
CONTINUOUS
 10
572.04625081769075
 20
737.83568503898914
 30
0.0
 11
573.0817847236234
 21
737.04109192599958
 31
0.0
 12
578.08178472362374
 22
737.04109192599958
 32
0.0
 13
578.08178472362374
 23
737.04109192599958
 33
0.0
210
0.0
220
0.0
230
1.0
  0
SOLID
  5
A6F
  8
0
  6
CONTINUOUS
 10
-572.04625081769075
 20
737.83568503898914
 30
0.0
 11
-579.11731862955639
 21
737.83568503898914
 31
0.0
 12
-578.08178472362374
 22
737.04109192599958
 32
0.0
 13
-578.08178472362374
 23
737.04109192599958
 33
0.0
210
0.0
220
0.0
230
-1.0
  0
SOLID
  5
A70
  8
0
  6
CONTINUOUS
 10
-574.28768949811183
 20
736.54158981347643
 30
0.0
 11
-576.87587994913633
 21
736.54158981347643
 31
0.0
 12
-575.58178472362351
 22
736.37121894492191
 32
0.0
 13
-575.58178472362351
 23
736.37121894492191
 33
0.0
210
0.0
220
0.0
230
-1.0
  0
SOLID
  5
A71
  8
0
  6
CONTINUOUS
 10
573.0817847236234
 20
737.04109192599958
 30
0.0
 11
574.28768949811115
 21
736.54158981347643
 31
0.0
 12
576.87587994913633
 22
736.54158981347643
 32
0.0
 13
576.87587994913633
 23
736.54158981347643
 33
0.0
210
0.0
220
0.0
230
1.0
  0
SOLID
  5
A72
  8
0
  6
CONTINUOUS
 10
-573.0817847236234
 20
737.04109192599958
 30
0.0
 11
-578.08178472362374
 21
737.04109192599958
 31
0.0
 12
-576.87587994913633
 22
736.54158981347643
 32
0.0
 13
-576.87587994913633
 23
736.54158981347643
 33
0.0
210
0.0
220
0.0
230
-1.0
  0
LINE
  5
A73
  8
0
  6
CONTINUOUS
 10
575.58178472362351
 20
746.37121894492179
 30
0.0
 11
574.28768949810922
 21
746.20084807636704
 31
0.0
  0
LINE
  5
A74
  8
0
  6
CONTINUOUS
 10
576.87587994913633
 20
746.20084807636704
 30
0.0
 11
575.58178472362351
 21
746.37121894492179
 31
0.0
  0
LINE
  5
A75
  8
0
  6
CONTINUOUS
 10
574.28768949811035
 20
746.20084807636704
 30
0.0
 11
573.08178472362272
 21
745.70134596384389
 31
0.0
  0
LINE
  5
A76
  8
0
  6
CONTINUOUS
 10
576.87587994913633
 20
746.20084807636704
 30
0.0
 11
578.08178472362374
 21
745.70134596384389
 31
0.0
  0
LINE
  5
A77
  8
0
  6
CONTINUOUS
 10
573.08178472362295
 20
745.70134596384389
 30
0.0
 11
572.04625081769075
 21
744.90675285085445
 31
0.0
  0
LINE
  5
A78
  8
0
  6
CONTINUOUS
 10
578.08178472362374
 20
745.70134596384389
 30
0.0
 11
579.11731862955639
 21
744.90675285085445
 31
0.0
  0
LINE
  5
A79
  8
0
  6
CONTINUOUS
 10
572.04625081769075
 20
744.90675285085445
 30
0.0
 11
571.25165770470096
 21
743.87121894492168
 31
0.0
  0
LINE
  5
A7A
  8
0
  6
CONTINUOUS
 10
579.11731862955639
 20
744.90675285085445
 30
0.0
 11
579.91191174254584
 21
743.87121894492168
 31
0.0
  0
LINE
  5
A7B
  8
0
  6
CONTINUOUS
 10
571.25165770470107
 20
743.87121894492168
 30
0.0
 11
570.75215559217816
 21
742.66531417043439
 31
0.0
  0
LINE
  5
A7C
  8
0
  6
CONTINUOUS
 10
579.91191174254584
 20
743.87121894492168
 30
0.0
 11
580.41141385506899
 21
742.66531417043439
 31
0.0
  0
LINE
  5
A7D
  8
0
  6
CONTINUOUS
 10
570.75215559217816
 20
742.66531417043439
 30
0.0
 11
570.58178472362351
 21
741.37121894492179
 31
0.0
  0
LINE
  5
A7E
  8
0
  6
CONTINUOUS
 10
580.41141385506899
 20
742.66531417043439
 30
0.0
 11
580.58178472362363
 21
741.37121894492179
 31
0.0
  0
LINE
  5
A7F
  8
0
  6
CONTINUOUS
 10
570.58178472362351
 20
741.37121894492179
 30
0.0
 11
570.75215559217816
 21
740.0771237194092
 31
0.0
  0
LINE
  5
A80
  8
0
  6
CONTINUOUS
 10
580.58178472362363
 20
741.37121894492179
 30
0.0
 11
580.41141385506899
 21
740.0771237194092
 31
0.0
  0
LINE
  5
A81
  8
0
  6
CONTINUOUS
 10
570.75215559217816
 20
740.0771237194092
 30
0.0
 11
571.25165770470119
 21
738.87121894492179
 31
0.0
  0
LINE
  5
A82
  8
0
  6
CONTINUOUS
 10
580.41141385506899
 20
740.0771237194092
 30
0.0
 11
579.91191174254584
 21
738.87121894492179
 31
0.0
  0
LINE
  5
A83
  8
0
  6
CONTINUOUS
 10
571.25165770470119
 20
738.87121894492179
 30
0.0
 11
572.04625081769075
 21
737.83568503898914
 31
0.0
  0
LINE
  5
A84
  8
0
  6
CONTINUOUS
 10
579.91191174254584
 20
738.87121894492179
 30
0.0
 11
579.11731862955639
 21
737.83568503898914
 31
0.0
  0
LINE
  5
A85
  8
0
  6
CONTINUOUS
 10
572.04625081769075
 20
737.83568503898914
 30
0.0
 11
573.0817847236234
 21
737.04109192599958
 31
0.0
  0
LINE
  5
A86
  8
0
  6
CONTINUOUS
 10
579.11731862955639
 20
737.83568503898914
 30
0.0
 11
578.08178472362374
 21
737.04109192599958
 31
0.0
  0
LINE
  5
A87
  8
0
  6
CONTINUOUS
 10
576.87587994913633
 20
736.54158981347643
 30
0.0
 11
575.58178472362351
 21
736.37121894492191
 31
0.0
  0
LINE
  5
A88
  8
0
  6
CONTINUOUS
 10
575.58178472362351
 20
736.37121894492191
 30
0.0
 11
574.28768949811183
 21
736.54158981347643
 31
0.0
  0
LINE
  5
A89
  8
0
  6
CONTINUOUS
 10
573.0817847236234
 20
737.04109192599958
 30
0.0
 11
574.28768949811115
 21
736.54158981347643
 31
0.0
  0
LINE
  5
A8A
  8
0
  6
CONTINUOUS
 10
578.08178472362374
 20
737.04109192599958
 30
0.0
 11
576.87587994913633
 21
736.54158981347643
 31
0.0
  0
ENDBLK
  5
A8C
  8
0
  0
BLOCK
  8
0
  2
*U20
 70
     1
 10
0.0
 20
0.0
 30
0.0
  3
*U20
  1

  0
SOLID
  5
A8E
  8
0
  6
CONTINUOUS
 10
337.5972148059322
 20
435.91431456878041
 30
0.0
 11
336.30311958041949
 21
435.74394370022549
 31
0.0
 12
338.89131003144468
 22
435.74394370022549
 32
0.0
 13
338.89131003144468
 23
435.74394370022549
 33
0.0
210
0.0
220
0.0
230
1.0
  0
SOLID
  5
A8F
  8
0
  6
CONTINUOUS
 10
336.30311958041949
 20
435.74394370022549
 30
0.0
 11
335.09721480593208
 21
435.24444158770251
 31
0.0
 12
340.09721480593208
 22
435.24444158770251
 32
0.0
 13
340.09721480593208
 23
435.24444158770251
 33
0.0
210
0.0
220
0.0
230
1.0
  0
SOLID
  5
A90
  8
0
  6
CONTINUOUS
 10
-336.30311958041949
 20
435.74394370022549
 30
0.0
 11
-338.89131003144468
 21
435.74394370022549
 31
0.0
 12
-340.09721480593208
 22
435.24444158770251
 32
0.0
 13
-340.09721480593208
 23
435.24444158770251
 33
0.0
210
0.0
220
0.0
230
-1.0
  0
SOLID
  5
A91
  8
0
  6
CONTINUOUS
 10
335.09721480593208
 20
435.24444158770251
 30
0.0
 11
334.06168089999937
 21
434.44984847471312
 31
0.0
 12
341.13274871186479
 22
434.44984847471312
 32
0.0
 13
341.13274871186479
 23
434.44984847471312
 33
0.0
210
0.0
220
0.0
230
1.0
  0
SOLID
  5
A92
  8
0
  6
CONTINUOUS
 10
-335.09721480593208
 20
435.24444158770251
 30
0.0
 11
-340.09721480593208
 21
435.24444158770251
 31
0.0
 12
-341.13274871186479
 22
434.44984847471312
 32
0.0
 13
-341.13274871186479
 23
434.44984847471312
 33
0.0
210
0.0
220
0.0
230
-1.0
  0
SOLID
  5
A93
  8
0
  6
CONTINUOUS
 10
334.06168089999937
 20
434.44984847471312
 30
0.0
 11
333.26708778700998
 21
433.4143145687803
 31
0.0
 12
341.92734182485418
 22
433.4143145687803
 32
0.0
 13
341.92734182485418
 23
433.4143145687803
 33
0.0
210
0.0
220
0.0
230
1.0
  0
SOLID
  5
A94
  8
0
  6
CONTINUOUS
 10
-334.06168089999937
 20
434.44984847471312
 30
0.0
 11
-341.13274871186479
 21
434.44984847471312
 31
0.0
 12
-341.92734182485418
 22
433.4143145687803
 32
0.0
 13
-341.92734182485418
 23
433.4143145687803
 33
0.0
210
0.0
220
0.0
230
-1.0
  0
SOLID
  5
A95
  8
0
  6
CONTINUOUS
 10
333.26708778700998
 20
433.4143145687803
 30
0.0
 11
332.76758567448672
 21
432.208409794293
 31
0.0
 12
342.4268439373775
 22
432.208409794293
 32
0.0
 13
342.4268439373775
 23
432.208409794293
 33
0.0
210
0.0
220
0.0
230
1.0
  0
SOLID
  5
A96
  8
0
  6
CONTINUOUS
 10
-333.26708778700998
 20
433.4143145687803
 30
0.0
 11
-341.92734182485418
 21
433.4143145687803
 31
0.0
 12
-342.4268439373775
 22
432.208409794293
 32
0.0
 13
-342.4268439373775
 23
432.208409794293
 33
0.0
210
0.0
220
0.0
230
-1.0
  0
SOLID
  5
A97
  8
0
  6
CONTINUOUS
 10
332.76758567448672
 20
432.208409794293
 30
0.0
 11
332.59721480593208
 21
430.91431456878018
 31
0.0
 12
342.5972148059322
 22
430.91431456878018
 32
0.0
 13
342.5972148059322
 23
430.91431456878018
 33
0.0
210
0.0
220
0.0
230
1.0
  0
SOLID
  5
A98
  8
0
  6
CONTINUOUS
 10
-332.76758567448672
 20
432.208409794293
 30
0.0
 11
-342.4268439373775
 21
432.208409794293
 31
0.0
 12
-342.5972148059322
 22
430.91431456878018
 32
0.0
 13
-342.5972148059322
 23
430.91431456878018
 33
0.0
210
0.0
220
0.0
230
-1.0
  0
SOLID
  5
A99
  8
0
  6
CONTINUOUS
 10
332.59721480593208
 20
430.91431456878018
 30
0.0
 11
332.76758567448672
 21
429.62021934326759
 31
0.0
 12
342.4268439373775
 22
429.62021934326759
 32
0.0
 13
342.4268439373775
 23
429.62021934326759
 33
0.0
  0
SOLID
  5
A9A
  8
0
  6
CONTINUOUS
 10
-332.59721480593208
 20
430.91431456878018
 30
0.0
 11
-342.5972148059322
 21
430.91431456878018
 31
0.0
 12
-342.4268439373775
 22
429.62021934326759
 32
0.0
 13
-342.4268439373775
 23
429.62021934326759
 33
0.0
210
0.0
220
0.0
230
-1.0
  0
SOLID
  5
A9B
  8
0
  6
CONTINUOUS
 10
332.76758567448672
 20
429.62021934326759
 30
0.0
 11
333.26708778700998
 21
428.41431456878013
 31
0.0
 12
341.92734182485418
 22
428.41431456878013
 32
0.0
 13
341.92734182485418
 23
428.41431456878013
 33
0.0
210
0.0
220
0.0
230
1.0
  0
SOLID
  5
A9C
  8
0
  6
CONTINUOUS
 10
-332.76758567448672
 20
429.62021934326759
 30
0.0
 11
-342.4268439373775
 21
429.62021934326759
 31
0.0
 12
-341.92734182485418
 22
428.41431456878013
 32
0.0
 13
-341.92734182485418
 23
428.41431456878013
 33
0.0
210
0.0
220
0.0
230
-1.0
  0
SOLID
  5
A9D
  8
0
  6
CONTINUOUS
 10
333.26708778700998
 20
428.41431456878013
 30
0.0
 11
334.06168089999937
 21
427.37878066284742
 31
0.0
 12
341.13274871186479
 22
427.37878066284742
 32
0.0
 13
341.13274871186479
 23
427.37878066284742
 33
0.0
210
0.0
220
0.0
230
1.0
  0
SOLID
  5
A9E
  8
0
  6
CONTINUOUS
 10
-333.26708778700998
 20
428.41431456878013
 30
0.0
 11
-341.92734182485418
 21
428.41431456878013
 31
0.0
 12
-341.13274871186479
 22
427.37878066284742
 32
0.0
 13
-341.13274871186479
 23
427.37878066284742
 33
0.0
210
0.0
220
0.0
230
-1.0
  0
SOLID
  5
A9F
  8
0
  6
CONTINUOUS
 10
334.06168089999937
 20
427.37878066284742
 30
0.0
 11
335.09721480593208
 21
426.58418754985809
 31
0.0
 12
340.09721480593208
 22
426.58418754985809
 32
0.0
 13
340.09721480593208
 23
426.58418754985809
 33
0.0
210
0.0
220
0.0
230
1.0
  0
SOLID
  5
AA0
  8
0
  6
CONTINUOUS
 10
-334.06168089999937
 20
427.37878066284742
 30
0.0
 11
-341.13274871186479
 21
427.37878066284742
 31
0.0
 12
-340.09721480593208
 22
426.58418754985809
 32
0.0
 13
-340.09721480593208
 23
426.58418754985809
 33
0.0
210
0.0
220
0.0
230
-1.0
  0
SOLID
  5
AA1
  8
0
  6
CONTINUOUS
 10
-336.30311958041949
 20
426.084685437335
 30
0.0
 11
-338.89131003144468
 21
426.084685437335
 31
0.0
 12
-337.5972148059322
 22
425.91431456878013
 32
0.0
 13
-337.5972148059322
 23
425.91431456878013
 33
0.0
210
0.0
220
0.0
230
-1.0
  0
SOLID
  5
AA2
  8
0
  6
CONTINUOUS
 10
335.09721480593208
 20
426.58418754985809
 30
0.0
 11
336.30311958041949
 21
426.084685437335
 31
0.0
 12
338.89131003144468
 22
426.084685437335
 32
0.0
 13
338.89131003144468
 23
426.084685437335
 33
0.0
210
0.0
220
0.0
230
1.0
  0
SOLID
  5
AA3
  8
0
  6
CONTINUOUS
 10
-335.09721480593208
 20
426.58418754985809
 30
0.0
 11
-340.09721480593208
 21
426.58418754985809
 31
0.0
 12
-338.89131003144468
 22
426.084685437335
 32
0.0
 13
-338.89131003144468
 23
426.084685437335
 33
0.0
210
0.0
220
0.0
230
-1.0
  0
LINE
  5
AA4
  8
0
  6
CONTINUOUS
 10
337.5972148059322
 20
435.91431456878041
 30
0.0
 11
336.30311958041949
 21
435.74394370022549
 31
0.0
  0
LINE
  5
AA5
  8
0
  6
CONTINUOUS
 10
338.89131003144468
 20
435.74394370022549
 30
0.0
 11
337.5972148059322
 21
435.91431456878041
 31
0.0
  0
LINE
  5
AA6
  8
0
  6
CONTINUOUS
 10
336.30311958041949
 20
435.74394370022549
 30
0.0
 11
335.09721480593208
 21
435.24444158770251
 31
0.0
  0
LINE
  5
AA7
  8
0
  6
CONTINUOUS
 10
338.89131003144468
 20
435.74394370022549
 30
0.0
 11
340.09721480593208
 21
435.24444158770251
 31
0.0
  0
LINE
  5
AA8
  8
0
  6
CONTINUOUS
 10
335.09721480593208
 20
435.24444158770251
 30
0.0
 11
334.06168089999937
 21
434.44984847471312
 31
0.0
  0
LINE
  5
AA9
  8
0
  6
CONTINUOUS
 10
340.09721480593208
 20
435.24444158770251
 30
0.0
 11
341.13274871186479
 21
434.44984847471312
 31
0.0
  0
LINE
  5
AAA
  8
0
  6
CONTINUOUS
 10
334.06168089999937
 20
434.44984847471312
 30
0.0
 11
333.26708778700998
 21
433.4143145687803
 31
0.0
  0
LINE
  5
AAB
  8
0
  6
CONTINUOUS
 10
341.13274871186479
 20
434.44984847471312
 30
0.0
 11
341.92734182485418
 21
433.4143145687803
 31
0.0
  0
LINE
  5
AAC
  8
0
  6
CONTINUOUS
 10
333.26708778700998
 20
433.4143145687803
 30
0.0
 11
332.76758567448672
 21
432.208409794293
 31
0.0
  0
LINE
  5
AAD
  8
0
  6
CONTINUOUS
 10
341.92734182485418
 20
433.4143145687803
 30
0.0
 11
342.4268439373775
 21
432.208409794293
 31
0.0
  0
LINE
  5
AAE
  8
0
  6
CONTINUOUS
 10
332.76758567448672
 20
432.208409794293
 30
0.0
 11
332.59721480593208
 21
430.91431456878018
 31
0.0
  0
LINE
  5
AAF
  8
0
  6
CONTINUOUS
 10
342.4268439373775
 20
432.208409794293
 30
0.0
 11
342.5972148059322
 21
430.91431456878018
 31
0.0
  0
LINE
  5
AB0
  8
0
  6
CONTINUOUS
 10
332.59721480593208
 20
430.91431456878018
 30
0.0
 11
332.76758567448672
 21
429.62021934326759
 31
0.0
  0
LINE
  5
AB1
  8
0
  6
CONTINUOUS
 10
342.5972148059322
 20
430.91431456878018
 30
0.0
 11
342.4268439373775
 21
429.62021934326759
 31
0.0
  0
LINE
  5
AB2
  8
0
  6
CONTINUOUS
 10
332.76758567448672
 20
429.62021934326759
 30
0.0
 11
333.26708778700998
 21
428.41431456878013
 31
0.0
  0
LINE
  5
AB3
  8
0
  6
CONTINUOUS
 10
342.4268439373775
 20
429.62021934326759
 30
0.0
 11
341.92734182485418
 21
428.41431456878013
 31
0.0
  0
LINE
  5
AB4
  8
0
  6
CONTINUOUS
 10
333.26708778700998
 20
428.41431456878013
 30
0.0
 11
334.06168089999937
 21
427.37878066284742
 31
0.0
  0
LINE
  5
AB5
  8
0
  6
CONTINUOUS
 10
341.92734182485418
 20
428.41431456878013
 30
0.0
 11
341.13274871186479
 21
427.37878066284742
 31
0.0
  0
LINE
  5
AB6
  8
0
  6
CONTINUOUS
 10
334.06168089999937
 20
427.37878066284742
 30
0.0
 11
335.09721480593208
 21
426.58418754985809
 31
0.0
  0
LINE
  5
AB7
  8
0
  6
CONTINUOUS
 10
341.13274871186479
 20
427.37878066284742
 30
0.0
 11
340.09721480593208
 21
426.58418754985809
 31
0.0
  0
LINE
  5
AB8
  8
0
  6
CONTINUOUS
 10
338.89131003144468
 20
426.084685437335
 30
0.0
 11
337.5972148059322
 21
425.91431456878013
 31
0.0
  0
LINE
  5
AB9
  8
0
  6
CONTINUOUS
 10
337.5972148059322
 20
425.91431456878013
 30
0.0
 11
336.30311958041949
 21
426.084685437335
 31
0.0
  0
LINE
  5
ABA
  8
0
  6
CONTINUOUS
 10
335.09721480593208
 20
426.58418754985809
 30
0.0
 11
336.30311958041949
 21
426.084685437335
 31
0.0
  0
LINE
  5
ABB
  8
0
  6
CONTINUOUS
 10
340.09721480593208
 20
426.58418754985809
 30
0.0
 11
338.89131003144468
 21
426.084685437335
 31
0.0
  0
ENDBLK
  5
ABD
  8
0
  0
BLOCK
  8
0
  2
*U21
 70
     1
 10
0.0
 20
0.0
 30
0.0
  3
*U21
  1

  0
SOLID
  5
ABF
  8
0
  6
CONTINUOUS
 10
1213.076395801357
 20
688.45141690198955
 30
0.0
 11
1211.7823005758439
 21
688.2810460334349
 31
0.0
 12
1214.3704910268691
 22
688.2810460334349
 32
0.0
 13
1214.3704910268691
 23
688.2810460334349
 33
0.0
210
0.0
220
0.0
230
1.0
  0
SOLID
  5
AC0
  8
0
  6
CONTINUOUS
 10
1211.7823005758439
 20
688.2810460334349
 30
0.0
 11
1210.576395801357
 21
687.78154392091164
 31
0.0
 12
1215.576395801357
 22
687.78154392091164
 32
0.0
 13
1215.576395801357
 23
687.78154392091164
 33
0.0
210
0.0
220
0.0
230
1.0
  0
SOLID
  5
AC1
  8
0
  6
CONTINUOUS
 10
-1211.7823005758439
 20
688.2810460334349
 30
0.0
 11
-1214.3704910268691
 21
688.2810460334349
 31
0.0
 12
-1215.576395801357
 22
687.78154392091164
 32
0.0
 13
-1215.576395801357
 23
687.78154392091164
 33
0.0
210
0.0
220
0.0
230
-1.0
  0
SOLID
  5
AC2
  8
0
  6
CONTINUOUS
 10
1210.576395801357
 20
687.78154392091164
 30
0.0
 11
1209.5408618954241
 21
686.98695080792243
 31
0.0
 12
1216.6119297072901
 22
686.98695080792243
 32
0.0
 13
1216.6119297072901
 23
686.98695080792243
 33
0.0
210
0.0
220
0.0
230
1.0
  0
SOLID
  5
AC3
  8
0
  6
CONTINUOUS
 10
-1210.576395801357
 20
687.78154392091164
 30
0.0
 11
-1215.576395801357
 21
687.78154392091164
 31
0.0
 12
-1216.6119297072901
 22
686.98695080792243
 32
0.0
 13
-1216.6119297072901
 23
686.98695080792243
 33
0.0
210
0.0
220
0.0
230
-1.0
  0
SOLID
  5
AC4
  8
0
  6
CONTINUOUS
 10
1209.5408618954241
 20
686.98695080792243
 30
0.0
 11
1208.746268782435
 21
685.95141690198955
 31
0.0
 12
1217.406522820279
 22
685.95141690198955
 32
0.0
 13
1217.406522820279
 23
685.95141690198955
 33
0.0
210
0.0
220
0.0
230
1.0
  0
SOLID
  5
AC5
  8
0
  6
CONTINUOUS
 10
-1209.5408618954241
 20
686.98695080792243
 30
0.0
 11
-1216.6119297072901
 21
686.98695080792243
 31
0.0
 12
-1217.406522820279
 22
685.95141690198955
 32
0.0
 13
-1217.406522820279
 23
685.95141690198955
 33
0.0
210
0.0
220
0.0
230
-1.0
  0
SOLID
  5
AC6
  8
0
  6
CONTINUOUS
 10
1208.746268782435
 20
685.95141690198955
 30
0.0
 11
1208.246766669911
 21
684.74551212750225
 31
0.0
 12
1217.906024932802
 22
684.74551212750225
 32
0.0
 13
1217.906024932802
 23
684.74551212750225
 33
0.0
210
0.0
220
0.0
230
1.0
  0
SOLID
  5
AC7
  8
0
  6
CONTINUOUS
 10
-1208.746268782435
 20
685.95141690198955
 30
0.0
 11
-1217.406522820279
 21
685.95141690198955
 31
0.0
 12
-1217.906024932802
 22
684.74551212750225
 32
0.0
 13
-1217.906024932802
 23
684.74551212750225
 33
0.0
210
0.0
220
0.0
230
-1.0
  0
SOLID
  5
AC8
  8
0
  6
CONTINUOUS
 10
1208.246766669911
 20
684.74551212750225
 30
0.0
 11
1208.076395801357
 21
683.45141690198966
 31
0.0
 12
1218.076395801357
 22
683.45141690198966
 32
0.0
 13
1218.076395801357
 23
683.45141690198966
 33
0.0
210
0.0
220
0.0
230
1.0
  0
SOLID
  5
AC9
  8
0
  6
CONTINUOUS
 10
-1208.246766669911
 20
684.74551212750225
 30
0.0
 11
-1217.906024932802
 21
684.74551212750225
 31
0.0
 12
-1218.076395801357
 22
683.45141690198966
 32
0.0
 13
-1218.076395801357
 23
683.45141690198966
 33
0.0
210
0.0
220
0.0
230
-1.0
  0
SOLID
  5
ACA
  8
0
  6
CONTINUOUS
 10
1208.076395801357
 20
683.45141690198966
 30
0.0
 11
1208.233804071554
 21
682.25578238626076
 31
0.0
 12
1217.9189875311599
 22
682.25578238626076
 32
0.0
 13
1217.9189875311599
 23
682.25578238626076
 33
0.0
210
0.0
220
0.0
230
1.0
  0
SOLID
  5
ACB
  8
0
  6
CONTINUOUS
 10
-1208.076395801357
 20
683.45141690198966
 30
0.0
 11
-1218.076395801357
 21
683.45141690198966
 31
0.0
 12
-1217.9189875311599
 22
682.25578238626076
 32
0.0
 13
-1217.9189875311599
 23
682.25578238626076
 33
0.0
210
0.0
220
0.0
230
-1.0
  0
SOLID
  5
ACC
  8
0
  6
CONTINUOUS
 10
1208.233804071554
 20
682.25578238626076
 30
0.0
 11
1208.246766669911
 21
682.15732167647695
 31
0.0
 12
1217.880303864825
 22
682.15732167647695
 32
0.0
 13
1217.880303864825
 23
682.15732167647695
 33
0.0
210
0.0
220
0.0
230
1.0
  0
SOLID
  5
ACD
  8
0
  6
CONTINUOUS
 10
-1208.233804071554
 20
682.25578238626076
 30
0.0
 11
-1217.9189875311599
 21
682.25578238626076
 31
0.0
 12
-1217.880303864825
 22
682.15732167647695
 32
0.0
 13
-1217.880303864825
 23
682.15732167647695
 33
0.0
210
0.0
220
0.0
230
-1.0
  0
SOLID
  5
ACE
  8
0
  6
CONTINUOUS
 10
1208.246766669911
 20
682.15732167647695
 30
0.0
 11
1208.746268782435
 21
680.95141690198955
 31
0.0
 12
1217.406522820279
 22
680.95141690198955
 32
0.0
 13
1217.406522820279
 23
680.95141690198955
 33
0.0
210
0.0
220
0.0
230
1.0
  0
SOLID
  5
ACF
  8
0
  6
CONTINUOUS
 10
-1208.246766669911
 20
682.15732167647695
 30
0.0
 11
-1217.880303864825
 21
682.15732167647695
 31
0.0
 12
-1217.406522820279
 22
680.95141690198955
 32
0.0
 13
-1217.406522820279
 23
680.95141690198955
 33
0.0
210
0.0
220
0.0
230
-1.0
  0
SOLID
  5
AD0
  8
0
  6
CONTINUOUS
 10
1208.746268782435
 20
680.95141690198955
 30
0.0
 11
1209.5408618954241
 21
679.91588299605678
 31
0.0
 12
1216.6119297072901
 22
679.91588299605678
 32
0.0
 13
1216.6119297072901
 23
679.91588299605678
 33
0.0
210
0.0
220
0.0
230
1.0
  0
SOLID
  5
AD1
  8
0
  6
CONTINUOUS
 10
-1208.746268782435
 20
680.95141690198955
 30
0.0
 11
-1217.406522820279
 21
680.95141690198955
 31
0.0
 12
-1216.6119297072901
 22
679.91588299605678
 32
0.0
 13
-1216.6119297072901
 23
679.91588299605678
 33
0.0
210
0.0
220
0.0
230
-1.0
  0
SOLID
  5
AD2
  8
0
  6
CONTINUOUS
 10
1209.5408618954241
 20
679.91588299605678
 30
0.0
 11
1210.576395801357
 21
679.12128988306745
 31
0.0
 12
1215.576395801357
 22
679.12128988306745
 32
0.0
 13
1215.576395801357
 23
679.12128988306745
 33
0.0
210
0.0
220
0.0
230
1.0
  0
SOLID
  5
AD3
  8
0
  6
CONTINUOUS
 10
-1209.5408618954241
 20
679.91588299605678
 30
0.0
 11
-1216.6119297072901
 21
679.91588299605678
 31
0.0
 12
-1215.576395801357
 22
679.12128988306745
 32
0.0
 13
-1215.576395801357
 23
679.12128988306745
 33
0.0
210
0.0
220
0.0
230
-1.0
  0
SOLID
  5
AD4
  8
0
  6
CONTINUOUS
 10
-1211.7823005758439
 20
678.62178777054442
 30
0.0
 11
-1214.3704910268691
 21
678.62178777054442
 31
0.0
 12
-1213.076395801357
 22
678.45141690198977
 32
0.0
 13
-1213.076395801357
 23
678.45141690198977
 33
0.0
210
0.0
220
0.0
230
-1.0
  0
SOLID
  5
AD5
  8
0
  6
CONTINUOUS
 10
1210.576395801357
 20
679.12128988306745
 30
0.0
 11
1211.7823005758439
 21
678.62178777054442
 31
0.0
 12
1214.3704910268691
 22
678.62178777054442
 32
0.0
 13
1214.3704910268691
 23
678.62178777054442
 33
0.0
210
0.0
220
0.0
230
1.0
  0
SOLID
  5
AD6
  8
0
  6
CONTINUOUS
 10
-1210.576395801357
 20
679.12128988306745
 30
0.0
 11
-1215.576395801357
 21
679.12128988306745
 31
0.0
 12
-1214.3704910268691
 22
678.62178777054442
 32
0.0
 13
-1214.3704910268691
 23
678.62178777054442
 33
0.0
210
0.0
220
0.0
230
-1.0
  0
LINE
  5
AD7
  8
0
  6
CONTINUOUS
 10
1213.076395801357
 20
688.45141690198955
 30
0.0
 11
1211.7823005758439
 21
688.2810460334349
 31
0.0
  0
LINE
  5
AD8
  8
0
  6
CONTINUOUS
 10
1214.3704910268691
 20
688.2810460334349
 30
0.0
 11
1213.076395801357
 21
688.45141690198955
 31
0.0
  0
LINE
  5
AD9
  8
0
  6
CONTINUOUS
 10
1211.7823005758439
 20
688.2810460334349
 30
0.0
 11
1210.576395801357
 21
687.78154392091164
 31
0.0
  0
LINE
  5
ADA
  8
0
  6
CONTINUOUS
 10
1214.3704910268691
 20
688.2810460334349
 30
0.0
 11
1215.576395801357
 21
687.78154392091164
 31
0.0
  0
LINE
  5
ADB
  8
0
  6
CONTINUOUS
 10
1210.576395801357
 20
687.78154392091164
 30
0.0
 11
1209.5408618954241
 21
686.98695080792243
 31
0.0
  0
LINE
  5
ADC
  8
0
  6
CONTINUOUS
 10
1215.576395801357
 20
687.78154392091164
 30
0.0
 11
1216.6119297072901
 21
686.98695080792243
 31
0.0
  0
LINE
  5
ADD
  8
0
  6
CONTINUOUS
 10
1209.5408618954241
 20
686.98695080792243
 30
0.0
 11
1208.746268782435
 21
685.95141690198955
 31
0.0
  0
LINE
  5
ADE
  8
0
  6
CONTINUOUS
 10
1216.6119297072901
 20
686.98695080792243
 30
0.0
 11
1217.406522820279
 21
685.95141690198955
 31
0.0
  0
LINE
  5
ADF
  8
0
  6
CONTINUOUS
 10
1208.746268782435
 20
685.95141690198955
 30
0.0
 11
1208.246766669911
 21
684.74551212750225
 31
0.0
  0
LINE
  5
AE0
  8
0
  6
CONTINUOUS
 10
1217.406522820279
 20
685.95141690198955
 30
0.0
 11
1217.906024932802
 21
684.74551212750225
 31
0.0
  0
LINE
  5
AE1
  8
0
  6
CONTINUOUS
 10
1208.246766669911
 20
684.74551212750225
 30
0.0
 11
1208.076395801357
 21
683.45141690198966
 31
0.0
  0
LINE
  5
AE2
  8
0
  6
CONTINUOUS
 10
1217.906024932802
 20
684.74551212750225
 30
0.0
 11
1218.076395801357
 21
683.45141690198966
 31
0.0
  0
LINE
  5
AE3
  8
0
  6
CONTINUOUS
 10
1208.076395801357
 20
683.45141690198966
 30
0.0
 11
1208.233804071554
 21
682.25578238626076
 31
0.0
  0
LINE
  5
AE4
  8
0
  6
CONTINUOUS
 10
1218.076395801357
 20
683.45141690198966
 30
0.0
 11
1217.9189875311599
 21
682.25578238626076
 31
0.0
  0
LINE
  5
AE5
  8
0
  6
CONTINUOUS
 10
1208.233804071554
 20
682.25578238626076
 30
0.0
 11
1208.246766669911
 21
682.15732167647695
 31
0.0
  0
LINE
  5
AE6
  8
0
  6
CONTINUOUS
 10
1217.9189875311599
 20
682.25578238626076
 30
0.0
 11
1217.880303864825
 21
682.15732167647695
 31
0.0
  0
LINE
  5
AE7
  8
0
  6
CONTINUOUS
 10
1208.246766669911
 20
682.15732167647695
 30
0.0
 11
1208.746268782435
 21
680.95141690198955
 31
0.0
  0
LINE
  5
AE8
  8
0
  6
CONTINUOUS
 10
1217.880303864825
 20
682.15732167647695
 30
0.0
 11
1217.406522820279
 21
680.95141690198955
 31
0.0
  0
LINE
  5
AE9
  8
0
  6
CONTINUOUS
 10
1208.746268782435
 20
680.95141690198955
 30
0.0
 11
1209.5408618954241
 21
679.91588299605678
 31
0.0
  0
LINE
  5
AEA
  8
0
  6
CONTINUOUS
 10
1217.406522820279
 20
680.95141690198955
 30
0.0
 11
1216.6119297072901
 21
679.91588299605678
 31
0.0
  0
LINE
  5
AEB
  8
0
  6
CONTINUOUS
 10
1209.5408618954241
 20
679.91588299605678
 30
0.0
 11
1210.576395801357
 21
679.12128988306745
 31
0.0
  0
LINE
  5
AEC
  8
0
  6
CONTINUOUS
 10
1216.6119297072901
 20
679.91588299605678
 30
0.0
 11
1215.576395801357
 21
679.12128988306745
 31
0.0
  0
LINE
  5
AED
  8
0
  6
CONTINUOUS
 10
1214.3704910268691
 20
678.62178777054442
 30
0.0
 11
1213.076395801357
 21
678.45141690198977
 31
0.0
  0
LINE
  5
AEE
  8
0
  6
CONTINUOUS
 10
1213.076395801357
 20
678.45141690198977
 30
0.0
 11
1211.7823005758439
 21
678.62178777054442
 31
0.0
  0
LINE
  5
AEF
  8
0
  6
CONTINUOUS
 10
1210.576395801357
 20
679.12128988306745
 30
0.0
 11
1211.7823005758439
 21
678.62178777054442
 31
0.0
  0
LINE
  5
AF0
  8
0
  6
CONTINUOUS
 10
1215.576395801357
 20
679.12128988306745
 30
0.0
 11
1214.3704910268691
 21
678.62178777054442
 31
0.0
  0
ENDBLK
  5
AF2
  8
0
  0
ENDSEC
  0
SECTION
  2
ENTITIES
  0
INSERT
  5
A1
  8
0
  6
CONTINUOUS
 62
     7
  2
*U4
 10
0.0
 20
0.0
 30
0.0
1001
REVIT
1002
{
1070
     1
1000
641414
1002
}
1002
{
1070
     5
1000
101664
1002
}
1002
{
1070
     2
1000
-2002000
1002
}
1001
ACAD
1002
{
1000
R14_HATCH_DATA
1000
A1
1011
1.0
1021
0.0
1031
0.0
1021
0.0
1031
0.0
1011
0.0
1021
0.0
1031
0.0
1021
1.0
1031
0.0
1011
0.0
1021
0.0
1031
0.0
1021
0.0
1031
1.0
1040
0.0
1010
0.0
1020
0.0
1030
1.0
1000
SOLID
1070
     1
1070
     0
1071
        1
1071
        0
1071
       24
1070
     1
1040
1279.894410002343
1040
450.52226968979761
1040
1280.9296861827529
1040
450.6585663846414
1070
     1
1040
1280.9296861827529
1040
450.6585663846414
1040
1281.894410002343
1040
451.05816807465987
1070
     1
1040
1281.894410002343
1040
451.05816807465987
1040
1282.722837127089
1040
451.6938425650514
1070
     1
1040
1282.722837127089
1040
451.6938425650514
1040
1283.3585116174811
1040
452.52226968979761
1070
     1
1040
1283.3585116174811
1040
452.52226968979761
1040
1283.7581133075
1040
453.48699350938739
1070
     1
1040
1283.7581133075
1040
453.48699350938739
1040
1283.894410002343
1040
454.5222696897975
1070
     1
1040
1283.894410002343
1040
454.5222696897975
1040
1283.7581133075
1040
455.55754587020778
1070
     1
1040
1283.7581133075
1040
455.55754587020778
1040
1283.3585116174811
1040
456.52226968979761
1070
     1
1040
1283.3585116174811
1040
456.52226968979761
1040
1282.722837127089
1040
457.35069681454382
1070
     1
1040
1282.722837127089
1040
457.35069681454382
1040
1281.894410002343
1040
457.98637130493552
1070
     1
1040
1281.894410002343
1040
457.98637130493552
1040
1280.9296861827529
1040
458.38597299495387
1070
     1
1040
1280.9296861827529
1040
458.38597299495387
1040
1279.894410002343
1040
458.52226968979761
1070
     1
1040
1279.894410002343
1040
458.52226968979761
1040
1278.859133821933
1040
458.38597299495387
1070
     1
1040
1278.859133821933
1040
458.38597299495387
1040
1277.894410002343
1040
457.98637130493552
1070
     1
1040
1277.894410002343
1040
457.98637130493552
1040
1277.065982877597
1040
457.35069681454382
1070
     1
1040
1277.065982877597
1040
457.35069681454382
1040
1276.4303083872051
1040
456.52226968979761
1070
     1
1040
1276.4303083872051
1040
456.52226968979761
1040
1276.030706697187
1040
455.55754587020778
1070
     1
1040
1276.030706697187
1040
455.55754587020778
1040
1275.894410002343
1040
454.5222696897975
1070
     1
1040
1275.894410002343
1040
454.5222696897975
1040
1276.030706697187
1040
453.48699350938739
1070
     1
1040
1276.030706697187
1040
453.48699350938739
1040
1276.4303083872051
1040
452.52226968979761
1070
     1
1040
1276.4303083872051
1040
452.52226968979761
1040
1277.065982877597
1040
451.6938425650514
1070
     1
1040
1277.065982877597
1040
451.6938425650514
1040
1277.894410002343
1040
451.05816807465987
1070
     1
1040
1277.894410002343
1040
451.05816807465987
1040
1278.859133821933
1040
450.6585663846414
1070
     1
1040
1278.859133821933
1040
450.6585663846414
1040
1279.894410002343
1040
450.52226968979761
1071
        0
1070
     0
1070
     1
1071
        1
1040
0.0
1040
0.0
1040
0.0
1002
}
  0
ARC
  5
4A2
  8
0
 10
1279.8944100023421
 20
454.52226968979721
 30
0.0
 40
3.9999999999999072
 50
179.9999999999992
 51
0.0000000000024936
1001
REVIT
1002
{
1070
     1
1000
641414
1002
}
1002
{
1070
     5
1000
101664
1002
}
1002
{
1070
     2
1000
-2000051
1002
}
1002
{
1070
     3
1000
-2000042
1002
}
  0
ARC
  5
4A3
  8
0
 10
1279.8944100023421
 20
454.52226968979721
 30
0.0
 40
3.9999999999997669
 50
359.9999999999992
 51
180.00000000000119
1001
REVIT
1002
{
1070
     1
1000
641414
1002
}
1002
{
1070
     5
1000
101664
1002
}
1002
{
1070
     2
1000
-2000051
1002
}
1002
{
1070
     3
1000
-2000042
1002
}
  0
LINE
  5
4A4
  8
0
 10
1280.54457294331
 20
454.54703328064591
 30
0.0
 11
1500.54457294331
 21
454.54703328064522
 31
0.0
1001
REVIT
1002
{
1070
     1
1000
641011
1002
}
1002
{
1070
     2
1000
-2000051
1002
}
1002
{
1070
     3
1000
-2000042
1002
}
  0
INSERT
  5
4A7
  8
0
  2
*U5
 10
0.0
 20
0.0
 30
0.0
  0
INSERT
  5
4A8
  8
0
  2
*U6
 10
0.0
 20
0.0
 30
0.0
  0
INSERT
  5
4A9
  8
0
  2
*U7
 10
0.0
 20
0.0
 30
0.0
  0
INSERT
  5
4AA
  8
0
  2
*U8
 10
0.0
 20
0.0
 30
0.0
  0
INSERT
  5
4AB
  8
0
  2
*U9
 10
0.0
 20
0.0
 30
0.0
  0
INSERT
  5
4AC
  8
0
  2
*U10
 10
0.0
 20
0.0
 30
0.0
  0
INSERT
  5
4AD
  8
0
  2
*U11
 10
0.0
 20
0.0
 30
0.0
  0
INSERT
  5
4AE
  8
0
  2
*U12
 10
0.0
 20
0.0
 30
0.0
  0
INSERT
  5
4AF
  8
0
  2
*U13
 10
0.0
 20
0.0
 30
0.0
  0
INSERT
  5
514
  8
0
  6
CONTINUOUS
  2
*U14
 10
0.0
 20
0.0
 30
0.0
1001
REVIT
1002
{
1070
     3
1000
545292
1002
}
1001
ACAD
1002
{
1000
R14_HATCH_DATA
1000
514
1011
1.0
1021
0.0
1031
0.0
1021
0.0
1031
0.0
1011
0.0
1021
0.0
1031
0.0
1021
1.0
1031
0.0
1011
0.0
1021
0.0
1031
0.0
1021
0.0
1031
1.0
1040
0.0
1010
0.0
1020
0.0
1030
1.0
1000
SOLID
1070
     1
1070
     0
1071
        1
1071
        0
1071
       24
1070
     1
1040
790.66010658891059
1040
-197.30877987180151
1040
791.95420181442296
1040
-197.13840900324681
1070
     1
1040
791.95420181442296
1040
-197.13840900324681
1040
793.16010658891025
1040
-196.63890689072369
1070
     1
1040
793.16010658891025
1040
-196.63890689072369
1040
794.19564049484347
1040
-195.8443137777343
1070
     1
1040
794.19564049484347
1040
-195.8443137777343
1040
794.99023360783315
1040
-194.80877987180151
1070
     1
1040
794.99023360783315
1040
-194.80877987180151
1040
795.48973572035595
1040
-193.6028750973141
1070
     1
1040
795.48973572035595
1040
-193.6028750973141
1040
795.66010658891093
1040
-192.30877987180131
1070
     1
1040
795.66010658891093
1040
-192.30877987180131
1040
795.48973572035595
1040
-191.014684646289
1070
     1
1040
795.48973572035595
1040
-191.014684646289
1040
794.99023360783315
1040
-189.80877987180159
1070
     1
1040
794.99023360783315
1040
-189.80877987180159
1040
794.19564049484347
1040
-188.7732459658688
1070
     1
1040
794.19564049484347
1040
-188.7732459658688
1040
793.16010658891093
1040
-187.97865285287909
1070
     1
1040
793.16010658891093
1040
-187.97865285287909
1040
791.95420181442296
1040
-187.479150740356
1070
     1
1040
791.95420181442296
1040
-187.479150740356
1040
790.66010658891059
1040
-187.30877987180131
1070
     1
1040
790.66010658891059
1040
-187.30877987180131
1040
789.36601136339812
1040
-187.479150740356
1070
     1
1040
789.36601136339812
1040
-187.479150740356
1040
788.16010658891071
1040
-187.97865285287909
1070
     1
1040
788.16010658891071
1040
-187.97865285287909
1040
787.12457268297771
1040
-188.7732459658688
1070
     1
1040
787.12457268297771
1040
-188.7732459658688
1040
786.32997956998861
1040
-189.80877987180159
1070
     1
1040
786.32997956998861
1040
-189.80877987180159
1040
785.83047745746535
1040
-191.014684646289
1070
     1
1040
785.83047745746535
1040
-191.014684646289
1040
785.66010658891082
1040
-192.30877987180131
1070
     1
1040
785.66010658891082
1040
-192.30877987180131
1040
785.83047745746535
1040
-193.6028750973141
1070
     1
1040
785.83047745746535
1040
-193.6028750973141
1040
786.32997956998861
1040
-194.80877987180151
1070
     1
1040
786.32997956998861
1040
-194.80877987180151
1040
787.12457268297771
1040
-195.8443137777343
1070
     1
1040
787.12457268297771
1040
-195.8443137777343
1040
788.16010658891071
1040
-196.63890689072369
1070
     1
1040
788.16010658891071
1040
-196.63890689072369
1040
789.36601136339812
1040
-197.13840900324681
1070
     1
1040
789.36601136339812
1040
-197.13840900324681
1040
790.66010658891059
1040
-197.30877987180151
1071
        0
1070
     0
1070
     1
1071
        1
1040
0.0
1040
0.0
1040
0.0
1002
}
  0
INSERT
  5
515
  8
0
  6
CONTINUOUS
  2
*U15
 10
0.0
 20
0.0
 30
0.0
1001
REVIT
1002
{
1070
     3
1000
545292
1002
}
1001
ACAD
1002
{
1000
R14_HATCH_DATA
1000
515
1011
1.0
1021
0.0
1031
0.0
1021
0.0
1031
0.0
1011
0.0
1021
0.0
1031
0.0
1021
1.0
1031
0.0
1011
0.0
1021
0.0
1031
0.0
1021
0.0
1031
1.0
1040
0.0
1010
0.0
1020
0.0
1030
1.0
1000
SOLID
1070
     1
1070
     0
1071
        1
1071
        0
1071
       24
1070
     1
1040
1215.702315263236
1040
290.89558259928248
1040
1216.9964104887481
1040
291.06595346783752
1070
     1
1040
1216.9964104887481
1040
291.06595346783752
1040
1218.202315263236
1040
291.56545558036038
1070
     1
1040
1218.202315263236
1040
291.56545558036038
1040
1219.2378491691679
1040
292.36004869334982
1070
     1
1040
1219.2378491691679
1040
292.36004869334982
1040
1220.0324422821579
1040
293.39558259928248
1070
     1
1040
1220.0324422821579
1040
293.39558259928248
1040
1220.531944394681
1040
294.60148737376988
1070
     1
1040
1220.531944394681
1040
294.60148737376988
1040
1220.702315263236
1040
295.8955825992827
1070
     1
1040
1220.702315263236
1040
295.8955825992827
1040
1220.531944394681
1040
297.18967782479541
1070
     1
1040
1220.531944394681
1040
297.18967782479541
1040
1220.0324422821579
1040
298.39558259928282
1070
     1
1040
1220.0324422821579
1040
298.39558259928282
1040
1219.2378491691679
1040
299.43111650521553
1070
     1
1040
1219.2378491691679
1040
299.43111650521553
1040
1218.202315263236
1040
300.22570961820492
1070
     1
1040
1218.202315263236
1040
300.22570961820492
1040
1216.9964104887481
1040
300.72521173072812
1070
     1
1040
1216.9964104887481
1040
300.72521173072812
1040
1215.702315263236
1040
300.8955825992827
1070
     1
1040
1215.702315263236
1040
300.8955825992827
1040
1214.4082200377229
1040
300.72521173072812
1070
     1
1040
1214.4082200377229
1040
300.72521173072812
1040
1213.202315263236
1040
300.22570961820492
1070
     1
1040
1213.202315263236
1040
300.22570961820492
1040
1212.1667813573019
1040
299.43111650521553
1070
     1
1040
1212.1667813573019
1040
299.43111650521553
1040
1211.3721882443131
1040
298.39558259928282
1070
     1
1040
1211.3721882443131
1040
298.39558259928282
1040
1210.87268613179
1040
297.18967782479541
1070
     1
1040
1210.87268613179
1040
297.18967782479541
1040
1210.702315263236
1040
295.8955825992827
1070
     1
1040
1210.702315263236
1040
295.8955825992827
1040
1210.87268613179
1040
294.60148737377023
1070
     1
1040
1210.87268613179
1040
294.60148737377023
1040
1211.3721882443131
1040
293.39558259928248
1070
     1
1040
1211.3721882443131
1040
293.39558259928248
1040
1212.1667813573019
1040
292.36004869335011
1070
     1
1040
1212.1667813573019
1040
292.36004869335011
1040
1213.202315263236
1040
291.56545558036038
1070
     1
1040
1213.202315263236
1040
291.56545558036038
1040
1214.4082200377229
1040
291.06595346783752
1070
     1
1040
1214.4082200377229
1040
291.06595346783752
1040
1215.702315263236
1040
290.89558259928248
1071
        0
1070
     0
1070
     1
1071
        1
1040
0.0
1040
0.0
1040
0.0
1002
}
  0
INSERT
  5
516
  8
0
  6
CONTINUOUS
  2
*U16
 10
0.0
 20
0.0
 30
0.0
1001
REVIT
1002
{
1070
     3
1000
545292
1002
}
1001
ACAD
1002
{
1000
R14_HATCH_DATA
1000
516
1011
1.0
1021
0.0
1031
0.0
1021
0.0
1031
0.0
1011
0.0
1021
0.0
1031
0.0
1021
1.0
1031
0.0
1011
0.0
1021
0.0
1031
0.0
1021
0.0
1031
1.0
1040
0.0
1010
0.0
1020
0.0
1030
1.0
1000
SOLID
1070
     1
1070
     0
1071
        1
1071
        0
1071
       24
1070
     1
1040
845.22288052467309
1040
904.93298477469887
1040
846.51697575018579
1040
905.10335564325385
1070
     1
1040
846.51697575018579
1040
905.10335564325385
1040
847.72288052467309
1040
905.60285775577699
1070
     1
1040
847.72288052467309
1040
905.60285775577699
1040
848.75841443060585
1040
906.39745086876644
1070
     1
1040
848.75841443060585
1040
906.39745086876644
1040
849.5530075435953
1040
907.43298477469887
1070
     1
1040
849.5530075435953
1040
907.43298477469887
1040
850.05250965611845
1040
908.6388895491865
1070
     1
1040
850.05250965611845
1040
908.6388895491865
1040
850.22288052467297
1040
909.93298477469909
1070
     1
1040
850.22288052467297
1040
909.93298477469909
1040
850.05250965611845
1040
911.22708000021157
1070
     1
1040
850.05250965611845
1040
911.22708000021157
1040
849.5530075435953
1040
912.43298477469898
1070
     1
1040
849.5530075435953
1040
912.43298477469898
1040
848.75841443060585
1040
913.46851868063175
1070
     1
1040
848.75841443060585
1040
913.46851868063175
1040
847.72288052467309
1040
914.26311179362108
1070
     1
1040
847.72288052467309
1040
914.26311179362108
1040
846.51697575018579
1040
914.76261390614434
1070
     1
1040
846.51697575018579
1040
914.76261390614434
1040
845.22288052467309
1040
914.93298477469898
1070
     1
1040
845.22288052467309
1040
914.93298477469898
1040
843.92878529916084
1040
914.76261390614434
1070
     1
1040
843.92878529916084
1040
914.76261390614434
1040
842.72288052467366
1040
914.26311179362108
1070
     1
1040
842.72288052467366
1040
914.26311179362108
1040
841.68734661874066
1040
913.46851868063175
1070
     1
1040
841.68734661874066
1040
913.46851868063175
1040
840.89275350575133
1040
912.43298477469898
1070
     1
1040
840.89275350575133
1040
912.43298477469898
1040
840.39325139322796
1040
911.22708000021157
1070
     1
1040
840.39325139322796
1040
911.22708000021157
1040
840.2228805246732
1040
909.93298477469909
1070
     1
1040
840.2228805246732
1040
909.93298477469909
1040
840.39325139322796
1040
908.6388895491865
1070
     1
1040
840.39325139322796
1040
908.6388895491865
1040
840.89275350575133
1040
907.43298477469887
1070
     1
1040
840.89275350575133
1040
907.43298477469887
1040
841.68734661874066
1040
906.39745086876644
1070
     1
1040
841.68734661874066
1040
906.39745086876644
1040
842.72288052467366
1040
905.60285775577699
1070
     1
1040
842.72288052467366
1040
905.60285775577699
1040
843.92878529916084
1040
905.10335564325385
1070
     1
1040
843.92878529916084
1040
905.10335564325385
1040
845.22288052467309
1040
904.93298477469887
1071
        0
1070
     0
1070
     1
1071
        1
1040
0.0
1040
0.0
1040
0.0
1002
}
  0
INSERT
  5
517
  8
0
  6
CONTINUOUS
  2
*U17
 10
0.0
 20
0.0
 30
0.0
1001
REVIT
1002
{
1070
     3
1000
545292
1002
}
1001
ACAD
1002
{
1000
R14_HATCH_DATA
1000
517
1011
1.0
1021
0.0
1031
0.0
1021
0.0
1031
0.0
1011
0.0
1021
0.0
1031
0.0
1021
1.0
1031
0.0
1011
0.0
1021
0.0
1031
0.0
1021
0.0
1031
1.0
1040
0.0
1010
0.0
1020
0.0
1030
1.0
1000
SOLID
1070
     1
1070
     0
1071
        1
1071
        0
1071
       24
1070
     1
1040
1162.83257175012
1040
826.38171451871835
1040
1164.126666975633
1040
826.55208538727288
1070
     1
1040
1164.126666975633
1040
826.55208538727288
1040
1165.33257175012
1040
827.05158749979614
1070
     1
1040
1165.33257175012
1040
827.05158749979614
1040
1166.3681056560531
1040
827.84618061278559
1070
     1
1040
1166.3681056560531
1040
827.84618061278559
1040
1167.162698769042
1040
828.88171451871835
1070
     1
1040
1167.162698769042
1040
828.88171451871835
1040
1167.6622008815659
1040
830.08761929320576
1070
     1
1040
1167.6622008815659
1040
830.08761929320576
1040
1167.8325717501209
1040
831.38171451871847
1070
     1
1040
1167.8325717501209
1040
831.38171451871847
1040
1167.6622008815659
1040
832.67580974423095
1070
     1
1040
1167.6622008815659
1040
832.67580974423095
1040
1167.162698769042
1040
833.88171451871847
1070
     1
1040
1167.162698769042
1040
833.88171451871847
1040
1166.3681056560531
1040
834.91724842465101
1070
     1
1040
1166.3681056560531
1040
834.91724842465101
1040
1165.33257175012
1040
835.71184153764057
1070
     1
1040
1165.33257175012
1040
835.71184153764057
1040
1164.126666975633
1040
836.21134365016394
1070
     1
1040
1164.126666975633
1040
836.21134365016394
1040
1162.83257175012
1040
836.38171451871847
1070
     1
1040
1162.83257175012
1040
836.38171451871847
1040
1161.5384765246081
1040
836.21134365016394
1070
     1
1040
1161.5384765246081
1040
836.21134365016394
1040
1160.33257175012
1040
835.71184153764057
1070
     1
1040
1160.33257175012
1040
835.71184153764057
1040
1159.297037844188
1040
834.91724842465135
1070
     1
1040
1159.297037844188
1040
834.91724842465135
1040
1158.502444731198
1040
833.88171451871847
1070
     1
1040
1158.502444731198
1040
833.88171451871847
1040
1158.002942618675
1040
832.67580974423106
1070
     1
1040
1158.002942618675
1040
832.67580974423106
1040
1157.83257175012
1040
831.38171451871847
1070
     1
1040
1157.83257175012
1040
831.38171451871847
1040
1158.002942618675
1040
830.08761929320576
1070
     1
1040
1158.002942618675
1040
830.08761929320576
1040
1158.502444731198
1040
828.88171451871835
1070
     1
1040
1158.502444731198
1040
828.88171451871835
1040
1159.2970378441869
1040
827.84618061278559
1070
     1
1040
1159.2970378441869
1040
827.84618061278559
1040
1160.33257175012
1040
827.05158749979614
1070
     1
1040
1160.33257175012
1040
827.05158749979614
1040
1161.5384765246081
1040
826.55208538727288
1070
     1
1040
1161.5384765246081
1040
826.55208538727288
1040
1162.83257175012
1040
826.38171451871835
1071
        0
1070
     0
1070
     1
1071
        1
1040
0.0
1040
0.0
1040
0.0
1002
}
  0
INSERT
  5
518
  8
0
  6
CONTINUOUS
  2
*U18
 10
0.0
 20
0.0
 30
0.0
1001
REVIT
1002
{
1070
     3
1000
545292
1002
}
1001
ACAD
1002
{
1000
R14_HATCH_DATA
1000
518
1011
1.0
1021
0.0
1031
0.0
1021
0.0
1031
0.0
1011
0.0
1021
0.0
1031
0.0
1021
1.0
1031
0.0
1011
0.0
1021
0.0
1031
0.0
1021
0.0
1031
1.0
1040
0.0
1010
0.0
1020
0.0
1030
1.0
1000
SOLID
1070
     1
1070
     0
1071
        1
1071
        0
1071
       24
1070
     1
1040
341.59534287577787
1040
318.5501149223989
1040
342.88943810129041
1040
318.72048579095349
1070
     1
1040
342.88943810129041
1040
318.72048579095349
1040
344.09534287577782
1040
319.21998790347641
1070
     1
1040
344.09534287577782
1040
319.21998790347641
1040
345.13087678171053
1040
320.01458101646608
1070
     1
1040
345.13087678171053
1040
320.01458101646608
1040
345.92546989469992
1040
321.05011492239862
1070
     1
1040
345.92546989469992
1040
321.05011492239862
1040
346.42497200722318
1040
322.25601969688591
1070
     1
1040
346.42497200722318
1040
322.25601969688591
1040
346.59534287577787
1040
323.55011492239879
1070
     1
1040
346.59534287577787
1040
323.55011492239879
1040
346.42497200722318
1040
324.84421014791138
1070
     1
1040
346.42497200722318
1040
324.84421014791138
1040
345.92546989469992
1040
326.05011492239879
1070
     1
1040
345.92546989469992
1040
326.05011492239879
1040
345.13087678171053
1040
327.0856488283315
1070
     1
1040
345.13087678171053
1040
327.0856488283315
1040
344.09534287577782
1040
327.88024194132089
1070
     1
1040
344.09534287577782
1040
327.88024194132089
1040
342.88943810129041
1040
328.37974405384409
1070
     1
1040
342.88943810129041
1040
328.37974405384409
1040
341.59534287577787
1040
328.55011492239868
1070
     1
1040
341.59534287577787
1040
328.55011492239868
1040
340.30124765026522
1040
328.37974405384409
1070
     1
1040
340.30124765026522
1040
328.37974405384409
1040
339.09534287577782
1040
327.88024194132117
1070
     1
1040
339.09534287577782
1040
327.88024194132117
1040
338.05980896984511
1040
327.0856488283315
1070
     1
1040
338.05980896984511
1040
327.0856488283315
1040
337.26521585685572
1040
326.05011492239879
1070
     1
1040
337.26521585685572
1040
326.05011492239879
1040
336.76571374433269
1040
324.84421014791138
1070
     1
1040
336.76571374433269
1040
324.84421014791138
1040
336.5953428757777
1040
323.55011492239879
1070
     1
1040
336.5953428757777
1040
323.55011492239879
1040
336.76571374433269
1040
322.2560196968862
1070
     1
1040
336.76571374433269
1040
322.2560196968862
1040
337.26521585685572
1040
321.05011492239879
1070
     1
1040
337.26521585685572
1040
321.05011492239879
1040
338.05980896984511
1040
320.01458101646608
1070
     1
1040
338.05980896984511
1040
320.01458101646608
1040
339.09534287577782
1040
319.21998790347641
1070
     1
1040
339.09534287577782
1040
319.21998790347641
1040
340.30124765026522
1040
318.72048579095349
1070
     1
1040
340.30124765026522
1040
318.72048579095349
1040
341.59534287577787
1040
318.5501149223989
1071
        0
1070
     0
1070
     1
1071
        1
1040
0.0
1040
0.0
1040
0.0
1002
}
  0
INSERT
  5
519
  8
0
  6
CONTINUOUS
  2
*U19
 10
0.0
 20
0.0
 30
0.0
1001
REVIT
1002
{
1070
     3
1000
545292
1002
}
1001
ACAD
1002
{
1000
R14_HATCH_DATA
1000
519
1011
1.0
1021
0.0
1031
0.0
1021
0.0
1031
0.0
1011
0.0
1021
0.0
1031
0.0
1021
1.0
1031
0.0
1011
0.0
1021
0.0
1031
0.0
1021
0.0
1031
1.0
1040
0.0
1010
0.0
1020
0.0
1030
1.0
1000
SOLID
1070
     1
1070
     0
1071
        1
1071
        0
1071
       24
1070
     1
1040
575.58178472362351
1040
736.37121894492191
1040
576.87587994913633
1040
736.54158981347643
1070
     1
1040
576.87587994913633
1040
736.54158981347643
1040
578.08178472362374
1040
737.04109192599958
1070
     1
1040
578.08178472362374
1040
737.04109192599958
1040
579.11731862955639
1040
737.83568503898914
1070
     1
1040
579.11731862955639
1040
737.83568503898914
1040
579.91191174254584
1040
738.87121894492179
1070
     1
1040
579.91191174254584
1040
738.87121894492179
1040
580.41141385506899
1040
740.0771237194092
1070
     1
1040
580.41141385506899
1040
740.0771237194092
1040
580.58178472362363
1040
741.37121894492179
1070
     1
1040
580.58178472362363
1040
741.37121894492179
1040
580.41141385506899
1040
742.66531417043439
1070
     1
1040
580.41141385506899
1040
742.66531417043439
1040
579.91191174254584
1040
743.87121894492168
1070
     1
1040
579.91191174254584
1040
743.87121894492168
1040
579.11731862955639
1040
744.90675285085445
1070
     1
1040
579.11731862955639
1040
744.90675285085445
1040
578.08178472362374
1040
745.70134596384389
1070
     1
1040
578.08178472362374
1040
745.70134596384389
1040
576.87587994913633
1040
746.20084807636704
1070
     1
1040
576.87587994913633
1040
746.20084807636704
1040
575.58178472362351
1040
746.37121894492179
1070
     1
1040
575.58178472362351
1040
746.37121894492179
1040
574.28768949811092
1040
746.20084807636715
1070
     1
1040
574.28768949811092
1040
746.20084807636715
1040
573.0817847236234
1040
745.70134596384423
1070
     1
1040
573.0817847236234
1040
745.70134596384423
1040
572.04625081769086
1040
744.90675285085456
1070
     1
1040
572.04625081769086
1040
744.90675285085456
1040
571.25165770470119
1040
743.87121894492202
1070
     1
1040
571.25165770470119
1040
743.87121894492202
1040
570.75215559217816
1040
742.6653141704345
1070
     1
1040
570.75215559217816
1040
742.6653141704345
1040
570.58178472362351
1040
741.37121894492179
1070
     1
1040
570.58178472362351
1040
741.37121894492179
1040
570.75215559217816
1040
740.0771237194092
1070
     1
1040
570.75215559217816
1040
740.0771237194092
1040
571.25165770470119
1040
738.87121894492179
1070
     1
1040
571.25165770470119
1040
738.87121894492179
1040
572.04625081769075
1040
737.83568503898914
1070
     1
1040
572.04625081769075
1040
737.83568503898914
1040
573.0817847236234
1040
737.04109192599958
1070
     1
1040
573.0817847236234
1040
737.04109192599958
1040
574.28768949811092
1040
736.54158981347655
1070
     1
1040
574.28768949811092
1040
736.54158981347655
1040
575.58178472362351
1040
736.37121894492191
1071
        0
1070
     0
1070
     1
1071
        1
1040
0.0
1040
0.0
1040
0.0
1002
}
  0
INSERT
  5
51A
  8
0
  6
CONTINUOUS
  2
*U20
 10
0.0
 20
0.0
 30
0.0
1001
REVIT
1002
{
1070
     3
1000
545292
1002
}
1001
ACAD
1002
{
1000
R14_HATCH_DATA
1000
51A
1011
1.0
1021
0.0
1031
0.0
1021
0.0
1031
0.0
1011
0.0
1021
0.0
1031
0.0
1021
1.0
1031
0.0
1011
0.0
1021
0.0
1031
0.0
1021
0.0
1031
1.0
1040
0.0
1010
0.0
1020
0.0
1030
1.0
1000
SOLID
1070
     1
1070
     0
1071
        1
1071
        0
1071
       24
1070
     1
1040
337.5972148059322
1040
425.91431456878013
1040
338.89131003144468
1040
426.084685437335
1070
     1
1040
338.89131003144468
1040
426.084685437335
1040
340.09721480593208
1040
426.58418754985809
1070
     1
1040
340.09721480593208
1040
426.58418754985809
1040
341.13274871186479
1040
427.37878066284742
1070
     1
1040
341.13274871186479
1040
427.37878066284742
1040
341.92734182485418
1040
428.41431456878013
1070
     1
1040
341.92734182485418
1040
428.41431456878013
1040
342.4268439373775
1040
429.62021934326759
1070
     1
1040
342.4268439373775
1040
429.62021934326759
1040
342.5972148059322
1040
430.91431456878018
1070
     1
1040
342.5972148059322
1040
430.91431456878018
1040
342.4268439373775
1040
432.208409794293
1070
     1
1040
342.4268439373775
1040
432.208409794293
1040
341.92734182485418
1040
433.4143145687803
1070
     1
1040
341.92734182485418
1040
433.4143145687803
1040
341.13274871186479
1040
434.44984847471312
1070
     1
1040
341.13274871186479
1040
434.44984847471312
1040
340.09721480593208
1040
435.24444158770251
1070
     1
1040
340.09721480593208
1040
435.24444158770251
1040
338.89131003144468
1040
435.74394370022549
1070
     1
1040
338.89131003144468
1040
435.74394370022549
1040
337.5972148059322
1040
435.91431456878041
1070
     1
1040
337.5972148059322
1040
435.91431456878041
1040
336.30311958041949
1040
435.74394370022549
1070
     1
1040
336.30311958041949
1040
435.74394370022549
1040
335.09721480593208
1040
435.24444158770251
1070
     1
1040
335.09721480593208
1040
435.24444158770251
1040
334.06168089999937
1040
434.44984847471312
1070
     1
1040
334.06168089999937
1040
434.44984847471312
1040
333.26708778700998
1040
433.4143145687803
1070
     1
1040
333.26708778700998
1040
433.4143145687803
1040
332.76758567448672
1040
432.208409794293
1070
     1
1040
332.76758567448672
1040
432.208409794293
1040
332.59721480593208
1040
430.91431456878018
1070
     1
1040
332.59721480593208
1040
430.91431456878018
1040
332.76758567448672
1040
429.62021934326759
1070
     1
1040
332.76758567448672
1040
429.62021934326759
1040
333.26708778700998
1040
428.41431456878013
1070
     1
1040
333.26708778700998
1040
428.41431456878013
1040
334.06168089999937
1040
427.37878066284742
1070
     1
1040
334.06168089999937
1040
427.37878066284742
1040
335.09721480593208
1040
426.58418754985809
1070
     1
1040
335.09721480593208
1040
426.58418754985809
1040
336.30311958041949
1040
426.084685437335
1070
     1
1040
336.30311958041949
1040
426.084685437335
1040
337.5972148059322
1040
425.91431456878013
1071
        0
1070
     0
1070
     1
1071
        1
1040
0.0
1040
0.0
1040
0.0
1002
}
  0
INSERT
  5
51B
  8
0
  6
CONTINUOUS
  2
*U21
 10
0.0
 20
0.0
 30
0.0
1001
REVIT
1002
{
1070
     3
1000
545393
1002
}
1001
ACAD
1002
{
1000
R14_HATCH_DATA
1000
51B
1011
1.0
1021
0.0
1031
0.0
1021
0.0
1031
0.0
1011
0.0
1021
0.0
1031
0.0
1021
1.0
1031
0.0
1011
0.0
1021
0.0
1031
0.0
1021
0.0
1031
1.0
1040
0.0
1010
0.0
1020
0.0
1030
1.0
1000
SOLID
1070
     1
1070
     0
1071
        1
1071
        0
1071
       24
1070
     1
1040
1213.076395801357
1040
678.45141690198977
1040
1214.3704910268691
1040
678.62178777054442
1070
     1
1040
1214.3704910268691
1040
678.62178777054442
1040
1215.576395801357
1040
679.12128988306745
1070
     1
1040
1215.576395801357
1040
679.12128988306745
1040
1216.6119297072901
1040
679.91588299605678
1070
     1
1040
1216.6119297072901
1040
679.91588299605678
1040
1217.406522820279
1040
680.95141690198955
1070
     1
1040
1217.406522820279
1040
680.95141690198955
1040
1217.9189875311599
1040
682.25578238626076
1070
     1
1040
1217.9189875311599
1040
682.25578238626076
1040
1218.076395801357
1040
683.45141690198966
1070
     1
1040
1218.076395801357
1040
683.45141690198966
1040
1217.906024932802
1040
684.74551212750225
1070
     1
1040
1217.906024932802
1040
684.74551212750225
1040
1217.406522820279
1040
685.95141690198955
1070
     1
1040
1217.406522820279
1040
685.95141690198955
1040
1216.6119297072901
1040
686.98695080792243
1070
     1
1040
1216.6119297072901
1040
686.98695080792243
1040
1215.576395801357
1040
687.78154392091164
1070
     1
1040
1215.576395801357
1040
687.78154392091164
1040
1214.3704910268691
1040
688.2810460334349
1070
     1
1040
1214.3704910268691
1040
688.2810460334349
1040
1213.076395801357
1040
688.45141690198955
1070
     1
1040
1213.076395801357
1040
688.45141690198955
1040
1211.7823005758439
1040
688.2810460334349
1070
     1
1040
1211.7823005758439
1040
688.2810460334349
1040
1210.576395801357
1040
687.78154392091164
1070
     1
1040
1210.576395801357
1040
687.78154392091164
1040
1209.5408618954241
1040
686.98695080792243
1070
     1
1040
1209.5408618954241
1040
686.98695080792243
1040
1208.746268782435
1040
685.95141690198955
1070
     1
1040
1208.746268782435
1040
685.95141690198955
1040
1208.246766669911
1040
684.74551212750225
1070
     1
1040
1208.246766669911
1040
684.74551212750225
1040
1208.076395801357
1040
683.45141690198966
1070
     1
1040
1208.076395801357
1040
683.45141690198966
1040
1208.246766669911
1040
682.15732167647695
1070
     1
1040
1208.246766669911
1040
682.15732167647695
1040
1208.746268782435
1040
680.95141690198955
1070
     1
1040
1208.746268782435
1040
680.95141690198955
1040
1209.5408618954241
1040
679.91588299605678
1070
     1
1040
1209.5408618954241
1040
679.91588299605678
1040
1210.576395801357
1040
679.12128988306745
1070
     1
1040
1210.576395801357
1040
679.12128988306745
1040
1211.7823005758439
1040
678.62178777054442
1070
     1
1040
1211.7823005758439
1040
678.62178777054442
1040
1213.076395801357
1040
678.45141690198977
1071
        0
1070
     0
1070
     1
1071
        1
1040
0.0
1040
0.0
1040
0.0
1002
}
  0
LINE
  5
51C
  8
0
 10
1215.1905142633079
 20
687.98247672600735
 30
0.0
 11
1279.178625067548
 21
825.12425155929338
 31
0.0
1001
REVIT
1002
{
1070
     3
1000
545393
1002
}
  0
LINE
  5
51D
  8
0
 10
795.57735195464295
 20
-193.21470371693189
 30
0.0
 11
1080.290438333361
 21
-245.66853808702669
 31
0.0
1001
REVIT
1002
{
1070
     3
1000
545292
1002
}
  0
LINE
  5
51E
  8
0
 10
1219.6817047557529
 20
292.86829680721888
 30
0.0
 11
1373.158501582948
 21
176.11216441056331
 31
0.0
1001
REVIT
1002
{
1070
     3
1000
545292
1002
}
  0
LINE
  5
51F
  8
0
 10
849.95249604950118
 20
911.55493945572232
 30
0.0
 11
1279.178625067548
 21
1058.7519632992139
 31
0.0
1001
REVIT
1002
{
1070
     3
1000
545292
1002
}
  0
LINE
  5
520
  8
0
 10
1166.25291979179
 20
835.02879818568192
 30
0.0
 11
1279.178625067548
 21
955.44037334528446
 31
0.0
1001
REVIT
1002
{
1070
     3
1000
545292
1002
}
  0
LINE
  5
521
  8
0
 10
341.69451889191231
 20
318.5510986073798
 30
0.0
 11
353.56772714585259
 21
-279.92385618873828
 31
0.0
1001
REVIT
1002
{
1070
     3
1000
545292
1002
}
  0
LINE
  5
522
  8
0
 10
570.58178472362306
 20
741.37121894492111
 30
0.0
 11
66.62567922420385
 21
741.37121894492111
 31
0.0
1001
REVIT
1002
{
1070
     3
1000
545292
1002
}
  0
LINE
  5
523
  8
0
 10
333.8319975273667
 20
434.20416849337818
 30
0.0
 11
100.52069563143959
 21
638.05962899099131
 31
0.0
1001
REVIT
1002
{
1070
     3
1000
545292
1002
}
  0
LINE
  5
73C
  8
0
 10
1091.7277306015751
 20
852.86372417072653
 30
0.0
 11
1102.504700622769
 21
861.68640809114765
 31
0.0
1001
REVIT
1002
{
1070
     3
1000
545292
1002
}
  0
LINE
  5
73D
  8
0
 10
1091.7277306015731
 20
647.38351809822245
 30
0.0
 11
673.62766203726562
 21
838.63867424501655
 31
0.0
1001
REVIT
1002
{
1070
     3
1000
545292
1002
}
  0
POLYLINE
  5
73E
  8
0
 66
     1
 10
0.0
 20
0.0
 30
0.0
 70
   128
1001
REVIT
1002
{
1070
     3
1000
545292
1002
}
  0
VERTEX
  5
AF3
  8
0
 10
669.3539366920885
 20
1059.017987550023
 30
0.0
  0
VERTEX
  5
AF4
  8
0
 10
669.3539366920885
 20
1110.6840734162049
 30
0.0
  0
VERTEX
  5
AF5
  8
0
 10
1197.8174174249141
 20
868.94442034104725
 30
0.0
  0
VERTEX
  5
AF6
  8
0
 10
1197.8174174249141
 20
663.46421426854045
 30
0.0
  0
VERTEX
  5
AF7
  8
0
 10
1198.3562659259781
 20
663.90534846456171
 30
0.0
  0
VERTEX
  5
AF8
  8
0
 10
1198.3562659259781
 20
869.38555453706545
 30
0.0
  0
VERTEX
  5
AF9
  8
0
 10
669.89278519314587
 20
1111.1252076122239
 30
0.0
  0
VERTEX
  5
AFA
  8
0
 10
669.35393669208725
 20
1110.6840734162081
 30
0.0
  0
SEQEND
  5
AFB
  8
0
  0
LINE
  5
73F
  8
0
 10
1197.8174174249159
 20
868.9444203410452
 30
0.0
 11
1198.356265925976
 21
869.38555453706647
 31
0.0
1001
REVIT
1002
{
1070
     3
1000
545292
1002
}
  0
LINE
  5
740
  8
0
 10
1197.817417424915
 20
663.46421426854215
 30
0.0
 11
1102.504700622778
 21
707.06394051916345
 31
0.0
1001
REVIT
1002
{
1070
     3
1000
545292
1002
}
  0
POLYLINE
  5
741
  8
0
 66
     1
 10
0.0
 20
0.0
 30
0.0
 70
   128
1001
REVIT
1002
{
1070
     3
1000
545292
1002
}
  0
VERTEX
  5
AFC
  8
0
 10
1100.236383885933
 20
654.34921980925265
 30
0.0
  0
VERTEX
  5
AFD
  8
0
 10
1236.391996728782
 20
592.06637186823002
 30
0.0
  0
VERTEX
  5
AFE
  8
0
 10
1236.391996728782
 20
615.87104399746556
 30
0.0
  0
VERTEX
  5
AFF
  8
0
 10
1102.5047006227619
 20
677.11627605579952
 30
0.0
  0
SEQEND
  5
B00
  8
0
  0
POLYLINE
  5
742
  8
0
 66
     1
 10
0.0
 20
0.0
 30
0.0
 70
   128
1001
REVIT
1002
{
1070
     3
1000
545292
1002
}
  0
VERTEX
  5
B01
  8
0
 10
1102.5047006227719
 20
680.13536642317354
 30
0.0
  0
VERTEX
  5
B02
  8
0
 10
1237.4696937308929
 20
618.39715403808009
 30
0.0
  0
VERTEX
  5
B03
  8
0
 10
1236.391996728772
 20
615.87104399745431
 30
0.0
  0
SEQEND
  5
B04
  8
0
  0
POLYLINE
  5
743
  8
0
 66
     1
 10
0.0
 20
0.0
 30
0.0
 70
   128
1001
REVIT
1002
{
1070
     3
1000
545292
1002
}
  0
VERTEX
  5
B05
  8
0
 10
1198.356265925984
 20
716.25020137178888
 30
0.0
  0
VERTEX
  5
B06
  8
0
 10
1237.4696937308911
 20
698.35820540070506
 30
0.0
  0
VERTEX
  5
B07
  8
0
 10
1237.4696937308911
 20
618.39715403808691
 30
0.0
  0
SEQEND
  5
B08
  8
0
  0
POLYLINE
  5
744
  8
0
 66
     1
 10
0.0
 20
0.0
 30
0.0
 70
   128
1001
REVIT
1002
{
1070
     3
1000
545292
1002
}
  0
VERTEX
  5
B09
  8
0
 10
1198.356265925974
 20
716.93782573120052
 30
0.0
  0
VERTEX
  5
B0A
  8
0
 10
1238.0085422319521
 20
698.79933959672644
 30
0.0
  0
VERTEX
  5
B0B
  8
0
 10
1237.4696937308911
 20
698.35820540070506
 30
0.0
  0
SEQEND
  5
B0C
  8
0
  0
POLYLINE
  5
745
  8
0
 66
     1
 10
0.0
 20
0.0
 30
0.0
 70
   128
1001
REVIT
1002
{
1070
     3
1000
545292
1002
}
  0
VERTEX
  5
B0D
  8
0
 10
1236.3919967287741
 20
592.066371868234
 30
0.0
  0
VERTEX
  5
B0E
  8
0
 10
1236.9308452298339
 20
592.50750606425504
 30
0.0
  0
VERTEX
  5
B0F
  8
0
 10
1236.9308452298339
 20
615.72498877567898
 30
0.0
  0
VERTEX
  5
B10
  8
0
 10
1238.0085422319501
 20
618.25109881630544
 30
0.0
  0
VERTEX
  5
B11
  8
0
 10
1238.0085422319501
 20
698.79933959672235
 30
0.0
  0
SEQEND
  5
B12
  8
0
  0
POLYLINE
  5
746
  8
0
 66
     1
 10
0.0
 20
0.0
 30
0.0
 70
   129
1001
REVIT
1002
{
1070
     3
1000
545292
1002
}
  0
VERTEX
  5
B13
  8
0
 10
642.7037931569015
 20
-192.61113746395179
 30
0.0
  0
VERTEX
  5
B14
  8
0
 10
642.51421227079709
 20
-192.67600602112
 30
0.0
  0
VERTEX
  5
B15
  8
0
 10
649.95763951844265
 20
-181.9941471263808
 30
0.0
  0
VERTEX
  5
B16
  8
0
 10
650.14722040446838
 20
-181.9292785691957
 30
0.0
  0
SEQEND
  5
B17
  8
0
  0
LINE
  5
747
  8
0
 10
397.51737524062059
 20
-80.604968858650864
 30
0.0
 11
397.28642579476201
 21
-77.72793604886806
 31
0.0
1001
REVIT
1002
{
1070
     3
1000
545292
1002
}
  0
POLYLINE
  5
748
  8
0
 66
     1
 10
0.0
 20
0.0
 30
0.0
 70
   129
1001
REVIT
1002
{
1070
     3
1000
545292
1002
}
  0
VERTEX
  5
B18
  8
0
 10
467.5342816721901
 20
-112.4818220437989
 30
0.0
  0
VERTEX
  5
B19
  8
0
 10
467.34470078610309
 20
-112.5466906009912
 30
0.0
  0
VERTEX
  5
B1A
  8
0
 10
474.78812803373802
 20
-101.8648317062566
 30
0.0
  0
VERTEX
  5
B1B
  8
0
 10
474.97770891979411
 20
-101.79996314905991
 30
0.0
  0
SEQEND
  5
B1C
  8
0
  0
POLYLINE
  5
749
  8
0
 66
     1
 10
0.0
 20
0.0
 30
0.0
 70
   128
1001
REVIT
1002
{
1070
     3
1000
545292
1002
}
  0
VERTEX
  5
B1D
  8
0
 10
293.44202925980159
 20
-30.59936779970235
 30
0.0
  0
VERTEX
  5
B1E
  8
0
 10
299.61861654904402
 20
-21.73551628612768
 30
0.0
  0
VERTEX
  5
B1F
  8
0
 10
299.80819743509988
 20
-21.670647728931041
 30
0.0
  0
VERTEX
  5
B20
  8
0
 10
293.53136660275231
 20
-30.6783560099691
 30
0.0
  0
SEQEND
  5
B21
  8
0
  0
LINE
  5
74A
  8
0
 10
572.68688672529674
 20
-160.73428427881251
 30
0.0
 11
572.45593727942844
 21
-157.8572514688924
 31
0.0
1001
REVIT
1002
{
1070
     3
1000
545292
1002
}
  0
LINE
  5
74B
  8
0
 10
287.5122641359718
 20
-16.030008769516598
 30
0.0
 11
464.66968803507461
 21
239.0224255534873
 31
0.0
1001
REVIT
1002
{
1070
     3
1000
545292
1002
}
  0
POLYLINE
  5
74C
  8
0
 66
     1
 10
0.0
 20
0.0
 30
0.0
 70
   128
1001
REVIT
1002
{
1070
     3
1000
545292
1002
}
  0
VERTEX
  5
B22
  8
0
 10
934.38740813997299
 20
86.291329277221621
 30
0.0
  0
VERTEX
  5
B23
  8
0
 10
934.74921962353767
 20
85.928772790311086
 30
0.0
  0
VERTEX
  5
B24
  8
0
 10
918.02996375642658
 20
61.858164767668988
 30
0.0
  0
VERTEX
  5
B25
  8
0
 10
917.96639267058265
 20
62.650096088692862
 30
0.0
  0
SEQEND
  5
B26
  8
0
  0
POLYLINE
  5
74D
  8
0
 66
     1
 10
0.0
 20
0.0
 30
0.0
 70
   129
1001
REVIT
1002
{
1070
     3
1000
545292
1002
}
  0
VERTEX
  5
B27
  8
0
 10
646.10089069752371
 20
-168.1716066761507
 30
0.0
  0
VERTEX
  5
B28
  8
0
 10
650.14948433421125
 20
-179.40870483956539
 30
0.0
  0
VERTEX
  5
B29
  8
0
 10
642.70605708601101
 20
-190.09056373516071
 30
0.0
  0
VERTEX
  5
B2A
  8
0
 10
638.65746344973127
 20
-178.8534655709143
 30
0.0
  0
SEQEND
  5
B2B
  8
0
  0
POLYLINE
  5
74E
  8
0
 66
     1
 10
0.0
 20
0.0
 30
0.0
 70
   128
1001
REVIT
1002
{
1070
     3
1000
545292
1002
}
  0
VERTEX
  5
B2C
  8
0
 10
822.88069619096996
 20
90.294901149847306
 30
0.0
  0
VERTEX
  5
B2D
  8
0
 10
817.33567151667216
 20
82.337387874352984
 30
0.0
  0
VERTEX
  5
B2E
  8
0
 10
817.15119461247605
 20
82.849413843722004
 30
0.0
  0
SEQEND
  5
B2F
  8
0
  0
LINE
  5
74F
  8
0
 10
641.15440023824158
 20
-190.84319300625091
 30
0.0
 11
637.10579675725717
 21
-179.6060675186977
 31
0.0
1001
REVIT
1002
{
1070
     3
1000
545292
1002
}
  0
LINE
  5
750
  8
0
 10
573.48273069795175
 20
-159.8875511070143
 30
0.0
 11
569.43413706133049
 21
-148.65045294304741
 31
0.0
1001
REVIT
1002
{
1070
     3
1000
545292
1002
}
  0
LINE
  5
751
  8
0
 10
395.14740140133648
 20
-65.266507776201024
 30
0.0
 11
571.16209772780121
 21
188.14074881296389
 31
0.0
1001
REVIT
1002
{
1070
     3
1000
545292
1002
}
  0
POLYLINE
  5
752
  8
0
 66
     1
 10
0.0
 20
0.0
 30
0.0
 70
   128
1001
REVIT
1002
{
1070
     3
1000
545292
1002
}
  0
VERTEX
  5
B30
  8
0
 10
472.54167322163681
 20
250.5535319902028
 30
0.0
  0
VERTEX
  5
B31
  8
0
 10
466.99664854728911
 20
242.59601871452719
 30
0.0
  0
VERTEX
  5
B32
  8
0
 10
466.81217164309561
 20
243.1080446839409
 30
0.0
  0
SEQEND
  5
B33
  8
0
  0
LINE
  5
753
  8
0
 10
465.98489542107069
 20
-110.7138960922459
 30
0.0
 11
461.93628527254123
 21
-99.4767520985895
 31
0.0
1001
REVIT
1002
{
1070
     3
1000
545292
1002
}
  0
POLYLINE
  5
754
  8
0
 66
     1
 10
0.0
 20
0.0
 30
0.0
 70
   129
1001
REVIT
1002
{
1070
     3
1000
545292
1002
}
  0
VERTEX
  5
B34
  8
0
 10
463.48795196467989
 20
-98.724150151016161
 30
0.0
  0
VERTEX
  5
B35
  8
0
 10
470.93137921241799
 20
-88.042291255701016
 30
0.0
  0
VERTEX
  5
B36
  8
0
 10
474.97997284946479
 20
-99.279389419524264
 30
0.0
  0
VERTEX
  5
B37
  8
0
 10
467.53654560156519
 20
-109.96124831454451
 30
0.0
  0
SEQEND
  5
B38
  8
0
  0
LINE
  5
755
  8
0
 10
742.52917995527105
 20
-212.27360861368291
 30
0.0
 11
742.03188119410174
 21
-210.8933280773544
 31
0.0
1001
REVIT
1002
{
1070
     3
1000
545292
1002
}
  0
POLYLINE
  5
756
  8
0
 66
     1
 10
0.0
 20
0.0
 30
0.0
 70
   129
1001
REVIT
1002
{
1070
     3
1000
545292
1002
}
  0
VERTEX
  5
B39
  8
0
 10
466.01420680604599
 20
239.7526408085165
 30
0.0
  0
VERTEX
  5
B3A
  8
0
 10
473.45763405365238
 20
250.4344997032442
 30
0.0
  0
VERTEX
  5
B3B
  8
0
 10
296.30024728866471
 20
-4.6178811579989079
 30
0.0
  0
VERTEX
  5
B3C
  8
0
 10
288.85682004146162
 20
-15.29974005256781
 30
0.0
  0
SEQEND
  5
B3D
  8
0
  0
LINE
  5
757
  8
0
 10
637.85128710520553
 20
-176.2886396096321
 30
0.0
 11
815.00869401818022
 21
78.763770258397017
 31
0.0
1001
REVIT
1002
{
1070
     3
1000
545292
1002
}
  0
POLYLINE
  5
758
  8
0
 66
     1
 10
0.0
 20
0.0
 30
0.0
 70
   129
1001
REVIT
1002
{
1070
     3
1000
545292
1002
}
  0
VERTEX
  5
B3E
  8
0
 10
823.79665702315742
 20
90.175868862962034
 30
0.0
  0
VERTEX
  5
B3F
  8
0
 10
646.63927025798216
 20
-164.8765119982547
 30
0.0
  0
VERTEX
  5
B40
  8
0
 10
639.1958430103125
 20
-175.55837089250369
 30
0.0
  0
VERTEX
  5
B41
  8
0
 10
816.35322977517865
 20
79.494009968413366
 30
0.0
  0
SEQEND
  5
B42
  8
0
  0
POLYLINE
  5
759
  8
0
 66
     1
 10
0.0
 20
0.0
 30
0.0
 70
   128
1001
REVIT
1002
{
1070
     3
1000
545292
1002
}
  0
VERTEX
  5
B43
  8
0
 10
647.71118470630699
 20
170.42421657002339
 30
0.0
  0
VERTEX
  5
B44
  8
0
 10
642.16616003197282
 20
162.4667032944437
 30
0.0
  0
VERTEX
  5
B45
  8
0
 10
641.98168312777284
 20
162.9787292638247
 30
0.0
  0
SEQEND
  5
B46
  8
0
  0
LINE
  5
75A
  8
0
 10
570.31691288602315
 20
-145.3958231963779
 30
0.0
 11
746.33160921248725
 21
108.0114333927871
 31
0.0
1001
REVIT
1002
{
1070
     3
1000
545292
1002
}
  0
LINE
  5
75B
  8
0
 10
462.6817756206658
 20
-96.15932418962575
 30
0.0
 11
639.83918253354489
 21
158.8930856784223
 31
0.0
1001
REVIT
1002
{
1070
     3
1000
545292
1002
}
  0
LINE
  5
75C
  8
0
 10
472.6632715006366
 20
-84.022950651873771
 30
0.0
 11
649.55828158854945
 21
170.65168814967171
 31
0.0
1001
REVIT
1002
{
1070
     3
1000
545292
1002
}
  0
LINE
  5
75D
  8
0
 10
567.77280429394557
 20
-127.52973267153919
 30
0.0
 11
741.16138295301585
 21
122.0967187493664
 31
0.0
1001
REVIT
1002
{
1070
     3
1000
545292
1002
}
  0
POLYLINE
  5
75E
  8
0
 66
     1
 10
0.0
 20
0.0
 30
0.0
 70
   128
1001
REVIT
1002
{
1070
     3
1000
545292
1002
}
  0
VERTEX
  5
B47
  8
0
 10
745.22791688800953
 20
109.0727510847013
 30
0.0
  0
VERTEX
  5
B48
  8
0
 10
569.62905613930923
 20
-143.7358296259606
 30
0.0
  0
VERTEX
  5
B49
  8
0
 10
568.4551561464076
 20
-129.11207167148629
 30
0.0
  0
VERTEX
  5
B4A
  8
0
 10
741.76982062052514
 20
120.40796595998719
 30
0.0
  0
SEQEND
  5
B4B
  8
0
  0
POLYLINE
  5
75F
  8
0
 66
     1
 10
0.0
 20
0.0
 30
0.0
 70
   129
1001
REVIT
1002
{
1070
     3
1000
545292
1002
}
  0
VERTEX
  5
B4C
  8
0
 10
648.62714553853664
 20
170.30518428303139
 30
0.0
  0
VERTEX
  5
B4D
  8
0
 10
471.46975877338241
 20
-84.747196578119201
 30
0.0
  0
VERTEX
  5
B4E
  8
0
 10
464.02633152597991
 20
-95.429055472584423
 30
0.0
  0
VERTEX
  5
B4F
  8
0
 10
641.18371829084617
 20
159.62332538833249
 30
0.0
  0
SEQEND
  5
B50
  8
0
  0
LINE
  5
760
  8
0
 10
475.99743252505129
 20
-98.584041748156778
 30
0.0
 11
471.94883888843009
 21
-87.346943584190285
 31
0.0
1001
REVIT
1002
{
1070
     3
1000
545292
1002
}
  0
LINE
  5
761
  8
0
 10
651.16694400976678
 20
-178.71335716871519
 30
0.0
 11
647.11835037314563
 21
-167.4762590047487
 31
0.0
1001
REVIT
1002
{
1070
     3
1000
545292
1002
}
  0
POLYLINE
  5
762
  8
0
 66
     1
 10
0.0
 20
0.0
 30
0.0
 70
   128
1001
REVIT
1002
{
1070
     3
1000
545292
1002
}
  0
VERTEX
  5
B51
  8
0
 10
288.39735861402249
 20
-18.481581475147092
 30
0.0
  0
VERTEX
  5
B52
  8
0
 10
292.44595225055582
 20
-29.718679638898951
 30
0.0
  0
VERTEX
  5
B53
  8
0
 10
299.81046136458508
 20
-19.150073999768431
 30
0.0
  0
VERTEX
  5
B54
  8
0
 10
295.76186772799377
 20
-7.9129758355907143
 30
0.0
  0
VERTEX
  5
B55
  8
0
 10
288.31844047995702
 20
-18.594834730904491
 30
0.0
  0
SEQEND
  5
B56
  8
0
  0
LINE
  5
763
  8
0
 10
398.31321921329959
 20
-79.758235686864282
 30
0.0
 11
394.26462557667833
 21
-68.521137522897561
 31
0.0
1001
REVIT
1002
{
1070
     3
1000
545292
1002
}
  0
POLYLINE
  5
764
  8
0
 66
     1
 10
0.0
 20
0.0
 30
0.0
 70
   128
1001
REVIT
1002
{
1070
     3
1000
545292
1002
}
  0
VERTEX
  5
B57
  8
0
 10
570.05840540342535
 20
189.20206650475299
 30
0.0
  0
VERTEX
  5
B58
  8
0
 10
394.45954465474063
 20
-63.606514205890328
 30
0.0
  0
VERTEX
  5
B59
  8
0
 10
393.28564466177909
 20
-48.982756251387862
 30
0.0
  0
VERTEX
  5
B5A
  8
0
 10
566.60030913589651
 20
200.53728138008589
 30
0.0
  0
SEQEND
  5
B5B
  8
0
  0
LINE
  5
765
  8
0
 10
392.603316876642
 20
-47.400382601701487
 30
0.0
 11
565.99187146829547
 21
202.22603416949229
 31
0.0
1001
REVIT
1002
{
1070
     3
1000
545292
1002
}
  0
LINE
  5
766
  8
0
 10
742.94233984614823
 20
-207.65901344190269
 30
0.0
 11
918.43775887995344
 21
45.000642879361067
 31
0.0
1001
REVIT
1002
{
1070
     3
1000
545292
1002
}
  0
LINE
  5
767
  8
0
 10
918.99578371869859
 20
45.804027746929698
 30
0.0
 11
920.09970254370751
 21
47.393332769644978
 31
0.0
1001
REVIT
1002
{
1070
     3
1000
545292
1002
}
  0
POLYLINE
  5
768
  8
0
 66
     1
 10
0.0
 20
0.0
 30
0.0
 70
   128
1001
REVIT
1002
{
1070
     3
1000
545292
1002
}
  0
VERTEX
  5
B5C
  8
0
 10
919.01653385798704
 20
43.269184901117342
 30
0.0
  0
VERTEX
  5
B5D
  8
0
 10
920.78205439623025
 20
45.810993769270908
 30
0.0
  0
VERTEX
  5
B5E
  8
0
 10
920.98356610889482
 20
43.300678979399663
 30
0.0
  0
VERTEX
  5
B5F
  8
0
 10
743.82617934393056
 20
-211.7517018818701
 30
0.0
  0
VERTEX
  5
B60
  8
0
 10
743.62466763145301
 20
-209.2413870916983
 30
0.0
  0
VERTEX
  5
B61
  8
0
 10
918.62230927561927
 20
42.701622237401807
 30
0.0
  0
SEQEND
  5
B62
  8
0
  0
LINE
  5
769
  8
0
 10
297.4937600159555
 20
-3.8936352317712131
 30
0.0
 11
474.38877010391423
 21
250.78100356982949
 31
0.0
1001
REVIT
1002
{
1070
     3
1000
545292
1002
}
  0
POLYLINE
  5
76A
  8
0
 66
     1
 10
0.0
 20
0.0
 30
0.0
 70
   128
1001
REVIT
1002
{
1070
     3
1000
545292
1002
}
  0
VERTEX
  5
B63
  8
0
 10
746.90504126792553
 20
-226.9029164008123
 30
0.0
  0
VERTEX
  5
B64
  8
0
 10
742.85644763133041
 20
-215.66581823694489
 30
0.0
  0
VERTEX
  5
B65
  8
0
 10
743.38270148159461
 20
-215.4762151953625
 30
0.0
  0
SEQEND
  5
B66
  8
0
  0
LINE
  5
76B
  8
0
 10
300.82792104035741
 20
-18.45472632821156
 30
0.0
 11
296.7793274037362
 21
-7.2176281642448421
 31
0.0
1001
REVIT
1002
{
1070
     3
1000
545292
1002
}
  0
LINE
  5
76C
  8
0
 10
392.19015698595092
 20
-52.01497777354848
 30
0.0
 11
391.69285822473432
 21
-50.634697237081127
 31
0.0
1001
REVIT
1002
{
1070
     3
1000
545292
1002
}
  0
POLYLINE
  5
76D
  8
0
 66
     1
 10
0.0
 20
0.0
 30
0.0
 70
   128
1001
REVIT
1002
{
1070
     3
1000
545292
1002
}
  0
VERTEX
  5
B67
  8
0
 10
747.12782399348782
 20
-229.10053182982571
 30
0.0
  0
VERTEX
  5
B68
  8
0
 10
746.91950194954154
 20
-229.19229531019121
 30
0.0
  0
VERTEX
  5
B69
  8
0
 10
746.68718677635366
 20
-226.29824906967269
 30
0.0
  0
SEQEND
  5
B6A
  8
0
  0
LINE
  5
76E
  8
0
 10
567.35966847055329
 20
-132.14429319324631
 30
0.0
 11
566.86239302899833
 21
-130.7640773818375
 31
0.0
1001
REVIT
1002
{
1070
     3
1000
545292
1002
}
  0
LINE
  5
76F
  8
0
 10
921.53465569834873
 20
45.525035208096597
 30
0.0
 11
917.06023204382768
 21
57.944048412608701
 31
0.0
1001
REVIT
1002
{
1070
     3
1000
545292
1002
}
  0
LINE
  5
770
  8
0
 10
647.83278298539869
 20
-164.1522660720554
 30
0.0
 11
824.7277930732829
 21
90.522372729442154
 31
0.0
1001
REVIT
1002
{
1070
     3
1000
545292
1002
}
  0
POLYLINE
  5
771
  8
0
 66
     1
 10
0.0
 20
0.0
 30
0.0
 70
   128
1001
REVIT
1002
{
1070
     3
1000
545292
1002
}
  0
VERTEX
  5
B6B
  8
0
 10
743.07497784330474
 20
-213.99942478357571
 30
0.0
  0
VERTEX
  5
B6C
  8
0
 10
743.13929259019824
 20
-214.8006201981627
 30
0.0
  0
VERTEX
  5
B6D
  8
0
 10
747.18788622687805
 20
-226.0377183618709
 30
0.0
  0
VERTEX
  5
B6E
  8
0
 10
746.98637451388493
 20
-223.5274035721115
 30
0.0
  0
VERTEX
  5
B6F
  8
0
 10
743.29373004038973
 20
-213.27826222637779
 30
0.0
  0
SEQEND
  5
B70
  8
0
  0
POLYLINE
  5
772
  8
0
 66
     1
 10
0.0
 20
0.0
 30
0.0
 70
   128
1001
REVIT
1002
{
1070
     3
1000
545292
1002
}
  0
VERTEX
  5
B71
  8
0
 10
917.27876225583736
 20
59.610441865935393
 30
0.0
  0
VERTEX
  5
B72
  8
0
 10
917.34307700271222
 20
58.809246451469562
 30
0.0
  0
VERTEX
  5
B73
  8
0
 10
921.81750065716551
 20
46.390233246887419
 30
0.0
  0
VERTEX
  5
B74
  8
0
 10
921.61598894376334
 20
48.900548037184983
 30
0.0
  0
VERTEX
  5
B75
  8
0
 10
917.49751445264656
 20
60.33160442275107
 30
0.0
  0
SEQEND
  5
B76
  8
0
  0
POLYLINE
  5
773
  8
0
 66
     1
 10
0.0
 20
0.0
 30
0.0
 70
   128
1001
REVIT
1002
{
1070
     3
1000
545292
1002
}
  0
VERTEX
  5
B77
  8
0
 10
934.74921962351459
 20
85.928772790347466
 30
0.0
  0
VERTEX
  5
B78
  8
0
 10
934.93257401176834
 20
85.563691195409078
 30
0.0
  0
VERTEX
  5
B79
  8
0
 10
917.89416659213578
 20
61.033602680221748
 30
0.0
  0
SEQEND
  5
B7A
  8
0
  0
LINE
  5
774
  8
0
 10
920.84776894464756
 20
42.476116891901931
 30
0.0
 11
743.69038217964032
 21
-212.576263969378
 31
0.0
1001
REVIT
1002
{
1070
     3
1000
545292
1002
}
  0
LINE
  5
775
  8
0
 10
916.96875965374829
 20
58.398858588688427
 30
0.0
 11
916.76620300768514
 21
60.922190543205261
 31
0.0
1001
REVIT
1002
{
1070
     3
1000
545292
1002
}
  0
LINE
  5
776
  8
0
 10
568.50419405301386
 20
-146.4021219603726
 30
0.0
 11
567.33034657740495
 21
-131.7790182395413
 31
0.0
1001
REVIT
1002
{
1070
     3
1000
545292
1002
}
  0
LINE
  5
777
  8
0
 10
397.63586459585463
 20
-78.697822993462069
 30
0.0
 11
393.58543719194938
 21
-67.455635105739702
 31
0.0
1001
REVIT
1002
{
1070
     3
1000
545292
1002
}
  0
LINE
  5
778
  8
0
 10
572.80537608053555
 20
-158.82713841358549
 30
0.0
 11
568.75494867662781
 21
-147.58495052584681
 31
0.0
1001
REVIT
1002
{
1070
     3
1000
545292
1002
}
  0
LINE
  5
779
  8
0
 10
742.76497524119236
 20
-215.2110080609657
 30
0.0
 11
742.49985806212032
 21
-211.908333659665
 31
0.0
1001
REVIT
1002
{
1070
     3
1000
545292
1002
}
  0
LINE
  5
77A
  8
0
 10
393.3346825683355
 20
-66.272806540291413
 30
0.0
 11
392.16083509278172
 21
-51.649702819394172
 31
0.0
1001
REVIT
1002
{
1070
     3
1000
545292
1002
}
  0
LINE
  5
77B
  8
0
 10
743.36072078561244
 20
-213.13596360794281
 30
0.0
 11
746.82206411863979
 21
-222.7431156966484
 31
0.0
1001
REVIT
1002
{
1070
     3
1000
545292
1002
}
  0
LINE
  5
77C
  8
0
 10
917.56450519785483
 20
60.473903041100812
 30
0.0
 11
921.45167854858914
 21
49.684835912364413
 31
0.0
1001
REVIT
1002
{
1070
     3
1000
545292
1002
}
  0
LINE
  5
77D
  8
0
 10
747.14913054525425
 20
-224.29794256093831
 30
0.0
 11
747.3554323922142
 21
-226.86793003210499
 31
0.0
1001
REVIT
1002
{
1070
     3
1000
545292
1002
}
  0
LINE
  5
77E
  8
0
 10
921.70316944847355
 20
48.49920365580828
 30
0.0
 11
921.9089730469708
 21
45.935423070761772
 31
0.0
1001
REVIT
1002
{
1070
     3
1000
545292
1002
}
  0
POLYLINE
  5
77F
  8
0
 66
     1
 10
0.0
 20
0.0
 30
0.0
 70
   129
1001
REVIT
1002
{
1070
     3
1000
545292
1002
}
  0
VERTEX
  5
B7B
  8
0
 10
814.4333817377651
 20
78.949154908659011
 30
0.0
  0
VERTEX
  5
B7C
  8
0
 10
814.24380085167138
 20
78.884286351495575
 30
0.0
  0
VERTEX
  5
B7D
  8
0
 10
821.68722809931683
 20
89.566145246235465
 30
0.0
  0
VERTEX
  5
B7E
  8
0
 10
821.87680898533517
 20
89.631013803424494
 30
0.0
  0
SEQEND
  5
B7F
  8
0
  0
LINE
  5
780
  8
0
 10
569.24696382148954
 20
190.9553235139573
 30
0.0
 11
569.01601437563102
 21
193.83235632374021
 31
0.0
1001
REVIT
1002
{
1070
     3
1000
545292
1002
}
  0
POLYLINE
  5
781
  8
0
 66
     1
 10
0.0
 20
0.0
 30
0.0
 70
   129
1001
REVIT
1002
{
1070
     3
1000
545292
1002
}
  0
VERTEX
  5
B80
  8
0
 10
639.26387025305655
 20
159.07847032881051
 30
0.0
  0
VERTEX
  5
B81
  8
0
 10
639.07428936696931
 20
159.0136017716182
 30
0.0
  0
VERTEX
  5
B82
  8
0
 10
646.51771661461487
 20
169.695460666358
 30
0.0
  0
VERTEX
  5
B83
  8
0
 10
646.70729750067085
 20
169.76032922355461
 30
0.0
  0
SEQEND
  5
B84
  8
0
  0
POLYLINE
  5
782
  8
0
 66
     1
 10
0.0
 20
0.0
 30
0.0
 70
   129
1001
REVIT
1002
{
1070
     3
1000
545292
1002
}
  0
VERTEX
  5
B85
  8
0
 10
464.09435876834988
 20
239.20778574893561
 30
0.0
  0
VERTEX
  5
B86
  8
0
 10
463.90477788231431
 20
239.1429171917496
 30
0.0
  0
VERTEX
  5
B87
  8
0
 10
471.34820512991303
 20
249.82477608648071
 30
0.0
  0
VERTEX
  5
B88
  8
0
 10
471.53778601596929
 20
249.8896446436772
 30
0.0
  0
SEQEND
  5
B89
  8
0
  0
LINE
  5
783
  8
0
 10
744.41647530616535
 20
110.8260080938058
 30
0.0
 11
744.18552586030148
 21
113.7030409037243
 31
0.0
1001
REVIT
1002
{
1070
     3
1000
545292
1002
}
  0
LINE
  5
784
  8
0
 10
394.07745233672227
 20
271.0846389340598
 30
0.0
 11
393.84650289082919
 21
273.96167174424221
 31
0.0
1001
REVIT
1002
{
1070
     3
1000
545292
1002
}
  0
LINE
  5
785
  8
0
 10
462.54496584973049
 20
240.97573020659129
 30
0.0
 11
458.49636236874568
 21
252.212855694144
 31
0.0
1001
REVIT
1002
{
1070
     3
1000
545292
1002
}
  0
POLYLINE
  5
786
  8
0
 66
     1
 10
0.0
 20
0.0
 30
0.0
 70
   129
1001
REVIT
1002
{
1070
     3
1000
545292
1002
}
  0
VERTEX
  5
B8A
  8
0
 10
464.09662269775362
 20
241.7283594781872
 30
0.0
  0
VERTEX
  5
B8B
  8
0
 10
460.04802906121989
 20
252.96545764193911
 30
0.0
  0
VERTEX
  5
B8C
  8
0
 10
467.49145630886022
 20
263.64731653701892
 30
0.0
  0
VERTEX
  5
B8D
  8
0
 10
471.5400499454517
 20
252.41021837284109
 30
0.0
  0
SEQEND
  5
B8E
  8
0
  0
LINE
  5
787
  8
0
 10
391.70747849751928
 20
286.42310001654317
 30
0.0
 11
567.72217482388453
 21
539.83035660565213
 31
0.0
1001
REVIT
1002
{
1070
     3
1000
545292
1002
}
  0
LINE
  5
788
  8
0
 10
459.24185271684081
 20
255.53028360309139
 30
0.0
 11
636.39927661594368
 21
510.58271792609543
 31
0.0
1001
REVIT
1002
{
1070
     3
1000
545292
1002
}
  0
POLYLINE
  5
789
  8
0
 66
     1
 10
0.0
 20
0.0
 30
0.0
 70
   128
1001
REVIT
1002
{
1070
     3
1000
545292
1002
}
  0
VERTEX
  5
B8F
  8
0
 10
1106.1169967208391
 20
357.85162164983149
 30
0.0
  0
VERTEX
  5
B90
  8
0
 10
1106.478808204404
 20
357.48906516293118
 30
0.0
  0
VERTEX
  5
B91
  8
0
 10
1089.7595523373011
 20
333.418457140285
 30
0.0
  0
VERTEX
  5
B92
  8
0
 10
1089.695981251456
 20
334.21038846130898
 30
0.0
  0
SEQEND
  5
B93
  8
0
  0
POLYLINE
  5
78A
  8
0
 66
     1
 10
0.0
 20
0.0
 30
0.0
 70
   129
1001
REVIT
1002
{
1070
     3
1000
545292
1002
}
  0
VERTEX
  5
B94
  8
0
 10
817.83047927839027
 20
103.38868569645879
 30
0.0
  0
VERTEX
  5
B95
  8
0
 10
821.87907291508566
 20
92.151587533050701
 30
0.0
  0
VERTEX
  5
B96
  8
0
 10
814.43564566688531
 20
81.469728637455546
 30
0.0
  0
VERTEX
  5
B97
  8
0
 10
810.38705203059783
 20
92.706826801695556
 30
0.0
  0
SEQEND
  5
B98
  8
0
  0
POLYLINE
  5
78B
  8
0
 66
     1
 10
0.0
 20
0.0
 30
0.0
 70
   128
1001
REVIT
1002
{
1070
     3
1000
545292
1002
}
  0
VERTEX
  5
B99
  8
0
 10
994.61028477180002
 20
361.85519352239243
 30
0.0
  0
VERTEX
  5
B9A
  8
0
 10
989.06526009753907
 20
353.89768024696269
 30
0.0
  0
VERTEX
  5
B9B
  8
0
 10
988.88078319333863
 20
354.40970621634358
 30
0.0
  0
SEQEND
  5
B9C
  8
0
  0
LINE
  5
78C
  8
0
 10
812.88398881912099
 20
80.717099366362149
 30
0.0
 11
808.83538533813669
 21
91.954224853915079
 31
0.0
1001
REVIT
1002
{
1070
     3
1000
545292
1002
}
  0
LINE
  5
78D
  8
0
 10
745.21231927882093
 20
111.6727412655939
 30
0.0
 11
741.16372564219978
 21
122.90983942956051
 31
0.0
1001
REVIT
1002
{
1070
     3
1000
545292
1002
}
  0
LINE
  5
78E
  8
0
 10
566.87698998220344
 20
206.2937845964085
 30
0.0
 11
742.89168630862309
 21
459.70104118551768
 31
0.0
1001
REVIT
1002
{
1070
     3
1000
545292
1002
}
  0
POLYLINE
  5
78F
  8
0
 66
     1
 10
0.0
 20
0.0
 30
0.0
 70
   128
1001
REVIT
1002
{
1070
     3
1000
545292
1002
}
  0
VERTEX
  5
B9D
  8
0
 10
644.27126180246626
 20
522.11382436275801
 30
0.0
  0
VERTEX
  5
B9E
  8
0
 10
638.72623712816892
 20
514.15631108714081
 30
0.0
  0
VERTEX
  5
B9F
  8
0
 10
638.54176022397132
 20
514.66833705655642
 30
0.0
  0
SEQEND
  5
BA0
  8
0
  0
LINE
  5
790
  8
0
 10
637.7144840019447
 20
160.8463962803705
 30
0.0
 11
633.66587385341506
 21
172.08354027402649
 31
0.0
1001
REVIT
1002
{
1070
     3
1000
545292
1002
}
  0
POLYLINE
  5
791
  8
0
 66
     1
 10
0.0
 20
0.0
 30
0.0
 70
   129
1001
REVIT
1002
{
1070
     3
1000
545292
1002
}
  0
VERTEX
  5
BA1
  8
0
 10
635.21754054555674
 20
172.83614222160881
 30
0.0
  0
VERTEX
  5
BA2
  8
0
 10
642.66096779329234
 20
183.518001116915
 30
0.0
  0
VERTEX
  5
BA3
  8
0
 10
646.70956143033379
 20
172.2809029530838
 30
0.0
  0
VERTEX
  5
BA4
  8
0
 10
639.26613418243176
 20
161.5990440580656
 30
0.0
  0
SEQEND
  5
BA5
  8
0
  0
POLYLINE
  5
792
  8
0
 66
     1
 10
0.0
 20
0.0
 30
0.0
 70
   128
1001
REVIT
1002
{
1070
     3
1000
545292
1002
}
  0
VERTEX
  5
BA6
  8
0
 10
566.61848249954926
 20
540.89167429748409
 30
0.0
  0
VERTEX
  5
BA7
  8
0
 10
391.0196217507584
 20
288.08309358689019
 30
0.0
  0
VERTEX
  5
BA8
  8
0
 10
389.84572175794369
 20
302.70685154134429
 30
0.0
  0
VERTEX
  5
BA9
  8
0
 10
563.16038623203247
 20
552.22688917278026
 30
0.0
  0
SEQEND
  5
BAA
  8
0
  0
LINE
  5
793
  8
0
 10
914.25876853616626
 20
59.28668375893335
 30
0.0
 11
913.76146977499286
 21
60.666964295262922
 31
0.0
1001
REVIT
1002
{
1070
     3
1000
545292
1002
}
  0
POLYLINE
  5
794
  8
0
 66
     1
 10
0.0
 20
0.0
 30
0.0
 70
   129
1001
REVIT
1002
{
1070
     3
1000
545292
1002
}
  0
VERTEX
  5
BAB
  8
0
 10
637.74379538691255
 20
511.31293318112631
 30
0.0
  0
VERTEX
  5
BAC
  8
0
 10
645.18722263452685
 20
521.99479207587058
 30
0.0
  0
VERTEX
  5
BAD
  8
0
 10
468.029835869534
 20
266.94241121460931
 30
0.0
  0
VERTEX
  5
BAE
  8
0
 10
460.58640862232778
 20
256.2605523200524
 30
0.0
  0
SEQEND
  5
BAF
  8
0
  0
LINE
  5
795
  8
0
 10
809.58087568607709
 20
95.271652762985923
 30
0.0
 11
986.73828259905213
 21
350.32406263101473
 31
0.0
1001
REVIT
1002
{
1070
     3
1000
545292
1002
}
  0
POLYLINE
  5
796
  8
0
 66
     1
 10
0.0
 20
0.0
 30
0.0
 70
   129
1001
REVIT
1002
{
1070
     3
1000
545292
1002
}
  0
VERTEX
  5
BB0
  8
0
 10
995.52624560402364
 20
361.73616123557173
 30
0.0
  0
VERTEX
  5
BB1
  8
0
 10
818.36885883885907
 20
106.6837803743697
 30
0.0
  0
VERTEX
  5
BB2
  8
0
 10
810.92543159118668
 20
96.001921480112628
 30
0.0
  0
VERTEX
  5
BB3
  8
0
 10
988.08281835605362
 20
351.05430234102948
 30
0.0
  0
SEQEND
  5
BB4
  8
0
  0
POLYLINE
  5
797
  8
0
 66
     1
 10
0.0
 20
0.0
 30
0.0
 70
   128
1001
REVIT
1002
{
1070
     3
1000
545292
1002
}
  0
VERTEX
  5
BB5
  8
0
 10
819.44077328718663
 20
441.98450894262652
 30
0.0
  0
VERTEX
  5
BB6
  8
0
 10
813.89574861283916
 20
434.0269956670532
 30
0.0
  0
VERTEX
  5
BB7
  8
0
 10
813.71127170863144
 20
434.53902163643789
 30
0.0
  0
SEQEND
  5
BB8
  8
0
  0
LINE
  5
798
  8
0
 10
742.0465014668971
 20
126.164469176238
 30
0.0
 11
918.06119779334745
 21
379.57172576538449
 31
0.0
1001
REVIT
1002
{
1070
     3
1000
545292
1002
}
  0
LINE
  5
799
  8
0
 10
634.41136420154032
 20
175.4009681829904
 30
0.0
 11
811.56877111441975
 21
430.45337805103821
 31
0.0
1001
REVIT
1002
{
1070
     3
1000
545292
1002
}
  0
LINE
  5
79A
  8
0
 10
644.39286008151055
 20
187.537341720732
 30
0.0
 11
821.28787016942397
 21
442.21198052227737
 31
0.0
1001
REVIT
1002
{
1070
     3
1000
545292
1002
}
  0
LINE
  5
79B
  8
0
 10
739.50239287481475
 20
144.030559701069
 30
0.0
 11
912.89097153386945
 21
393.65701112195637
 31
0.0
1001
REVIT
1002
{
1070
     3
1000
545292
1002
}
  0
POLYLINE
  5
79C
  8
0
 66
     1
 10
0.0
 20
0.0
 30
0.0
 70
   128
1001
REVIT
1002
{
1070
     3
1000
545292
1002
}
  0
VERTEX
  5
BB9
  8
0
 10
916.95750546886029
 20
380.63304345729267
 30
0.0
  0
VERTEX
  5
BBA
  8
0
 10
741.35864472017545
 20
127.8244627466491
 30
0.0
  0
VERTEX
  5
BBB
  8
0
 10
740.18474472728735
 20
142.4482207011273
 30
0.0
  0
VERTEX
  5
BBC
  8
0
 10
913.49940920140455
 20
391.96825833260078
 30
0.0
  0
SEQEND
  5
BBD
  8
0
  0
POLYLINE
  5
79D
  8
0
 66
     1
 10
0.0
 20
0.0
 30
0.0
 70
   129
1001
REVIT
1002
{
1070
     3
1000
545292
1002
}
  0
VERTEX
  5
BBE
  8
0
 10
820.35673411941104
 20
441.86547665565769
 30
0.0
  0
VERTEX
  5
BBF
  8
0
 10
643.19934735425397
 20
186.81309579448839
 30
0.0
  0
VERTEX
  5
BC0
  8
0
 10
635.75592010684898
 20
176.13123690003431
 30
0.0
  0
VERTEX
  5
BC1
  8
0
 10
812.91330687171535
 20
431.18361776095111
 30
0.0
  0
SEQEND
  5
BC2
  8
0
  0
LINE
  5
79E
  8
0
 10
647.72702110591786
 20
172.976250624453
 30
0.0
 11
643.67842746929659
 21
184.21334878841949
 31
0.0
1001
REVIT
1002
{
1070
     3
1000
545292
1002
}
  0
LINE
  5
79F
  8
0
 10
822.89653259063857
 20
92.846935203902248
 30
0.0
 11
818.84793895401731
 21
104.0840333678688
 31
0.0
1001
REVIT
1002
{
1070
     3
1000
545292
1002
}
  0
LINE
  5
7A0
  8
0
 10
570.042807794179
 20
191.80205668574939
 30
0.0
 11
565.99421415755785
 21
203.039154849716
 31
0.0
1001
REVIT
1002
{
1070
     3
1000
545292
1002
}
  0
POLYLINE
  5
7A1
  8
0
 66
     1
 10
0.0
 20
0.0
 30
0.0
 70
   128
1001
REVIT
1002
{
1070
     3
1000
545292
1002
}
  0
VERTEX
  5
BC3
  8
0
 10
741.78799398425144
 20
460.7623588772999
 30
0.0
  0
VERTEX
  5
BC4
  8
0
 10
566.18913323560685
 20
207.95377816671919
 30
0.0
  0
VERTEX
  5
BC5
  8
0
 10
565.01523324264554
 20
222.57753612122181
 30
0.0
  0
VERTEX
  5
BC6
  8
0
 10
738.32989771673442
 20
472.09757375265792
 30
0.0
  0
SEQEND
  5
BC7
  8
0
  0
LINE
  5
7A2
  8
0
 10
564.33290545751606
 20
224.15990977092491
 30
0.0
 11
737.72146004915544
 21
473.78632654210003
 31
0.0
1001
REVIT
1002
{
1070
     3
1000
545292
1002
}
  0
LINE
  5
7A3
  8
0
 10
914.67192842702264
 20
63.901278930713481
 30
0.0
 11
1090.1673474608269
 21
316.56093525197718
 31
0.0
1001
REVIT
1002
{
1070
     3
1000
545292
1002
}
  0
LINE
  5
7A4
  8
0
 10
1090.725372299552
 20
317.36432011951467
 30
0.0
 11
1091.8292911245751
 21
318.95362514224882
 31
0.0
1001
REVIT
1002
{
1070
     3
1000
545292
1002
}
  0
POLYLINE
  5
7A5
  8
0
 66
     1
 10
0.0
 20
0.0
 30
0.0
 70
   128
1001
REVIT
1002
{
1070
     3
1000
545292
1002
}
  0
VERTEX
  5
BC8
  8
0
 10
1090.7461224387639
 20
314.82947727360511
 30
0.0
  0
VERTEX
  5
BC9
  8
0
 10
1092.5116429770931
 20
317.37128614188748
 30
0.0
  0
VERTEX
  5
BCA
  8
0
 10
1092.713154689764
 20
314.86097135201823
 30
0.0
  0
VERTEX
  5
BCB
  8
0
 10
915.55576792480485
 20
59.808590490745921
 30
0.0
  0
VERTEX
  5
BCC
  8
0
 10
915.3542562123273
 20
62.318905280928441
 30
0.0
  0
VERTEX
  5
BCD
  8
0
 10
1090.351897856468
 20
314.26191460998427
 30
0.0
  0
SEQEND
  5
BCE
  8
0
  0
LINE
  5
7A6
  8
0
 10
469.22334859682201
 20
267.66665714083848
 30
0.0
 11
646.11835868476521
 21
522.34129594242097
 31
0.0
1001
REVIT
1002
{
1070
     3
1000
545292
1002
}
  0
LINE
  5
7A7
  8
0
 10
918.63462984880482
 20
44.657375971801457
 30
0.0
 11
914.58603621221005
 21
55.894474135668808
 31
0.0
1001
REVIT
1002
{
1070
     3
1000
545292
1002
}
  0
LINE
  5
7A8
  8
0
 10
472.55750962122659
 20
253.1055660444068
 30
0.0
 11
468.50891598460521
 21
264.34266420837372
 31
0.0
1001
REVIT
1002
{
1070
     3
1000
545292
1002
}
  0
LINE
  5
7A9
  8
0
 10
563.91974556681726
 20
219.54531459907159
 30
0.0
 11
563.42244680560054
 21
220.925595135539
 31
0.0
1001
REVIT
1002
{
1070
     3
1000
545292
1002
}
  0
POLYLINE
  5
7AA
  8
0
 66
     1
 10
0.0
 20
0.0
 30
0.0
 70
   128
1001
REVIT
1002
{
1070
     3
1000
545292
1002
}
  0
VERTEX
  5
BCF
  8
0
 10
918.85741257435689
 20
42.459760542792758
 30
0.0
  0
VERTEX
  5
BD0
  8
0
 10
918.64909053041572
 20
42.367997062414808
 30
0.0
  0
VERTEX
  5
BD1
  8
0
 10
918.41677535720441
 20
45.262043302954218
 30
0.0
  0
SEQEND
  5
BD2
  8
0
  0
LINE
  5
7AB
  8
0
 10
739.08925705142178
 20
139.41599917938251
 30
0.0
 11
738.59198160987125
 21
140.79621499078951
 31
0.0
1001
REVIT
1002
{
1070
     3
1000
545292
1002
}
  0
LINE
  5
7AC
  8
0
 10
394.8732963094169
 20
271.9313721058495
 30
0.0
 11
390.82470267279581
 21
283.16847026981611
 31
0.0
1001
REVIT
1002
{
1070
     3
1000
545292
1002
}
  0
LINE
  5
7AD
  8
0
 10
1093.2642442792151
 20
317.08532758070618
 30
0.0
 11
1088.789820624695
 21
329.5043407852184
 31
0.0
1001
REVIT
1002
{
1070
     3
1000
545292
1002
}
  0
LINE
  5
7AE
  8
0
 10
388.75023408210228
 20
299.67463001922061
 30
0.0
 11
388.25295864041891
 21
301.05484583103708
 31
0.0
1001
REVIT
1002
{
1070
     3
1000
545292
1002
}
  0
LINE
  5
7AF
  8
0
 10
819.56237156626526
 20
107.4080263005647
 30
0.0
 11
996.45738165417833
 21
362.0826651021099
 31
0.0
1001
REVIT
1002
{
1070
     3
1000
545292
1002
}
  0
LINE
  5
7B0
  8
0
 10
389.16336990541612
 20
304.28919054132223
 30
0.0
 11
562.55194856447088
 21
553.91564196220918
 31
0.0
1001
REVIT
1002
{
1070
     3
1000
545292
1002
}
  0
POLYLINE
  5
7B1
  8
0
 66
     1
 10
0.0
 20
0.0
 30
0.0
 70
   128
1001
REVIT
1002
{
1070
     3
1000
545292
1002
}
  0
VERTEX
  5
BD3
  8
0
 10
914.80456642417653
 20
57.560867589031432
 30
0.0
  0
VERTEX
  5
BD4
  8
0
 10
914.86888117107253
 20
56.759672174453272
 30
0.0
  0
VERTEX
  5
BD5
  8
0
 10
918.91747480774438
 20
45.522574010749167
 30
0.0
  0
VERTEX
  5
BD6
  8
0
 10
918.71596309475922
 20
48.032888800504452
 30
0.0
  0
VERTEX
  5
BD7
  8
0
 10
915.02331862126425
 20
58.282030146238178
 30
0.0
  0
SEQEND
  5
BD8
  8
0
  0
POLYLINE
  5
7B2
  8
0
 66
     1
 10
0.0
 20
0.0
 30
0.0
 70
   128
1001
REVIT
1002
{
1070
     3
1000
545292
1002
}
  0
VERTEX
  5
BD9
  8
0
 10
1089.0083508367079
 20
331.170734238553
 30
0.0
  0
VERTEX
  5
BDA
  8
0
 10
1089.072665583579
 20
330.36953882407943
 30
0.0
  0
VERTEX
  5
BDB
  8
0
 10
1093.5470892380399
 20
317.95052561950359
 30
0.0
  0
VERTEX
  5
BDC
  8
0
 10
1093.34557752463
 20
320.46084040979451
 30
0.0
  0
VERTEX
  5
BDD
  8
0
 10
1089.227103033513
 20
331.89189679536071
 30
0.0
  0
SEQEND
  5
BDE
  8
0
  0
POLYLINE
  5
7B3
  8
0
 66
     1
 10
0.0
 20
0.0
 30
0.0
 70
   128
1001
REVIT
1002
{
1070
     3
1000
545292
1002
}
  0
VERTEX
  5
BDF
  8
0
 10
1106.478808204381
 20
357.48906516295727
 30
0.0
  0
VERTEX
  5
BE0
  8
0
 10
1106.662162592635
 20
357.12398356801879
 30
0.0
  0
VERTEX
  5
BE1
  8
0
 10
1089.6237551730101
 20
332.59389505283781
 30
0.0
  0
SEQEND
  5
BE2
  8
0
  0
LINE
  5
7B4
  8
0
 10
1092.5773575255221
 20
314.03640926451823
 30
0.0
 11
915.41997076051439
 21
58.984028403237737
 31
0.0
1001
REVIT
1002
{
1070
     3
1000
545292
1002
}
  0
LINE
  5
7B5
  8
0
 10
1088.6983482346161
 20
329.95915096129818
 30
0.0
 11
1088.49579158854
 21
332.4824829158307
 31
0.0
1001
REVIT
1002
{
1070
     3
1000
545292
1002
}
  0
LINE
  5
7B6
  8
0
 10
740.2337826338802
 20
125.1581704122372
 30
0.0
 11
739.05993515827163
 21
139.78127413306819
 31
0.0
1001
REVIT
1002
{
1070
     3
1000
545292
1002
}
  0
LINE
  5
7B7
  8
0
 10
569.36545317672358
 20
192.86246937914589
 30
0.0
 11
565.31502577281844
 21
204.10465726686809
 31
0.0
1001
REVIT
1002
{
1070
     3
1000
545292
1002
}
  0
LINE
  5
7B8
  8
0
 10
744.53496466140734
 20
112.73315395902191
 30
0.0
 11
740.48453725749937
 21
123.9753418467605
 31
0.0
1001
REVIT
1002
{
1070
     3
1000
545292
1002
}
  0
LINE
  5
7B9
  8
0
 10
394.19594169199007
 20
272.99178479936529
 30
0.0
 11
390.14551428808238
 21
284.23397268705298
 31
0.0
1001
REVIT
1002
{
1070
     3
1000
545292
1002
}
  0
LINE
  5
7BA
  8
0
 10
389.8947596644789
 20
285.41680125251179
 30
0.0
 11
388.72091218893962
 21
300.03990497332597
 31
0.0
1001
REVIT
1002
{
1070
     3
1000
545292
1002
}
  0
LINE
  5
7BB
  8
0
 10
914.49456382205892
 20
56.349284311644169
 30
0.0
 11
914.22944664298655
 21
59.651958712944626
 31
0.0
1001
REVIT
1002
{
1070
     3
1000
545292
1002
}
  0
LINE
  5
7BC
  8
0
 10
565.06427114920234
 20
205.28748583231831
 30
0.0
 11
563.89042367364823
 21
219.91058955321569
 31
0.0
1001
REVIT
1002
{
1070
     3
1000
545292
1002
}
  0
LINE
  5
7BD
  8
0
 10
915.09030936648674
 20
58.424328764673191
 30
0.0
 11
918.55165269951419
 21
48.81717667596763
 31
0.0
1001
REVIT
1002
{
1070
     3
1000
545292
1002
}
  0
LINE
  5
7BE
  8
0
 10
1089.294093778723
 20
332.03419541371932
 30
0.0
 11
1093.1812671294581
 21
321.2451282849828
 31
0.0
1001
REVIT
1002
{
1070
     3
1000
545292
1002
}
  0
LINE
  5
7BF
  8
0
 10
918.8787191261207
 20
47.262349811671577
 30
0.0
 11
919.08502097308065
 21
44.69236234050458
 31
0.0
1001
REVIT
1002
{
1070
     3
1000
545292
1002
}
  0
LINE
  5
7C0
  8
0
 10
1093.432758029348
 20
320.05949602841412
 30
0.0
 11
1093.6385616278451
 21
317.49571544336737
 31
0.0
1001
REVIT
1002
{
1070
     3
1000
545292
1002
}
  0
POLYLINE
  5
7C1
  8
0
 66
     1
 10
0.0
 20
0.0
 30
0.0
 70
   129
1001
REVIT
1002
{
1070
     3
1000
545292
1002
}
  0
VERTEX
  5
BE3
  8
0
 10
986.16297031861814
 20
350.50944728126439
 30
0.0
  0
VERTEX
  5
BE4
  8
0
 10
985.97338943253249
 20
350.44457872408702
 30
0.0
  0
VERTEX
  5
BE5
  8
0
 10
993.41681668017293
 20
361.1264376188397
 30
0.0
  0
VERTEX
  5
BE6
  8
0
 10
993.60639756619048
 20
361.19130617601809
 30
0.0
  0
SEQEND
  5
BE7
  8
0
  0
LINE
  5
7C2
  8
0
 10
740.97655240234815
 20
462.51561588656051
 30
0.0
 11
740.74560295648962
 21
465.3926486963436
 31
0.0
1001
REVIT
1002
{
1070
     3
1000
545292
1002
}
  0
POLYLINE
  5
7C3
  8
0
 66
     1
 10
0.0
 20
0.0
 30
0.0
 70
   129
1001
REVIT
1002
{
1070
     3
1000
545292
1002
}
  0
VERTEX
  5
BE8
  8
0
 10
810.99345883391538
 20
430.63876270142339
 30
0.0
  0
VERTEX
  5
BE9
  8
0
 10
810.80387794782541
 20
430.57389414421209
 30
0.0
  0
VERTEX
  5
BEA
  8
0
 10
818.2473051954737
 20
441.25575303896119
 30
0.0
  0
VERTEX
  5
BEB
  8
0
 10
818.43688608152968
 20
441.32062159615799
 30
0.0
  0
SEQEND
  5
BEC
  8
0
  0
POLYLINE
  5
7C4
  8
0
 66
     1
 10
0.0
 20
0.0
 30
0.0
 70
   129
1001
REVIT
1002
{
1070
     3
1000
545292
1002
}
  0
VERTEX
  5
BED
  8
0
 10
635.8239473492107
 20
510.76807812153731
 30
0.0
  0
VERTEX
  5
BEE
  8
0
 10
635.63436646317052
 20
510.70320956435341
 30
0.0
  0
VERTEX
  5
BEF
  8
0
 10
643.07779371077163
 20
521.38506845908387
 30
0.0
  0
VERTEX
  5
BF0
  8
0
 10
643.26737459682749
 20
521.4499370162805
 30
0.0
  0
SEQEND
  5
BF1
  8
0
  0
LINE
  5
7C5
  8
0
 10
916.14606388701895
 20
382.38630046641151
 30
0.0
 11
915.91511444115486
 21
385.26333327633
 31
0.0
1001
REVIT
1002
{
1070
     3
1000
545292
1002
}
  0
LINE
  5
7C6
  8
0
 10
565.80704091757798
 20
542.64493130665358
 30
0.0
 11
565.57609147168512
 21
545.52196411683576
 31
0.0
1001
REVIT
1002
{
1070
     3
1000
545292
1002
}
  0
LINE
  5
7C7
  8
0
 10
634.27455443059137
 20
512.53602257920352
 30
0.0
 11
630.22595094960695
 21
523.77314806675611
 31
0.0
1001
REVIT
1002
{
1070
     3
1000
545292
1002
}
  0
POLYLINE
  5
7C8
  8
0
 66
     1
 10
0.0
 20
0.0
 30
0.0
 70
   129
1001
REVIT
1002
{
1070
     3
1000
545292
1002
}
  0
VERTEX
  5
BF2
  8
0
 10
635.82621127860682
 20
513.28865185078212
 30
0.0
  0
VERTEX
  5
BF3
  8
0
 10
631.77761764207355
 20
524.52575001453431
 30
0.0
  0
VERTEX
  5
BF4
  8
0
 10
639.22104488971615
 20
535.20760890962299
 30
0.0
  0
VERTEX
  5
BF5
  8
0
 10
643.26963852630752
 20
523.97051074544504
 30
0.0
  0
SEQEND
  5
BF6
  8
0
  0
LINE
  5
7C9
  8
0
 10
563.43706707837555
 20
557.98339238914741
 30
0.0
 11
737.94292475285522
 21
809.21838341526188
 31
0.0
1001
REVIT
1002
{
1070
     3
1000
545292
1002
}
  0
LINE
  5
7CA
  8
0
 10
630.97144129769958
 20
527.09057597569449
 30
0.0
 11
805.47728809717137
 21
778.32555134512916
 31
0.0
1001
REVIT
1002
{
1070
     3
1000
545292
1002
}
  0
POLYLINE
  5
7CB
  8
0
 66
     1
 10
0.0
 20
0.0
 30
0.0
 70
   129
1001
REVIT
1002
{
1070
     3
1000
545292
1002
}
  0
VERTEX
  5
BF7
  8
0
 10
989.56006785924944
 20
374.94897806907261
 30
0.0
  0
VERTEX
  5
BF8
  8
0
 10
993.60866149594744
 20
363.71187990565232
 30
0.0
  0
VERTEX
  5
BF9
  8
0
 10
986.16523424774675
 20
353.03002101005728
 30
0.0
  0
VERTEX
  5
BFA
  8
0
 10
982.116640611462
 20
364.26711917429628
 30
0.0
  0
SEQEND
  5
BFB
  8
0
  0
POLYLINE
  5
7CC
  8
0
 66
     1
 10
0.0
 20
0.0
 30
0.0
 70
   128
1001
REVIT
1002
{
1070
     3
1000
545292
1002
}
  0
VERTEX
  5
BFC
  8
0
 10
1161.423358065013
 20
626.35992925298774
 30
0.0
  0
VERTEX
  5
BFD
  8
0
 10
1160.7948486783989
 20
625.45797261956454
 30
0.0
  0
VERTEX
  5
BFE
  8
0
 10
1160.281733493676
 20
626.8821525244141
 30
0.0
  0
SEQEND
  5
BFF
  8
0
  0
LINE
  5
7CD
  8
0
 10
984.61357739997163
 20
352.27739173895901
 30
0.0
 11
980.5649739189879
 21
363.51451722651188
 31
0.0
1001
REVIT
1002
{
1070
     3
1000
545292
1002
}
  0
LINE
  5
7CE
  8
0
 10
916.94190785967714
 20
383.23303363819821
 30
0.0
 11
912.89331422305588
 21
394.4701318021647
 31
0.0
1001
REVIT
1002
{
1070
     3
1000
545292
1002
}
  0
LINE
  5
7CF
  8
0
 10
738.60657856305909
 20
477.85407696901251
 30
0.0
 11
913.11243623760822
 21
729.08906799514625
 31
0.0
1001
REVIT
1002
{
1070
     3
1000
545292
1002
}
  0
LINE
  5
7D0
  8
0
 10
809.44407258280626
 20
432.40668865297198
 30
0.0
 11
805.39546243427628
 21
443.64383264662831
 31
0.0
1001
REVIT
1002
{
1070
     3
1000
545292
1002
}
  0
POLYLINE
  5
7D1
  8
0
 66
     1
 10
0.0
 20
0.0
 30
0.0
 70
   129
1001
REVIT
1002
{
1070
     3
1000
545292
1002
}
  0
VERTEX
  5
C00
  8
0
 10
806.94712912640523
 20
444.39643459420608
 30
0.0
  0
VERTEX
  5
C01
  8
0
 10
814.39055637414594
 20
455.07829348951037
 30
0.0
  0
VERTEX
  5
C02
  8
0
 10
818.43915001118455
 20
443.8411953256807
 30
0.0
  0
VERTEX
  5
C03
  8
0
 10
810.99572276328774
 20
433.1593364306695
 30
0.0
  0
SEQEND
  5
C04
  8
0
  0
POLYLINE
  5
7D2
  8
0
 66
     1
 10
0.0
 20
0.0
 30
0.0
 70
   128
1001
REVIT
1002
{
1070
     3
1000
545292
1002
}
  0
VERTEX
  5
C05
  8
0
 10
736.54592338829696
 20
809.85742591774965
 30
0.0
  0
VERTEX
  5
C06
  8
0
 10
562.74921033161695
 20
559.643385959483
 30
0.0
  0
VERTEX
  5
C07
  8
0
 10
561.57531033879695
 20
574.26714391395012
 30
0.0
  0
VERTEX
  5
C08
  8
0
 10
727.94672705009179
 20
813.79103120050013
 30
0.0
  0
SEQEND
  5
C09
  8
0
  0
LINE
  5
7D3
  8
0
 10
1085.9883571170019
 20
330.84697613153742
 30
0.0
 11
1085.4910583558319
 21
332.22725666786539
 31
0.0
1001
REVIT
1002
{
1070
     3
1000
545292
1002
}
  0
POLYLINE
  5
7D4
  8
0
 66
     1
 10
0.0
 20
0.0
 30
0.0
 70
   128
1001
REVIT
1002
{
1070
     3
1000
545292
1002
}
  0
VERTEX
  5
C0A
  8
0
 10
806.13084116189145
 20
778.02659087405539
 30
0.0
  0
VERTEX
  5
C0B
  8
0
 10
639.75942445039504
 20
538.50270358721104
 30
0.0
  0
VERTEX
  5
C0C
  8
0
 10
632.31599720319173
 20
527.8208446926526
 30
0.0
  0
VERTEX
  5
C0D
  8
0
 10
806.11271025927078
 20
778.03488465073519
 30
0.0
  0
SEQEND
  5
C0E
  8
0
  0
LINE
  5
7D5
  8
0
 10
981.31046426693854
 20
366.83194513558749
 30
0.0
 11
1158.4678711799129
 21
621.88435500361652
 31
0.0
1001
REVIT
1002
{
1070
     3
1000
545292
1002
}
  0
POLYLINE
  5
7D6
  8
0
 66
     1
 10
0.0
 20
0.0
 30
0.0
 70
   128
1001
REVIT
1002
{
1070
     3
1000
545292
1002
}
  0
VERTEX
  5
C0F
  8
0
 10
1162.1931804394251
 20
626.00778269902889
 30
0.0
  0
VERTEX
  5
C10
  8
0
 10
990.09844741971256
 20
378.244072746965
 30
0.0
  0
VERTEX
  5
C11
  8
0
 10
982.65502017204005
 20
367.56221385270788
 30
0.0
  0
VERTEX
  5
C12
  8
0
 10
1159.812406936906
 20
622.61459471362491
 30
0.0
  0
VERTEX
  5
C13
  8
0
 10
1162.1808185780289
 20
626.01343749274827
 30
0.0
  0
SEQEND
  5
C14
  8
0
  0
LINE
  5
7D7
  8
0
 10
913.77609004774786
 20
397.72476154884532
 30
0.0
 11
1088.281947722327
 21
648.95975257502607
 31
0.0
1001
REVIT
1002
{
1070
     3
1000
545292
1002
}
  0
LINE
  5
7D8
  8
0
 10
806.14095278239608
 20
446.96126055559438
 30
0.0
 11
980.64679958182705
 21
698.19623592496635
 31
0.0
1001
REVIT
1002
{
1070
     3
1000
545292
1002
}
  0
LINE
  5
7D9
  8
0
 10
816.12244866236415
 20
459.09763409333749
 30
0.0
 11
981.82432601291453
 21
697.657589752999
 31
0.0
1001
REVIT
1002
{
1070
     3
1000
545292
1002
}
  0
LINE
  5
7DA
  8
0
 10
911.23198145567596
 20
415.59085207367082
 30
0.0
 11
1076.933858806226
 21
654.15080773333204
 31
0.0
1001
REVIT
1002
{
1070
     3
1000
545292
1002
}
  0
POLYLINE
  5
7DB
  8
0
 66
     1
 10
0.0
 20
0.0
 30
0.0
 70
   128
1001
REVIT
1002
{
1070
     3
1000
545292
1002
}
  0
VERTEX
  5
C15
  8
0
 10
1086.8849463576209
 20
649.59879507758785
 30
0.0
  0
VERTEX
  5
C16
  8
0
 10
913.08823330103144
 20
399.38475511925321
 30
0.0
  0
VERTEX
  5
C17
  8
0
 10
911.91433330813845
 20
414.00851307373381
 30
0.0
  0
VERTEX
  5
C18
  8
0
 10
1078.285750019432
 20
653.53240036028433
 30
0.0
  0
SEQEND
  5
C19
  8
0
  0
POLYLINE
  5
7DC
  8
0
 66
     1
 10
0.0
 20
0.0
 30
0.0
 70
   128
1001
REVIT
1002
{
1070
     3
1000
545292
1002
}
  0
VERTEX
  5
C1A
  8
0
 10
981.30035264679282
 20
697.89727545386052
 30
0.0
  0
VERTEX
  5
C1B
  8
0
 10
814.92893593511008
 20
458.3733881670924
 30
0.0
  0
VERTEX
  5
C1C
  8
0
 10
807.48550868770769
 20
447.69152927262718
 30
0.0
  0
VERTEX
  5
C1D
  8
0
 10
981.28222174406767
 20
697.90556923055829
 30
0.0
  0
SEQEND
  5
C1E
  8
0
  0
LINE
  5
7DD
  8
0
 10
819.45660968677896
 20
444.53654299706488
 30
0.0
 11
815.40801605015781
 21
455.77364116103149
 31
0.0
1001
REVIT
1002
{
1070
     3
1000
545292
1002
}
  0
LINE
  5
7DE
  8
0
 10
994.62612117149172
 20
364.40722757649752
 30
0.0
 11
990.57752753487068
 21
375.64432574046418
 31
0.0
1001
REVIT
1002
{
1070
     3
1000
545292
1002
}
  0
LINE
  5
7DF
  8
0
 10
741.77239637503249
 20
463.36234905835482
 30
0.0
 11
737.72380273841134
 21
474.59944722232183
 31
0.0
1001
REVIT
1002
{
1070
     3
1000
545292
1002
}
  0
POLYLINE
  5
7E0
  8
0
 66
     1
 10
0.0
 20
0.0
 30
0.0
 70
   128
1001
REVIT
1002
{
1070
     3
1000
545292
1002
}
  0
VERTEX
  5
C1F
  8
0
 10
911.71543487304086
 20
729.72811049763823
 30
0.0
  0
VERTEX
  5
C20
  8
0
 10
737.91872181646556
 20
479.51407053932252
 30
0.0
  0
VERTEX
  5
C21
  8
0
 10
736.74482182350164
 20
494.13782849381562
 30
0.0
  0
VERTEX
  5
C22
  8
0
 10
903.11623853479671
 20
733.66171578036608
 30
0.0
  0
SEQEND
  5
C23
  8
0
  0
LINE
  5
7E1
  8
0
 10
736.06249403837217
 20
495.72020214351852
 30
0.0
 11
901.76434732149096
 21
734.28012315344961
 31
0.0
1001
REVIT
1002
{
1070
     3
1000
545292
1002
}
  0
LINE
  5
7E2
  8
0
 10
1086.4015170078781
 20
335.4615713033175
 30
0.0
 11
1263.558879705445
 21
590.51391751485176
 31
0.0
1001
REVIT
1002
{
1070
     3
1000
545292
1002
}
  0
POLYLINE
  5
7E3
  8
0
 66
     1
 10
0.0
 20
0.0
 30
0.0
 70
   129
1001
REVIT
1002
{
1070
     3
1000
545292
1002
}
  0
VERTEX
  5
C24
  8
0
 10
1264.442743270645
 20
586.42126372457506
 30
0.0
  0
VERTEX
  5
C25
  8
0
 10
1087.2853565056671
 20
331.36888286334778
 30
0.0
  0
VERTEX
  5
C26
  8
0
 10
1087.083844793181
 20
333.87919765352348
 30
0.0
  0
VERTEX
  5
C27
  8
0
 10
1264.241231557962
 20
588.93157851448564
 30
0.0
  0
SEQEND
  5
C28
  8
0
  0
LINE
  5
7E4
  8
0
 10
640.95293717767515
 20
539.22694951343385
 30
0.0
 11
806.65481452822485
 21
777.78690517309496
 31
0.0
1001
REVIT
1002
{
1070
     3
1000
545292
1002
}
  0
LINE
  5
7E5
  8
0
 10
1090.3642184296559
 20
316.2176683443974
 30
0.0
 11
1086.315624793061
 21
327.45476650826498
 31
0.0
1001
REVIT
1002
{
1070
     3
1000
545292
1002
}
  0
LINE
  5
7E6
  8
0
 10
644.28709820208769
 20
524.66585841700874
 30
0.0
 11
640.23850456546654
 21
535.90295658097477
 31
0.0
1001
REVIT
1002
{
1070
     3
1000
545292
1002
}
  0
LINE
  5
7E7
  8
0
 10
735.64933414767347
 20
491.10560697167568
 30
0.0
 11
735.15203538645665
 21
492.48588750814309
 31
0.0
1001
REVIT
1002
{
1070
     3
1000
545292
1002
}
  0
POLYLINE
  5
7E8
  8
0
 66
     1
 10
0.0
 20
0.0
 30
0.0
 70
   128
1001
REVIT
1002
{
1070
     3
1000
545292
1002
}
  0
VERTEX
  5
C29
  8
0
 10
1090.5870011552181
 20
314.02005291539461
 30
0.0
  0
VERTEX
  5
C2A
  8
0
 10
1090.3786791112741
 20
313.92828943501797
 30
0.0
  0
VERTEX
  5
C2B
  8
0
 10
1090.146363938062
 20
316.82233567555261
 30
0.0
  0
SEQEND
  5
C2C
  8
0
  0
LINE
  5
7E9
  8
0
 10
910.81884563227823
 20
410.97629155196671
 30
0.0
 11
910.32157019071951
 21
412.35650736338738
 31
0.0
1001
REVIT
1002
{
1070
     3
1000
545292
1002
}
  0
LINE
  5
7EA
  8
0
 10
566.60288489027869
 20
543.49166447845084
 30
0.0
 11
562.55429125365686
 21
554.72876264241791
 31
0.0
1001
REVIT
1002
{
1070
     3
1000
545292
1002
}
  0
LINE
  5
7EB
  8
0
 10
560.47982266295548
 20
571.23492239182576
 30
0.0
 11
559.98254722127263
 21
572.61513820364257
 31
0.0
1001
REVIT
1002
{
1070
     3
1000
545292
1002
}
  0
LINE
  5
7EC
  8
0
 10
1159.2431884617019
 20
624.70535269779623
 30
0.0
 11
1158.0992124455729
 21
627.88052213789126
 31
0.0
1001
REVIT
1002
{
1070
     3
1000
545292
1002
}
  0
LINE
  5
7ED
  8
0
 10
991.29196014712124
 20
378.96831867316871
 30
0.0
 11
1162.7171538057321
 21
625.76809699814305
 31
0.0
1001
REVIT
1002
{
1070
     3
1000
545292
1002
}
  0
LINE
  5
7EE
  8
0
 10
560.89295848626932
 20
575.84948291391754
 30
0.0
 11
726.59483583681924
 21
814.40943857357922
 31
0.0
1001
REVIT
1002
{
1070
     3
1000
545292
1002
}
  0
POLYLINE
  5
7EF
  8
0
 66
     1
 10
0.0
 20
0.0
 30
0.0
 70
   128
1001
REVIT
1002
{
1070
     3
1000
545292
1002
}
  0
VERTEX
  5
C2D
  8
0
 10
1086.534155005033
 20
329.12115996163561
 30
0.0
  0
VERTEX
  5
C2E
  8
0
 10
1086.5984697519291
 20
328.3199645470574
 30
0.0
  0
VERTEX
  5
C2F
  8
0
 10
1090.647063388604
 20
317.08286638335233
 30
0.0
  0
VERTEX
  5
C30
  8
0
 10
1090.445551675615
 20
319.59318117310858
 30
0.0
  0
VERTEX
  5
C31
  8
0
 10
1086.75290720212
 20
329.84232251884231
 30
0.0
  0
SEQEND
  5
C32
  8
0
  0
LINE
  5
7F0
  8
0
 10
1264.306946106379
 20
585.59670163712224
 30
0.0
 11
1087.1495593413711
 21
330.54432077584192
 31
0.0
1001
REVIT
1002
{
1070
     3
1000
545292
1002
}
  0
LINE
  5
7F1
  8
0
 10
911.96337121473903
 20
396.71846278484071
 30
0.0
 11
910.78952373913035
 21
411.34156650567161
 31
0.0
1001
REVIT
1002
{
1070
     3
1000
545292
1002
}
  0
LINE
  5
7F2
  8
0
 10
741.09504175758491
 20
464.42276175174771
 30
0.0
 11
737.04461435367955
 21
475.66494963947008
 31
0.0
1001
REVIT
1002
{
1070
     3
1000
545292
1002
}
  0
LINE
  5
7F3
  8
0
 10
916.2645532422631
 20
384.293446331626
 30
0.0
 11
912.21412583835524
 21
395.53563421936491
 31
0.0
1001
REVIT
1002
{
1070
     3
1000
545292
1002
}
  0
LINE
  5
7F4
  8
0
 10
565.92553027284885
 20
544.55207717196845
 30
0.0
 11
561.87510286894087
 21
555.79426505965614
 31
0.0
1001
REVIT
1002
{
1070
     3
1000
545292
1002
}
  0
LINE
  5
7F5
  8
0
 10
561.62434824533761
 20
556.97709362511534
 30
0.0
 11
560.45050076979805
 21
571.60019734592902
 31
0.0
1001
REVIT
1002
{
1070
     3
1000
545292
1002
}
  0
LINE
  5
7F6
  8
0
 10
1086.2241524029209
 20
327.90957668424602
 30
0.0
 11
1085.959035223847
 21
331.21225108554643
 31
0.0
1001
REVIT
1002
{
1070
     3
1000
545292
1002
}
  0
LINE
  5
7F7
  8
0
 10
736.79385973005549
 20
476.84777820492349
 30
0.0
 11
735.62001225450149
 21
491.47088192582129
 31
0.0
1001
REVIT
1002
{
1070
     3
1000
545292
1002
}
  0
LINE
  5
7F8
  8
0
 10
1086.819897947335
 20
329.98462113727089
 30
0.0
 11
1090.2812412803621
 21
320.37746904856527
 31
0.0
1001
REVIT
1002
{
1070
     3
1000
545292
1002
}
  0
LINE
  5
7F9
  8
0
 10
1090.608307706982
 20
318.82264218427338
 30
0.0
 11
1090.814609553941
 21
316.25265471310632
 31
0.0
1001
REVIT
1002
{
1070
     3
1000
545292
1002
}
  0
POLYLINE
  5
7FA
  8
0
 66
     1
 10
0.0
 20
0.0
 30
0.0
 70
   128
1001
REVIT
1002
{
1070
     3
1000
545292
1002
}
  0
VERTEX
  5
C33
  8
0
 10
355.47894731335202
 20
381.58999923228703
 30
0.0
  0
VERTEX
  5
C34
  8
0
 10
355.31111825317828
 20
381.92416795083699
 30
0.0
  0
VERTEX
  5
C35
  8
0
 10
355.02277337830679
 20
382.05606805852511
 30
0.0
  0
SEQEND
  5
C36
  8
0
  0
LINE
  5
7FB
  8
0
 10
363.04930482081079
 20
366.5164674808762
 30
0.0
 11
362.84795622342119
 21
366.91737780418771
 31
0.0
1001
REVIT
1002
{
1070
     3
1000
545292
1002
}
  0
POLYLINE
  5
7FC
  8
0
 66
     1
 10
0.0
 20
0.0
 30
0.0
 70
   128
1001
REVIT
1002
{
1070
     3
1000
545292
1002
}
  0
VERTEX
  5
C37
  8
0
 10
347.79856328315742
 20
322.76837813973452
 30
0.0
  0
VERTEX
  5
C38
  8
0
 10
338.40111399637698
 20
315.07505389810188
 30
0.0
  0
VERTEX
  5
C39
  8
0
 10
338.40111399637698
 20
328.2589749184034
 30
0.0
  0
SEQEND
  5
C3A
  8
0
  0
POLYLINE
  5
7FD
  8
0
 66
     1
 10
0.0
 20
0.0
 30
0.0
 70
   128
1001
REVIT
1002
{
1070
     3
1000
545292
1002
}
  0
VERTEX
  5
C3B
  8
0
 10
338.40111399636032
 20
355.18395539950581
 30
0.0
  0
VERTEX
  5
C3C
  8
0
 10
518.31188655558219
 20
639.68135856051322
 30
0.0
  0
VERTEX
  5
C3D
  8
0
 10
510.13070257721608
 20
626.74424777210993
 30
0.0
  0
SEQEND
  5
C3E
  8
0
  0
LINE
  5
7FE
  8
0
 10
343.24909448389201
 20
334.3331741009377
 30
0.0
 11
347.83723319055582
 21
325.19761420081193
 31
0.0
1001
REVIT
1002
{
1070
     3
1000
545292
1002
}
  0
POLYLINE
  5
7FF
  8
0
 66
     1
 10
0.0
 20
0.0
 30
0.0
 70
   128
1001
REVIT
1002
{
1070
     3
1000
545292
1002
}
  0
VERTEX
  5
C3F
  8
0
 10
519.52815186400539
 20
594.328670512332
 30
0.0
  0
VERTEX
  5
C40
  8
0
 10
510.13070257722489
 20
586.63534627069976
 30
0.0
  0
VERTEX
  5
C41
  8
0
 10
510.13070257722489
 20
599.81926729100246
 30
0.0
  0
SEQEND
  5
C42
  8
0
  0
LINE
  5
800
  8
0
 10
514.978683064753
 20
605.89346647353955
 30
0.0
 11
519.56682177138953
 21
596.75790657347727
 31
0.0
1001
REVIT
1002
{
1070
     3
1000
545292
1002
}
  0
LINE
  5
801
  8
0
 10
523.05541333029566
 20
620.25743557604005
 30
0.0
 11
519.08019073460355
 21
613.97131668846919
 31
0.0
1001
REVIT
1002
{
1070
     3
1000
545292
1002
}
  0
LINE
  5
802
  8
0
 10
516.39769636255005
 20
609.72942126450994
 30
0.0
 11
347.3506021536877
 21
342.41102431579628
 31
0.0
1001
REVIT
1002
{
1070
     3
1000
545292
1002
}
  0
POLYLINE
  5
803
  8
0
 66
     1
 10
0.0
 20
0.0
 30
0.0
 70
   128
1001
REVIT
1002
{
1070
     3
1000
545292
1002
}
  0
VERTEX
  5
C43
  8
0
 10
920.16657812127119
 20
53.251704051898059
 30
0.0
  0
VERTEX
  5
C44
  8
0
 10
1095.788889746249
 20
-27.084739680419489
 30
0.0
  0
VERTEX
  5
C45
  8
0
 10
1085.011919725046
 20
-11.249798872140669
 30
0.0
  0
VERTEX
  5
C46
  8
0
 10
920.08838761717595
 20
64.192608955937885
 30
0.0
  0
SEQEND
  5
C47
  8
0
  0
POLYLINE
  5
804
  8
0
 66
     1
 10
0.0
 20
0.0
 30
0.0
 70
   128
1001
REVIT
1002
{
1070
     3
1000
545292
1002
}
  0
VERTEX
  5
C48
  8
0
 10
944.36587336478055
 20
100.6572632043404
 30
0.0
  0
VERTEX
  5
C49
  8
0
 10
1108.344744260497
 20
25.646979982844869
 30
0.0
  0
VERTEX
  5
C4A
  8
0
 10
1085.011919725054
 20
-11.249798872129301
 30
0.0
  0
SEQEND
  5
C4B
  8
0
  0
POLYLINE
  5
805
  8
0
 66
     1
 10
0.0
 20
0.0
 30
0.0
 70
   128
1001
REVIT
1002
{
1070
     3
1000
545292
1002
}
  0
VERTEX
  5
C4C
  8
0
 10
1095.788889746241
 20
-27.08473968041563
 30
0.0
  0
VERTEX
  5
C4D
  8
0
 10
1119.121714281687
 20
9.8120391745608231
 30
0.0
  0
VERTEX
  5
C4E
  8
0
 10
1108.3447442604911
 20
25.646979982842591
 30
0.0
  0
SEQEND
  5
C4F
  8
0
  0
POLYLINE
  5
806
  8
0
 66
     1
 10
0.0
 20
0.0
 30
0.0
 70
   128
1001
REVIT
1002
{
1070
     3
1000
545292
1002
}
  0
VERTEX
  5
C50
  8
0
 10
1093.0120762133449
 20
314.78751301318061
 30
0.0
  0
VERTEX
  5
C51
  8
0
 10
1262.851913420028
 20
237.09619692119691
 30
0.0
  0
VERTEX
  5
C52
  8
0
 10
1252.0749433988231
 20
252.93113772948249
 30
0.0
  0
VERTEX
  5
C53
  8
0
 10
1091.2960614476731
 20
326.47762213514733
 30
0.0
  0
SEQEND
  5
C54
  8
0
  0
POLYLINE
  5
807
  8
0
 66
     1
 10
0.0
 20
0.0
 30
0.0
 70
   128
1001
REVIT
1002
{
1070
     3
1000
545292
1002
}
  0
VERTEX
  5
C55
  8
0
 10
1111.080512568685
 20
364.99756434854669
 30
0.0
  0
VERTEX
  5
C56
  8
0
 10
1275.407767934277
 20
289.82791658445512
 30
0.0
  0
VERTEX
  5
C57
  8
0
 10
1252.074943398836
 20
252.93113772948121
 30
0.0
  0
SEQEND
  5
C58
  8
0
  0
POLYLINE
  5
808
  8
0
 66
     1
 10
0.0
 20
0.0
 30
0.0
 70
   128
1001
REVIT
1002
{
1070
     3
1000
545292
1002
}
  0
VERTEX
  5
C59
  8
0
 10
1262.851913420028
 20
237.09619692120191
 30
0.0
  0
VERTEX
  5
C5A
  8
0
 10
1286.184737955464
 20
273.99297577617358
 30
0.0
  0
VERTEX
  5
C5B
  8
0
 10
1275.407767934267
 20
289.82791658445518
 30
0.0
  0
SEQEND
  5
C5C
  8
0
  0
POLYLINE
  5
809
  8
0
 66
     1
 10
0.0
 20
0.0
 30
0.0
 70
   128
1001
REVIT
1002
{
1070
     3
1000
545292
1002
}
  0
VERTEX
  5
C5D
  8
0
 10
116.7056515049622
 20
-0.366864885121231
 30
0.0
  0
VERTEX
  5
C5E
  8
0
 10
116.7056515049622
 20
-69.768651091787433
 30
0.0
  0
VERTEX
  5
C5F
  8
0
 10
188.79187022294809
 20
-102.7436780136472
 30
0.0
  0
VERTEX
  5
C60
  8
0
 10
206.32405283028501
 20
-88.39076571311125
 30
0.0
  0
SEQEND
  5
C61
  8
0
  0
LINE
  5
80A
  8
0
 10
188.79187022294431
 20
-102.74367801364539
 30
0.0
 11
188.79187022294431
 21
-80.370866712168436
 31
0.0
1001
REVIT
1002
{
1070
     3
1000
545292
1002
}
  0
POLYLINE
  5
80B
  8
0
 66
     1
 10
0.0
 20
0.0
 30
0.0
 70
   128
1001
REVIT
1002
{
1070
     3
1000
545292
1002
}
  0
VERTEX
  5
C62
  8
0
 10
116.7056515049577
 20
657.73607433389452
 30
0.0
  0
VERTEX
  5
C63
  8
0
 10
188.79187022294499
 20
624.76104741203403
 30
0.0
  0
VERTEX
  5
C64
  8
0
 10
215.73429527592469
 20
646.81775721307065
 30
0.0
  0
VERTEX
  5
C65
  8
0
 10
143.648076557943
 20
679.79278413493944
 30
0.0
  0
VERTEX
  5
C66
  8
0
 10
116.7056515049602
 20
657.73607433389304
 30
0.0
  0
VERTEX
  5
C67
  8
0
 10
116.7056515049602
 20
184.8686842430937
 30
0.0
  0
VERTEX
  5
C68
  8
0
 10
188.7918702229488
 20
151.8936573212288
 30
0.0
  0
VERTEX
  5
C69
  8
0
 10
188.7918702229488
 20
624.76104741201846
 30
0.0
  0
SEQEND
  5
C6A
  8
0
  0
LINE
  5
80C
  8
0
 10
215.7342952759314
 20
194.49838772952279
 30
0.0
 11
215.7342952759314
 21
646.81775721307724
 31
0.0
1001
REVIT
1002
{
1070
     3
1000
545292
1002
}
  0
POLYLINE
  5
80D
  8
0
 66
     1
 10
0.0
 20
0.0
 30
0.0
 70
   128
1001
REVIT
1002
{
1070
     3
1000
545292
1002
}
  0
VERTEX
  5
C6B
  8
0
 10
430.31547912170629
 20
914.47617641809063
 30
0.0
  0
VERTEX
  5
C6C
  8
0
 10
502.40169783969361
 20
881.50114949623003
 30
0.0
  0
VERTEX
  5
C6D
  8
0
 10
529.34412289267675
 20
903.55785929726665
 30
0.0
  0
VERTEX
  5
C6E
  8
0
 10
457.25790417468892
 20
936.53288621913737
 30
0.0
  0
VERTEX
  5
C6F
  8
0
 10
430.31547912170629
 20
914.47617641809063
 30
0.0
  0
VERTEX
  5
C70
  8
0
 10
430.31547912170629
 20
733.74529076867543
 30
0.0
  0
SEQEND
  5
C71
  8
0
  0
LINE
  5
80E
  8
0
 10
502.40169783969122
 20
847.7370308809069
 30
0.0
 11
502.40169783969122
 21
881.50114949623196
 31
0.0
1001
REVIT
1002
{
1070
     3
1000
545292
1002
}
  0
LINE
  5
80F
  8
0
 10
529.34412289267584
 20
890.34176128920842
 30
0.0
 11
529.34412289267584
 21
903.55785929726665
 31
0.0
1001
REVIT
1002
{
1070
     3
1000
545292
1002
}
  0
POLYLINE
  5
810
  8
0
 66
     1
 10
0.0
 20
0.0
 30
0.0
 70
   128
1001
REVIT
1002
{
1070
     3
1000
545292
1002
}
  0
VERTEX
  5
C72
  8
0
 10
532.72913029920244
 20
821.31250903433295
 30
0.0
  0
VERTEX
  5
C73
  8
0
 10
518.31188655560766
 20
827.90751441870702
 30
0.0
  0
VERTEX
  5
C74
  8
0
 10
659.21041829366709
 20
1050.713885701902
 30
0.0
  0
VERTEX
  5
C75
  8
0
 10
1091.7277306015731
 20
852.86372417072744
 30
0.0
  0
VERTEX
  5
C76
  8
0
 10
1091.7277306015731
 20
647.38351809822655
 30
0.0
  0
VERTEX
  5
C77
  8
0
 10
1102.5047006227701
 20
656.20620201864756
 30
0.0
  0
VERTEX
  5
C78
  8
0
 10
1102.5047006227701
 20
861.68640809114459
 30
0.0
  0
VERTEX
  5
C79
  8
0
 10
669.98738831485855
 20
1059.536569622315
 30
0.0
  0
VERTEX
  5
C7A
  8
0
 10
659.21041829366709
 20
1050.7138857018981
 30
0.0
  0
VERTEX
  5
C7B
  8
0
 10
673.6276620372621
 20
1044.1188803175271
 30
0.0
  0
VERTEX
  5
C7C
  8
0
 10
673.6276620372621
 20
838.63867424501416
 30
0.0
  0
VERTEX
  5
C7D
  8
0
 10
532.72913029919926
 20
615.83230296181944
 30
0.0
  0
VERTEX
  5
C7E
  8
0
 10
532.72913029919926
 20
821.31250903433568
 30
0.0
  0
VERTEX
  5
C7F
  8
0
 10
673.62766203725562
 20
1044.118880317531
 30
0.0
  0
SEQEND
  5
C80
  8
0
  0
POLYLINE
  5
811
  8
0
 66
     1
 10
0.0
 20
0.0
 30
0.0
 70
   128
1001
REVIT
1002
{
1070
     3
1000
545292
1002
}
  0
VERTEX
  5
C81
  8
0
 10
518.31188655560766
 20
827.90751441870782
 30
0.0
  0
VERTEX
  5
C82
  8
0
 10
518.31188655560766
 20
622.42730834620295
 30
0.0
  0
VERTEX
  5
C83
  8
0
 10
532.72913029920096
 20
615.8323029618291
 30
0.0
  0
SEQEND
  5
C84
  8
0
  0
POLYLINE
  5
812
  8
0
 66
     1
 10
0.0
 20
0.0
 30
0.0
 70
   128
1001
REVIT
1002
{
1070
     3
1000
545292
1002
}
  0
VERTEX
  5
C85
  8
0
 10
297.28939799941298
 20
521.91815481767321
 30
0.0
  0
VERTEX
  5
C86
  8
0
 10
296.56853581224129
 20
522.24790508688443
 30
0.0
  0
VERTEX
  5
C87
  8
0
 10
669.17192300597162
 20
1111.4549578814481
 30
0.0
  0
VERTEX
  5
C88
  8
0
 10
669.8927851931511
 20
1111.1252076122321
 30
0.0
  0
SEQEND
  5
C89
  8
0
  0
POLYLINE
  5
813
  8
0
 66
     1
 10
0.0
 20
0.0
 30
0.0
 70
   128
1001
REVIT
1002
{
1070
     3
1000
545292
1002
}
  0
VERTEX
  5
C8A
  8
0
 10
518.31188655560493
 20
665.94633637503694
 30
0.0
  0
VERTEX
  5
C8B
  8
0
 10
297.2893979994152
 20
316.43794874516237
 30
0.0
  0
VERTEX
  5
C8C
  8
0
 10
297.2893979994152
 20
521.91815481766605
 30
0.0
  0
VERTEX
  5
C8D
  8
0
 10
669.35393669207713
 20
1110.2731130040479
 30
0.0
  0
SEQEND
  5
C8E
  8
0
  0
POLYLINE
  5
814
  8
0
 66
     1
 10
0.0
 20
0.0
 30
0.0
 70
   128
1001
REVIT
1002
{
1070
     3
1000
545292
1002
}
  0
VERTEX
  5
C8F
  8
0
 10
296.56853581223351
 20
522.24790508688864
 30
0.0
  0
VERTEX
  5
C90
  8
0
 10
296.56853581223351
 20
316.76769901438399
 30
0.0
  0
VERTEX
  5
C91
  8
0
 10
297.28939799941128
 20
316.43794874515908
 30
0.0
  0
SEQEND
  5
C92
  8
0
  0
POLYLINE
  5
815
  8
0
 66
     1
 10
0.0
 20
0.0
 30
0.0
 70
   128
1001
REVIT
1002
{
1070
     3
1000
545292
1002
}
  0
VERTEX
  5
C93
  8
0
 10
1198.3562659259719
 20
760.38367399167191
 30
0.0
  0
VERTEX
  5
C94
  8
0
 10
1383.635156068498
 20
675.62993743622246
 30
0.0
  0
VERTEX
  5
C95
  8
0
 10
1383.635156068498
 20
674.8080166119405
 30
0.0
  0
VERTEX
  5
C96
  8
0
 10
1346.918091091253
 20
616.74640368499422
 30
0.0
  0
SEQEND
  5
C97
  8
0
  0
POLYLINE
  5
816
  8
0
 66
     1
 10
0.0
 20
0.0
 30
0.0
 70
   128
1001
REVIT
1002
{
1070
     3
1000
545292
1002
}
  0
VERTEX
  5
C98
  8
0
 10
902.68357414373236
 20
16.325239330593149
 30
0.0
  0
VERTEX
  5
C99
  8
0
 10
952.3391882065157
 20
-6.389160726204409
 30
0.0
  0
VERTEX
  5
C9A
  8
0
 10
974.3740455050106
 20
28.455110082425339
 30
0.0
  0
SEQEND
  5
C9B
  8
0
  0
LINE
  5
817
  8
0
 10
1003.055767248802
 20
73.810233837504015
 30
0.0
 11
1141.4370691787831
 21
292.6360466840348
 31
0.0
1001
REVIT
1002
{
1070
     3
1000
545292
1002
}
  0
LINE
  5
818
  8
0
 10
1170.118790922571
 20
337.99117043909968
 30
0.0
 11
1317.8332226667519
 21
571.57569482765598
 31
0.0
1001
REVIT
1002
{
1070
     3
1000
545292
1002
}
  0
LINE
  5
819
  8
0
 10
1346.5149444105309
 20
616.93081858271512
 30
0.0
 11
1383.635156068503
 21
675.62993743622485
 31
0.0
1001
REVIT
1002
{
1070
     3
1000
545292
1002
}
  0
POLYLINE
  5
81A
  8
0
 66
     1
 10
0.0
 20
0.0
 30
0.0
 70
   128
1001
REVIT
1002
{
1070
     3
1000
545292
1002
}
  0
VERTEX
  5
C9C
  8
0
 10
790.45720000396068
 20
-229.50254727955121
 30
0.0
  0
VERTEX
  5
C9D
  8
0
 10
787.98807153809628
 20
-242.07221780374181
 30
0.0
  0
VERTEX
  5
C9E
  8
0
 10
787.4732717606081
 20
-242.28338918192571
 30
0.0
  0
VERTEX
  5
C9F
  8
0
 10
747.09159413651673
 20
-223.81124664919071
 30
0.0
  0
SEQEND
  5
CA0
  8
0
  0
LINE
  5
81B
  8
0
 10
303.13318890954213
 20
-20.727486328529039
 30
0.0
 11
392.97770971980481
 21
-61.825848056866342
 31
0.0
1001
REVIT
1002
{
1070
     3
1000
545292
1002
}
  0
LINE
  5
81C
  8
0
 10
478.30270039416018
 20
-100.8568017486122
 30
0.0
 11
568.14722120446345
 21
-141.9551634769789
 31
0.0
1001
REVIT
1002
{
1070
     3
1000
545292
1002
}
  0
LINE
  5
81D
  8
0
 10
653.47221187903767
 20
-180.98611716881709
 30
0.0
 11
744.33177799082694
 21
-222.54879991080159
 31
0.0
1001
REVIT
1002
{
1070
     3
1000
545292
1002
}
  0
POLYLINE
  5
81E
  8
0
 66
     1
 10
0.0
 20
0.0
 30
0.0
 70
   128
1001
REVIT
1002
{
1070
     3
1000
545292
1002
}
  0
VERTEX
  5
CA1
  8
0
 10
974.77719218575498
 20
28.270695184718988
 30
0.0
  0
VERTEX
  5
CA2
  8
0
 10
952.57204308729695
 20
-6.8428623051963759
 30
0.0
  0
VERTEX
  5
CA3
  8
0
 10
823.39447556488699
 20
-178.2292817614657
 30
0.0
  0
VERTEX
  5
CA4
  8
0
 10
791.49617632314801
 20
-226.9850139703081
 30
0.0
  0
SEQEND
  5
CA5
  8
0
  0
LINE
  5
81F
  8
0
 10
1318.236369347477
 20
571.39127992993247
 30
0.0
 11
1170.5219376033249
 21
337.8067555414242
 31
0.0
1001
REVIT
1002
{
1070
     3
1000
545292
1002
}
  0
LINE
  5
820
  8
0
 10
1141.840215859527
 20
292.45163178633339
 30
0.0
 11
1003.458913929534
 21
73.625818939783358
 31
0.0
1001
REVIT
1002
{
1070
     3
1000
545292
1002
}
  0
POLYLINE
  5
821
  8
0
 66
     1
 10
0.0
 20
0.0
 30
0.0
 70
   128
1001
REVIT
1002
{
1070
     3
1000
545292
1002
}
  0
VERTEX
  5
CA6
  8
0
 10
747.78129866402628
 20
-206.6865971126372
 30
0.0
  0
VERTEX
  5
CA7
  8
0
 10
791.24112062545214
 20
-226.56680202119011
 30
0.0
  0
VERTEX
  5
CA8
  8
0
 10
823.16933544700169
 20
-177.7653446159384
 30
0.0
  0
VERTEX
  5
CA9
  8
0
 10
952.33918820652605
 20
-6.3891607262039543
 30
0.0
  0
SEQEND
  5
CAA
  8
0
  0
POLYLINE
  5
822
  8
0
 66
     1
 10
0.0
 20
0.0
 30
0.0
 70
   128
1001
REVIT
1002
{
1070
     3
1000
545292
1002
}
  0
VERTEX
  5
CAB
  8
0
 10
787.47327176059912
 20
-242.28338918191619
 30
0.0
  0
VERTEX
  5
CAC
  8
0
 10
789.94240022647637
 20
-229.7137186577113
 30
0.0
  0
VERTEX
  5
CAD
  8
0
 10
745.80937434281805
 20
-209.52556421520029
 30
0.0
  0
SEQEND
  5
CAE
  8
0
  0
LINE
  5
823
  8
0
 10
347.37577312776881
 20
-27.266611529097869
 30
0.0
 11
355.84107421608383
 21
-31.138967941365308
 31
0.0
1001
REVIT
1002
{
1070
     3
1000
545292
1002
}
  0
LINE
  5
824
  8
0
 10
522.54528461188124
 20
-107.39592694895531
 30
0.0
 11
531.01058570133023
 21
-111.2682833617373
 31
0.0
1001
REVIT
1002
{
1070
     3
1000
545292
1002
}
  0
LINE
  5
825
  8
0
 10
697.71479609745313
 20
-187.5252423694746
 30
0.0
 11
706.18009718492851
 21
-191.39759878135959
 31
0.0
1001
REVIT
1002
{
1070
     3
1000
545292
1002
}
  0
LINE
  5
826
  8
0
 10
781.20366660609716
 20
-158.56862318382829
 30
0.0
 11
823.16933544700169
 21
-177.76534461592831
 31
0.0
1001
REVIT
1002
{
1070
     3
1000
545292
1002
}
  0
POLYLINE
  5
827
  8
0
 66
     1
 10
0.0
 20
0.0
 30
0.0
 70
   128
1001
REVIT
1002
{
1070
     3
1000
545292
1002
}
  0
VERTEX
  5
CAF
  8
0
 10
1265.3737854840731
 20
595.57267211634803
 30
0.0
  0
VERTEX
  5
CB0
  8
0
 10
1439.248066907976
 20
516.03584506480206
 30
0.0
  0
VERTEX
  5
CB1
  8
0
 10
1428.4710968867721
 20
531.87078587308213
 30
0.0
  0
VERTEX
  5
CB2
  8
0
 10
1265.3737854840731
 20
606.47780965702486
 30
0.0
  0
SEQEND
  5
CB3
  8
0
  0
POLYLINE
  5
828
  8
0
 66
     1
 10
0.0
 20
0.0
 30
0.0
 70
   128
1001
REVIT
1002
{
1070
     3
1000
545292
1002
}
  0
VERTEX
  5
CB4
  8
0
 10
1238.0085422319701
 20
666.56584725622645
 30
0.0
  0
VERTEX
  5
CB5
  8
0
 10
1451.803921422221
 20
568.76756472805732
 30
0.0
  0
VERTEX
  5
CB6
  8
0
 10
1428.471096886781
 20
531.87078587308361
 30
0.0
  0
SEQEND
  5
CB7
  8
0
  0
POLYLINE
  5
829
  8
0
 66
     1
 10
0.0
 20
0.0
 30
0.0
 70
   128
1001
REVIT
1002
{
1070
     3
1000
545292
1002
}
  0
VERTEX
  5
CB8
  8
0
 10
1439.248066907971
 20
516.03584506479376
 30
0.0
  0
VERTEX
  5
CB9
  8
0
 10
1462.580891443414
 20
552.93262391977282
 30
0.0
  0
VERTEX
  5
CBA
  8
0
 10
1451.803921422216
 20
568.76756472805494
 30
0.0
  0
SEQEND
  5
CBB
  8
0
  0
LINE
  5
82A
  8
0
 10
1367.801987964825
 20
649.7706319949225
 30
0.0
 11
1367.801987964825
 21
607.19330083280636
 31
0.0
1001
REVIT
1002
{
1070
     3
1000
545292
1002
}
  0
LINE
  5
82B
  8
0
 10
824.00301411939324
 20
-178.69411477912811
 30
0.0
 11
829.00042184506594
 21
-170.7915889866735
 31
0.0
1001
REVIT
1002
{
1070
     3
1000
545292
1002
}
  0
LINE
  5
82C
  8
0
 10
884.4750162301483
 20
-206.35634943484979
 30
0.0
 11
1019.819172873556
 21
7.6667496288330312
 31
0.0
1001
REVIT
1002
{
1070
     3
1000
545292
1002
}
  0
LINE
  5
82D
  8
0
 10
1048.5008946173541
 20
53.021873383913537
 30
0.0
 11
1186.8821965473351
 21
271.84768623044442
 31
0.0
1001
REVIT
1002
{
1070
     3
1000
545292
1002
}
  0
LINE
  5
82E
  8
0
 10
1215.56391829113
 20
317.20280998554671
 30
0.0
 11
1363.2783500352959
 21
550.78733437407345
 31
0.0
1001
REVIT
1002
{
1070
     3
1000
545292
1002
}
  0
POLYLINE
  5
82F
  8
0
 66
     1
 10
0.0
 20
0.0
 30
0.0
 70
   128
1001
REVIT
1002
{
1070
     3
1000
545292
1002
}
  0
VERTEX
  5
CBC
  8
0
 10
892.67365043138489
 20
-268.58197564937342
 30
0.0
  0
VERTEX
  5
CBD
  8
0
 10
903.45062045257896
 20
-273.5117789169712
 30
0.0
  0
VERTEX
  5
CBE
  8
0
 10
892.67365043138807
 20
-257.67683810869698
 30
0.0
  0
VERTEX
  5
CBF
  8
0
 10
799.34680656466276
 20
-214.9855270125133
 30
0.0
  0
SEQEND
  5
CC0
  8
0
  0
POLYLINE
  5
830
  8
0
 66
     1
 10
0.0
 20
0.0
 30
0.0
 70
   128
1001
REVIT
1002
{
1070
     3
1000
545292
1002
}
  0
VERTEX
  5
CC1
  8
0
 10
823.30058226722144
 20
-178.3727952585825
 30
0.0
  0
VERTEX
  5
CC2
  8
0
 10
916.00647496683018
 20
-220.78005925371781
 30
0.0
  0
VERTEX
  5
CC3
  8
0
 10
892.67365043138807
 20
-257.67683810869198
 30
0.0
  0
SEQEND
  5
CC4
  8
0
  0
POLYLINE
  5
831
  8
0
 66
     1
 10
0.0
 20
0.0
 30
0.0
 70
   128
1001
REVIT
1002
{
1070
     3
1000
545292
1002
}
  0
VERTEX
  5
CC5
  8
0
 10
903.45062045257669
 20
-273.51177891697949
 30
0.0
  0
VERTEX
  5
CC6
  8
0
 10
926.7834449880288
 20
-236.61500006200569
 30
0.0
  0
VERTEX
  5
CC7
  8
0
 10
916.00647496683405
 20
-220.78005925372489
 30
0.0
  0
SEQEND
  5
CC8
  8
0
  0
POLYLINE
  5
832
  8
0
 66
     1
 10
0.0
 20
0.0
 30
0.0
 70
   128
1001
REVIT
1002
{
1070
     3
1000
545292
1002
}
  0
VERTEX
  5
CC9
  8
0
 10
518.31188655560152
 20
636.56105020867346
 30
0.0
  0
VERTEX
  5
CCA
  8
0
 10
167.0699334759598
 20
81.13336730289393
 30
0.0
  0
VERTEX
  5
CCB
  8
0
 10
40.065204920331318
 20
-124.3875785178038
 30
0.0
  0
VERTEX
  5
CCC
  8
0
 10
26.593992393838558
 20
-104.5939025074517
 30
0.0
  0
VERTEX
  5
CCD
  8
0
 10
297.2893979994152
 20
323.46351088090307
 30
0.0
  0
SEQEND
  5
CCE
  8
0
  0
POLYLINE
  5
833
  8
0
 66
     1
 10
0.0
 20
0.0
 30
0.0
 70
   128
1001
REVIT
1002
{
1070
     3
1000
545292
1002
}
  0
VERTEX
  5
CCF
  8
0
 10
26.593992393833449
 20
-104.5939025074492
 30
0.0
  0
VERTEX
  5
CD0
  8
0
 10
-45.492226324153762
 20
-71.618875585588725
 30
0.0
  0
VERTEX
  5
CD1
  8
0
 10
116.7056515049515
 20
184.8686842430912
 30
0.0
  0
SEQEND
  5
CD2
  8
0
  0
LINE
  5
834
  8
0
 10
215.73429527593191
 20
341.46515476363669
 30
0.0
 11
296.56853581223618
 21
469.29036051389261
 31
0.0
1001
REVIT
1002
{
1070
     3
1000
545292
1002
}
  0
POLYLINE
  5
835
  8
0
 66
     1
 10
0.0
 20
0.0
 30
0.0
 70
   128
1001
REVIT
1002
{
1070
     3
1000
545292
1002
}
  0
VERTEX
  5
CD3
  8
0
 10
40.065204920327339
 20
-124.387578517807
 30
0.0
  0
VERTEX
  5
CD4
  8
0
 10
-32.021013797657247
 20
-91.412551595947889
 30
0.0
  0
VERTEX
  5
CD5
  8
0
 10
-45.492226324149897
 20
-71.618875585595788
 30
0.0
  0
SEQEND
  5
CD6
  8
0
  0
POLYLINE
  5
836
  8
0
 66
     1
 10
0.0
 20
0.0
 30
0.0
 70
   128
1001
REVIT
1002
{
1070
     3
1000
545292
1002
}
  0
VERTEX
  5
CD7
  8
0
 10
888.90171092397713
 20
-276.60536021780672
 30
0.0
  0
VERTEX
  5
CD8
  8
0
 10
892.67365043139819
 20
-278.33079136147421
 30
0.0
  0
VERTEX
  5
CD9
  8
0
 10
892.67365043139819
 20
-375.13617802938143
 30
0.0
  0
VERTEX
  5
CDA
  8
0
 10
888.90171092397645
 20
-380.35953034271938
 30
0.0
  0
VERTEX
  5
CDB
  8
0
 10
888.90171092397645
 20
-383.20674759766138
 30
0.0
  0
VERTEX
  5
CDC
  8
0
 10
892.67365043140023
 20
-380.11880822551689
 30
0.0
  0
VERTEX
  5
CDD
  8
0
 10
889.96897848357003
 20
-378.88158657787972
 30
0.0
  0
SEQEND
  5
CDE
  8
0
  0
POLYLINE
  5
837
  8
0
 66
     1
 10
0.0
 20
0.0
 30
0.0
 70
   128
1001
REVIT
1002
{
1070
     3
1000
545292
1002
}
  0
VERTEX
  5
CDF
  8
0
 10
884.05207441443815
 20
-397.8540200678745
 30
0.0
  0
VERTEX
  5
CE0
  8
0
 10
892.67365043139216
 20
-390.79587293154299
 30
0.0
  0
VERTEX
  5
CE1
  8
0
 10
892.67365043139216
 20
-380.11880822552263
 30
0.0
  0
SEQEND
  5
CE2
  8
0
  0
POLYLINE
  5
838
  8
0
 66
     1
 10
0.0
 20
0.0
 30
0.0
 70
   128
1001
REVIT
1002
{
1070
     3
1000
545292
1002
}
  0
VERTEX
  5
CE3
  8
0
 10
179.09259720386831
 20
37.507180116934933
 30
0.0
  0
VERTEX
  5
CE4
  8
0
 10
179.09259720386831
 20
-75.329906079447923
 30
0.0
  0
VERTEX
  5
CE5
  8
0
 10
882.9743774123292
 20
-397.31267983243953
 30
0.0
  0
VERTEX
  5
CE6
  8
0
 10
882.9743774123292
 20
-272.03512061515357
 30
0.0
  0
VERTEX
  5
CE7
  8
0
 10
790.41905499312975
 20
-229.6967332948993
 30
0.0
  0
SEQEND
  5
CE8
  8
0
  0
POLYLINE
  5
839
  8
0
 66
     1
 10
0.0
 20
0.0
 30
0.0
 70
   128
1001
REVIT
1002
{
1070
     3
1000
545292
1002
}
  0
VERTEX
  5
CE9
  8
0
 10
791.30107815963117
 20
-227.3013474883858
 30
0.0
  0
VERTEX
  5
CEA
  8
0
 10
884.05207441444611
 20
-269.7292435956449
 30
0.0
  0
VERTEX
  5
CEB
  8
0
 10
892.67365043139125
 20
-262.67109645930458
 30
0.0
  0
VERTEX
  5
CEC
  8
0
 10
796.83196417321119
 20
-218.8293991029268
 30
0.0
  0
SEQEND
  5
CED
  8
0
  0
POLYLINE
  5
83A
  8
0
 66
     1
 10
0.0
 20
0.0
 30
0.0
 70
   128
1001
REVIT
1002
{
1070
     3
1000
545292
1002
}
  0
VERTEX
  5
CEE
  8
0
 10
892.67365043139409
 20
-278.33079136146779
 30
0.0
  0
VERTEX
  5
CEF
  8
0
 10
888.90171092397554
 20
-279.28331779240779
 30
0.0
  0
VERTEX
  5
CF0
  8
0
 10
888.90171092397554
 20
-276.4361005374754
 30
0.0
  0
VERTEX
  5
CF1
  8
0
 10
892.67365043139125
 20
-273.34816116532443
 30
0.0
  0
VERTEX
  5
CF2
  8
0
 10
892.67365043139125
 20
-262.6710964593035
 30
0.0
  0
SEQEND
  5
CF3
  8
0
  0
LINE
  5
83B
  8
0
 10
179.42152609611259
 20
-76.08450857959383
 30
0.0
 11
883.30330630456444
 21
-398.0672823325836
 31
0.0
1001
REVIT
1002
{
1070
     3
1000
545292
1002
}
  0
POLYLINE
  5
83C
  8
0
 66
     1
 10
0.0
 20
0.0
 30
0.0
 70
   128
1001
REVIT
1002
{
1070
     3
1000
545292
1002
}
  0
VERTEX
  5
CF4
  8
0
 10
1265.3737854840731
 20
588.96545248237089
 30
0.0
  0
VERTEX
  5
CF5
  8
0
 10
1265.3737854840731
 20
644.92211350628259
 30
0.0
  0
VERTEX
  5
CF6
  8
0
 10
1264.2412315579611
 20
643.99493589576082
 30
0.0
  0
VERTEX
  5
CF7
  8
0
 10
1264.2412315579611
 20
592.48696397121375
 30
0.0
  0
SEQEND
  5
CF8
  8
0
  0
LINE
  5
83D
  8
0
 10
1264.2412315579591
 20
643.99493589576275
 30
0.0
 11
1238.0085422319501
 21
655.99478346915544
 31
0.0
1001
REVIT
1002
{
1070
     3
1000
545292
1002
}
  0
LINE
  5
83E
  8
0
 10
1265.3737854840731
 20
644.92211350628259
 30
0.0
 11
1238.0085422319501
 21
657.4400350869995
 31
0.0
1001
REVIT
1002
{
1070
     3
1000
545292
1002
}
  0
LINE
  5
83F
  8
0
 10
292.25410743512521
 20
-32.304121925350273
 30
0.0
 11
292.44368832118067
 21
-32.239253368153641
 31
0.0
1001
REVIT
1002
{
1070
     3
1000
545292
1002
}
  0
LINE
  5
840
  8
0
 10
222.42678188961119
 20
-0.362400183005775
 30
0.0
 11
222.19583244375261
 21
2.5146326267772561
 31
0.0
1001
REVIT
1002
{
1070
     3
1000
545292
1002
}
  0
LINE
  5
841
  8
0
 10
290.89430207006131
 20
-30.471327416600388
 30
0.0
 11
286.84569192153168
 21
-19.23418342294417
 31
0.0
1001
REVIT
1002
{
1070
     3
1000
545292
1002
}
  0
LINE
  5
842
  8
0
 10
223.2226258622901
 20
0.4843329887810342
 30
0.0
 11
219.1740322256689
 21
11.721431152747749
 31
0.0
1001
REVIT
1002
{
1070
     3
1000
545292
1002
}
  0
LINE
  5
843
  8
0
 10
222.54527124484511
 20
1.544745682183247
 30
0.0
 11
218.49484384093989
 21
12.78693356990561
 31
0.0
1001
REVIT
1002
{
1070
     3
1000
545292
1002
}
  0
POLYLINE
  5
844
  8
0
 66
     1
 10
0.0
 20
0.0
 30
0.0
 70
   128
1001
REVIT
1002
{
1070
     3
1000
545292
1002
}
  0
VERTEX
  5
CF9
  8
0
 10
394.96781205237812
 20
269.44463518036548
 30
0.0
  0
VERTEX
  5
CFA
  8
0
 10
219.36895130378139
 20
16.636054469227929
 30
0.0
  0
VERTEX
  5
CFB
  8
0
 10
218.19505131055109
 20
31.25981242414241
 30
0.0
  0
VERTEX
  5
CFC
  8
0
 10
391.5097157848611
 20
280.77985005566188
 30
0.0
  0
SEQEND
  5
CFD
  8
0
  0
LINE
  5
845
  8
0
 10
217.0995636349366
 20
28.227590901728039
 30
0.0
 11
216.60228819325309
 21
29.607806713544729
 31
0.0
1001
REVIT
1002
{
1070
     3
1000
545292
1002
}
  0
LINE
  5
846
  8
0
 10
218.2440892173133
 20
13.969762135019209
 30
0.0
 11
217.070241741774
 21
28.592865855833448
 31
0.0
1001
REVIT
1002
{
1070
     3
1000
545292
1002
}
  0
POLYLINE
  5
847
  8
0
 66
     1
 10
0.0
 20
0.0
 30
0.0
 70
   128
1001
REVIT
1002
{
1070
     3
1000
545292
1002
}
  0
VERTEX
  5
CFE
  8
0
 10
171.5984240367261
 20
62.886134983445352
 30
0.0
  0
VERTEX
  5
CFF
  8
0
 10
177.03985840270909
 20
52.051556351190811
 30
0.0
  0
VERTEX
  5
D00
  8
0
 10
166.7504435492111
 20
43.628014780609419
 30
0.0
  0
VERTEX
  5
D01
  8
0
 10
166.7504435492111
 20
56.81193580091076
 30
0.0
  0
VERTEX
  5
D02
  8
0
 10
344.66810778168878
 20
338.16912889191849
 30
0.0
  0
SEQEND
  5
D03
  8
0
  0
LINE
  5
848
  8
0
 10
220.056808050348
 20
14.97606089942451
 30
0.0
 11
396.07150437671311
 21
268.38331748853358
 31
0.0
1001
REVIT
1002
{
1070
     3
1000
545292
1002
}
  0
LINE
  5
849
  8
0
 10
217.51269945824481
 20
32.842151424203621
 30
0.0
 11
390.90127811729963
 21
282.46860284509069
 31
0.0
1001
REVIT
1002
{
1070
     3
1000
545292
1002
}
  0
LINE
  5
84A
  8
0
 10
166.7504435492111
 20
43.628014780609419
 30
0.0
 11
217.8995153556057
 21
18.26169537741384
 31
0.0
1001
REVIT
1002
{
1070
     3
1000
545292
1002
}
  0
VIEWPORT
  5
503
 67
     1
  8
0
 10
143.41473388671869
 20
99.790247440338135
 30
0.0
 40
334.673629294997
 41
222.15178063964851
 68
     1
 69
     1
1001
ACAD
1000
MVIEW
1002
{
1070
    16
1010
0.0
1020
0.0
1030
0.0
1010
0.0
1020
0.0
1030
1.0
1040
0.0
1040
222.15178063964851
1040
143.41473388671869
1040
99.790247440338135
1040
50.0
1040
0.0
1040
0.0
1070
     0
1070
   100
1070
     1
1070
     1
1070
     0
1070
     0
1070
     0
1070
     0
1040
0.0
1040
0.0
1040
0.0
1040
10.0
1040
10.0
1040
10.0
1040
10.0
1070
     0
1002
{
1002
}
1002
}
  0
VIEWPORT
  5
507
 67
     1
  8
0
 10
143.3724060058594
 20
99.832585573196425
 30
0.0
 40
229.39584960937501
 41
159.73213691711419
 68
     2
 69
     2
1001
ACAD
1000
MVIEW
1002
{
1070
    16
1010
0.0
1020
0.0
1030
0.0
1010
0.0
1020
0.0
1030
1.0
1040
0.0
1040
1524.506340976799
1040
861.48850699135846
1040
356.67485769195503
1040
50.0
1040
0.0
1040
0.0
1070
     0
1070
  1000
1070
     1
1070
     1
1070
     0
1070
     0
1070
     0
1070
     0
1040
0.0
1040
0.0
1040
0.0
1040
1.0
1040
1.0
1040
0.0
1040
0.0
1070
     0
1002
{
1002
}
1002
}
  0
ENDSEC
  0
EOF
