  0
SECTION
  2
HEADER
  9
$ACADVER
  1
AC1009
  9
$INSBASE
 10
0.0
 20
0.0
 30
0.0
  9
$EXTMIN
 10
-731.65567011198675
 20
-243.28154087428661
 30
0.0
  9
$EXTMAX
 10
319.42021801357811
 20
432.0763392636045
 30
0.0
  9
$LIMMIN
 10
0.0
 20
0.0
  9
$LIMMAX
 10
12.0
 20
9.0
  9
$ORTHOMODE
 70
     0
  9
$REGENMODE
 70
     1
  9
$FILLMODE
 70
     1
  9
$QTEXTMODE
 70
     0
  9
$MIRRTEXT
 70
     0
  9
$DRAGMODE
 70
     2
  9
$LTSCALE
 40
1.0
  9
$OSMODE
 70
     0
  9
$ATTMODE
 70
     1
  9
$TEXTSIZE
 40
0.2
  9
$TRACEWID
 40
0.05
  9
$TEXTSTYLE
  7
STANDARD
  9
$CLAYER
  8
0
  9
$CELTYPE
  6
CONTINUOUS
  9
$CECOLOR
 62
   256
  9
$DIMSCALE
 40
1.0
  9
$DIMASZ
 40
0.18
  9
$DIMEXO
 40
0.0625
  9
$DIMDLI
 40
0.38
  9
$DIMRND
 40
0.0
  9
$DIMDLE
 40
0.0
  9
$DIMEXE
 40
0.18
  9
$DIMTP
 40
0.0
  9
$DIMTM
 40
0.0
  9
$DIMTXT
 40
0.18
  9
$DIMCEN
 40
0.09
  9
$DIMTSZ
 40
0.0
  9
$DIMTOL
 70
     0
  9
$DIMLIM
 70
     0
  9
$DIMTIH
 70
     1
  9
$DIMTOH
 70
     1
  9
$DIMSE1
 70
     0
  9
$DIMSE2
 70
     0
  9
$DIMTAD
 70
     0
  9
$DIMZIN
 70
     0
  9
$DIMBLK
  1

  9
$DIMASO
 70
     1
  9
$DIMSHO
 70
     1
  9
$DIMPOST
  1

  9
$DIMAPOST
  1

  9
$DIMALT
 70
     0
  9
$DIMALTD
 70
     2
  9
$DIMALTF
 40
25.399999999999999
  9
$DIMLFAC
 40
1.0
  9
$DIMTOFL
 70
     0
  9
$DIMTVP
 40
0.0
  9
$DIMTIX
 70
     0
  9
$DIMSOXD
 70
     0
  9
$DIMSAH
 70
     0
  9
$DIMBLK1
  1

  9
$DIMBLK2
  1

  9
$DIMSTYLE
  2
STANDARD
  9
$DIMCLRD
 70
     0
  9
$DIMCLRE
 70
     0
  9
$DIMCLRT
 70
     0
  9
$DIMTFAC
 40
1.0
  9
$DIMGAP
 40
0.09
  9
$LUNITS
 70
     2
  9
$LUPREC
 70
     4
  9
$SKETCHINC
 40
0.1
  9
$FILLETRAD
 40
0.0
  9
$AUNITS
 70
     0
  9
$AUPREC
 70
     0
  9
$MENU
  1
.
  9
$ELEVATION
 40
0.0
  9
$PELEVATION
 40
0.0
  9
$THICKNESS
 40
0.0
  9
$LIMCHECK
 70
     0
  9
$BLIPMODE
 70
     0
  9
$CHAMFERA
 40
0.0
  9
$CHAMFERB
 40
0.0
  9
$SKPOLY
 70
     0
  9
$TDCREATE
 40
2458069.997621065
  9
$TDUPDATE
 40
2458070.079962824
  9
$TDINDWG
 40
0.0036909954
  9
$TDUSRTIMER
 40
0.0036909954
  9
$USRTIMER
 70
     1
  9
$ANGBASE
 50
0.0
  9
$ANGDIR
 70
     0
  9
$PDMODE
 70
     0
  9
$PDSIZE
 40
0.0
  9
$PLINEWID
 40
0.0
  9
$COORDS
 70
     2
  9
$SPLFRAME
 70
     0
  9
$SPLINETYPE
 70
     6
  9
$SPLINESEGS
 70
     8
  9
$ATTDIA
 70
     1
  9
$ATTREQ
 70
     0
  9
$HANDLING
 70
     1
  9
$HANDSEED
  5
939
  9
$SURFTAB1
 70
     6
  9
$SURFTAB2
 70
     6
  9
$SURFTYPE
 70
     6
  9
$SURFU
 70
     6
  9
$SURFV
 70
     6
  9
$UCSNAME
  2

  9
$UCSORG
 10
0.0
 20
0.0
 30
0.0
  9
$UCSXDIR
 10
1.0
 20
0.0
 30
0.0
  9
$UCSYDIR
 10
0.0
 20
1.0
 30
0.0
  9
$PUCSNAME
  2

  9
$PUCSORG
 10
0.0
 20
0.0
 30
0.0
  9
$PUCSXDIR
 10
1.0
 20
0.0
 30
0.0
  9
$PUCSYDIR
 10
0.0
 20
1.0
 30
0.0
  9
$USERI1
 70
     0
  9
$USERI2
 70
     0
  9
$USERI3
 70
     0
  9
$USERI4
 70
     0
  9
$USERI5
 70
     0
  9
$USERR1
 40
0.0
  9
$USERR2
 40
0.0
  9
$USERR3
 40
0.0
  9
$USERR4
 40
0.0
  9
$USERR5
 40
0.0
  9
$WORLDVIEW
 70
     1
  9
$SHADEDGE
 70
     3
  9
$SHADEDIF
 70
    70
  9
$TILEMODE
 70
     1
  9
$MAXACTVP
 70
    64
  9
$PLIMCHECK
 70
     0
  9
$PEXTMIN
 10
25.699999999999989
 20
19.5
 30
0.0
  9
$PEXTMAX
 10
231.30000000000001
 20
175.5
 30
0.0
  9
$PLIMMIN
 10
-20.0
 20
-7.5
  9
$PLIMMAX
 10
277.0
 20
202.5
  9
$UNITMODE
 70
     0
  9
$VISRETAIN
 70
     1
  9
$PLINEGEN
 70
     0
  9
$PSLTSCALE
 70
     1
  0
ENDSEC
  0
SECTION
  2
TABLES
  0
TABLE
  2
VPORT
 70
     1
  0
VPORT
  2
*ACTIVE
 70
     0
 10
0.0
 20
0.0
 11
1.0
 21
1.0
 12
156.6321625411934
 22
94.397399194658874
 13
0.0
 23
0.0
 14
1.0
 24
1.0
 15
0.0
 25
0.0
 16
0.0
 26
0.0
 36
1.0
 17
0.0
 27
0.0
 37
0.0
 40
675.35788013789136
 41
2.6232876712328759
 42
50.0
 43
0.0
 44
0.0
 50
0.0
 51
0.0
 71
     0
 72
  1000
 73
     1
 74
     1
 75
     0
 76
     0
 77
     0
 78
     0
  0
ENDTAB
  0
TABLE
  2
LTYPE
 70
     2
  0
LTYPE
  2
CONTINUOUS
 70
     0
  3
Solid line
 72
    65
 73
     0
 40
0.0
  0
LTYPE
  2
DASH
 70
     0
  3

 72
    65
 73
     2
 40
6.3499999999999988
 49
3.1749999999999989
 49
-3.1749999999999989
  0
ENDTAB
  0
TABLE
  2
LAYER
 70
     7
  0
LAYER
  2
0
 70
     0
 62
     7
  6
CONTINUOUS
  0
ENDTAB
  0
TABLE
  2
STYLE
 70
     2
  0
STYLE
  2
STANDARD
 70
     0
 40
0.0
 41
1.0
 50
0.0
 71
     0
 42
0.2
  3
txt
  4

  0
STYLE
  2
ARIAL
 70
     0
 40
9.8353293413173652
 41
1.0
 50
0.0
 71
     0
 42
0.2
  3
txt
  4

  0
ENDTAB
  0
TABLE
  2
VIEW
 70
     1
  0
ENDTAB
  0
TABLE
  2
UCS
 70
     0
  0
ENDTAB
  0
TABLE
  2
APPID
 70
     6
  0
APPID
  2
ACAD
 70
     0
  0
APPID
  2
ACADANNOTATIVE
 70
     0
  0
APPID
  2
REVIT
 70
     0
  0
APPID
  2
ACAD_PSEXT
 70
     0
  0
APPID
  2
ACAD_MLEADERVER
 70
     0
  0
APPID
  2
ACAD_NAV_VCDISPLAY
 70
     0
  0
ENDTAB
  0
TABLE
  2
DIMSTYLE
 70
     1
  0
DIMSTYLE
  2
STANDARD
 70
     0
  3

  4

  5

  6

  7

 40
1.0
 41
0.18
 42
0.0625
 43
0.38
 44
0.18
 45
0.0
 46
0.0
 47
0.0
 48
0.0
140
0.18
141
0.09
142
0.0
143
25.399999999999999
144
1.0
145
0.0
146
1.0
147
0.09
 71
     0
 72
     0
 73
     1
 74
     1
 75
     0
 76
     0
 77
     0
 78
     0
170
     0
171
     2
172
     0
173
     0
174
     0
175
     0
176
     0
177
     0
178
     0
  0
ENDTAB
  0
ENDSEC
  0
SECTION
  2
BLOCKS
  0
BLOCK
  8
0
  2
$MODEL_SPACE
 70
     0
 10
0.0
 20
0.0
 30
0.0
  3
$MODEL_SPACE
  1

  0
ENDBLK
  5
72
  8
0
  0
BLOCK
 67
     1
  8
0
  2
$PAPER_SPACE
 70
     0
 10
0.0
 20
0.0
 30
0.0
  3
$PAPER_SPACE
  1

  0
ENDBLK
  5
455
 67
     1
  8
0
  0
BLOCK
  8
0
  2
*U21
 70
     1
 10
0.0
 20
0.0
 30
0.0
  3
*U21
  1

  0
TEXT
  5
5D7
  8
0
  6
CONTINUOUS
 10
-729.62621095390455
 20
-186.05106440590399
 30
0.0
 40
9.8353293413173652
  1
* Similar design detail for metal fascia systems
  7
ARIAL
  0
ENDBLK
  5
5D9
  8
0
  0
BLOCK
  8
0
  2
*U22
 70
     1
 10
0.0
 20
0.0
 30
0.0
  3
*U22
  1

  0
TEXT
  5
5DB
  8
0
  6
CONTINUOUS
 10
-729.62621095390455
 20
-186.05106440590399
 30
0.0
 40
9.8353293413173652
  1
* Similar design detail for metal fascia systems
  7
ARIAL
  0
ENDBLK
  5
5DD
  8
0
  0
BLOCK
  8
0
  2
*U23
 70
     1
 10
0.0
 20
0.0
 30
0.0
  3
*U23
  1

  0
SOLID
  5
5DF
  8
0
  6
CONTINUOUS
 10
-362.2035489329167
 20
159.80165809160931
 30
0.0
 11
-362.96891579764679
 21
159.6494171566319
 31
0.0
 12
-361.43818206818662
 22
159.6494171566319
 32
0.0
 13
-361.43818206818662
 23
159.6494171566319
 33
0.0
210
0.0
220
0.0
230
1.0
  0
SOLID
  5
5E0
  8
0
  6
CONTINUOUS
 10
-362.96891579764679
 20
159.6494171566319
 30
0.0
 11
-363.6177624952897
 21
159.21587165398239
 31
0.0
 12
-360.78933537054371
 22
159.21587165398239
 32
0.0
 13
-360.78933537054371
 23
159.21587165398239
 33
0.0
210
0.0
220
0.0
230
1.0
  0
SOLID
  5
5E1
  8
0
  6
CONTINUOUS
 10
362.96891579764679
 20
159.6494171566319
 30
0.0
 11
361.43818206818662
 21
159.6494171566319
 31
0.0
 12
360.78933537054371
 22
159.21587165398239
 32
0.0
 13
360.78933537054371
 23
159.21587165398239
 33
0.0
210
0.0
220
0.0
230
-1.0
  0
SOLID
  5
5E2
  8
0
  6
CONTINUOUS
 10
-363.6177624952897
 20
159.21587165398239
 30
0.0
 11
-364.05130799793932
 21
158.56702495633951
 31
0.0
 12
-360.35578986789409
 22
158.56702495633951
 32
0.0
 13
-360.35578986789409
 23
158.56702495633951
 33
0.0
210
0.0
220
0.0
230
1.0
  0
SOLID
  5
5E3
  8
0
  6
CONTINUOUS
 10
363.6177624952897
 20
159.21587165398239
 30
0.0
 11
360.78933537054371
 21
159.21587165398239
 31
0.0
 12
360.35578986789409
 22
158.56702495633951
 32
0.0
 13
360.35578986789409
 23
158.56702495633951
 33
0.0
210
0.0
220
0.0
230
-1.0
  0
SOLID
  5
5E4
  8
0
  6
CONTINUOUS
 10
-364.05130799793932
 20
158.56702495633951
 30
0.0
 11
-364.20354893291659
 21
157.80165809160931
 31
0.0
 12
-360.20354893291682
 22
157.80165809160931
 32
0.0
 13
-360.20354893291682
 23
157.80165809160931
 33
0.0
210
0.0
220
0.0
230
1.0
  0
SOLID
  5
5E5
  8
0
  6
CONTINUOUS
 10
364.05130799793932
 20
158.56702495633951
 30
0.0
 11
360.35578986789409
 21
158.56702495633951
 31
0.0
 12
360.20354893291682
 22
157.80165809160931
 32
0.0
 13
360.20354893291682
 23
157.80165809160931
 33
0.0
210
0.0
220
0.0
230
-1.0
  0
SOLID
  5
5E6
  8
0
  6
CONTINUOUS
 10
-364.20354893291659
 20
157.80165809160931
 30
0.0
 11
-364.05130799793932
 21
157.0362912268792
 31
0.0
 12
-360.35578986789409
 22
157.0362912268792
 32
0.0
 13
-360.35578986789409
 23
157.0362912268792
 33
0.0
210
0.0
220
0.0
230
1.0
  0
SOLID
  5
5E7
  8
0
  6
CONTINUOUS
 10
364.20354893291659
 20
157.80165809160931
 30
0.0
 11
360.20354893291682
 21
157.80165809160931
 31
0.0
 12
360.35578986789409
 22
157.0362912268792
 32
0.0
 13
360.35578986789409
 23
157.0362912268792
 33
0.0
210
0.0
220
0.0
230
-1.0
  0
SOLID
  5
5E8
  8
0
  6
CONTINUOUS
 10
-364.05130799793932
 20
157.0362912268792
 30
0.0
 11
-363.6177624952897
 21
156.38744452923629
 31
0.0
 12
-360.78933537054371
 22
156.38744452923629
 32
0.0
 13
-360.78933537054371
 23
156.38744452923629
 33
0.0
210
0.0
220
0.0
230
1.0
  0
SOLID
  5
5E9
  8
0
  6
CONTINUOUS
 10
364.05130799793932
 20
157.0362912268792
 30
0.0
 11
360.35578986789409
 21
157.0362912268792
 31
0.0
 12
360.78933537054371
 22
156.38744452923629
 32
0.0
 13
360.78933537054371
 23
156.38744452923629
 33
0.0
210
0.0
220
0.0
230
-1.0
  0
SOLID
  5
5EA
  8
0
  6
CONTINUOUS
 10
362.96891579764679
 20
155.95389902658681
 30
0.0
 11
361.43818206818668
 21
155.95389902658681
 31
0.0
 12
362.2035489329167
 22
155.8016580916094
 32
0.0
 13
362.2035489329167
 23
155.8016580916094
 33
0.0
210
0.0
220
0.0
230
-1.0
  0
SOLID
  5
5EB
  8
0
  6
CONTINUOUS
 10
-363.6177624952897
 20
156.38744452923629
 30
0.0
 11
-362.96891579764679
 21
155.95389902658681
 31
0.0
 12
-361.43818206818662
 22
155.95389902658681
 32
0.0
 13
-361.43818206818662
 23
155.95389902658681
 33
0.0
210
0.0
220
0.0
230
1.0
  0
SOLID
  5
5EC
  8
0
  6
CONTINUOUS
 10
363.6177624952897
 20
156.38744452923629
 30
0.0
 11
360.78933537054371
 21
156.38744452923629
 31
0.0
 12
361.43818206818662
 22
155.95389902658681
 32
0.0
 13
361.43818206818662
 23
155.95389902658681
 33
0.0
210
0.0
220
0.0
230
-1.0
  0
LINE
  5
5ED
  8
0
  6
CONTINUOUS
 10
-362.2035489329167
 20
159.80165809160931
 30
0.0
 11
-362.96891579764679
 21
159.6494171566319
 31
0.0
  0
LINE
  5
5EE
  8
0
  6
CONTINUOUS
 10
-361.43818206818662
 20
159.6494171566319
 30
0.0
 11
-362.2035489329167
 21
159.80165809160931
 31
0.0
  0
LINE
  5
5EF
  8
0
  6
CONTINUOUS
 10
-362.96891579764679
 20
159.6494171566319
 30
0.0
 11
-363.6177624952897
 21
159.21587165398239
 31
0.0
  0
LINE
  5
5F0
  8
0
  6
CONTINUOUS
 10
-361.43818206818662
 20
159.6494171566319
 30
0.0
 11
-360.78933537054371
 21
159.21587165398239
 31
0.0
  0
LINE
  5
5F1
  8
0
  6
CONTINUOUS
 10
-363.6177624952897
 20
159.21587165398239
 30
0.0
 11
-364.05130799793932
 21
158.56702495633951
 31
0.0
  0
LINE
  5
5F2
  8
0
  6
CONTINUOUS
 10
-360.78933537054371
 20
159.21587165398239
 30
0.0
 11
-360.35578986789409
 21
158.56702495633951
 31
0.0
  0
LINE
  5
5F3
  8
0
  6
CONTINUOUS
 10
-364.05130799793932
 20
158.56702495633951
 30
0.0
 11
-364.20354893291659
 21
157.80165809160931
 31
0.0
  0
LINE
  5
5F4
  8
0
  6
CONTINUOUS
 10
-360.35578986789409
 20
158.56702495633951
 30
0.0
 11
-360.20354893291682
 21
157.80165809160931
 31
0.0
  0
LINE
  5
5F5
  8
0
  6
CONTINUOUS
 10
-364.20354893291659
 20
157.80165809160931
 30
0.0
 11
-364.05130799793932
 21
157.0362912268792
 31
0.0
  0
LINE
  5
5F6
  8
0
  6
CONTINUOUS
 10
-360.20354893291682
 20
157.80165809160931
 30
0.0
 11
-360.35578986789409
 21
157.0362912268792
 31
0.0
  0
LINE
  5
5F7
  8
0
  6
CONTINUOUS
 10
-364.05130799793932
 20
157.0362912268792
 30
0.0
 11
-363.6177624952897
 21
156.38744452923629
 31
0.0
  0
LINE
  5
5F8
  8
0
  6
CONTINUOUS
 10
-360.35578986789409
 20
157.0362912268792
 30
0.0
 11
-360.78933537054371
 21
156.38744452923629
 31
0.0
  0
LINE
  5
5F9
  8
0
  6
CONTINUOUS
 10
-361.43818206818668
 20
155.95389902658681
 30
0.0
 11
-362.2035489329167
 21
155.8016580916094
 31
0.0
  0
LINE
  5
5FA
  8
0
  6
CONTINUOUS
 10
-362.2035489329167
 20
155.8016580916094
 30
0.0
 11
-362.96891579764679
 21
155.95389902658681
 31
0.0
  0
LINE
  5
5FB
  8
0
  6
CONTINUOUS
 10
-363.6177624952897
 20
156.38744452923629
 30
0.0
 11
-362.96891579764679
 21
155.95389902658681
 31
0.0
  0
LINE
  5
5FC
  8
0
  6
CONTINUOUS
 10
-360.78933537054371
 20
156.38744452923629
 30
0.0
 11
-361.43818206818662
 21
155.95389902658681
 31
0.0
  0
ENDBLK
  5
5FE
  8
0
  0
BLOCK
  8
0
  2
*U24
 70
     1
 10
0.0
 20
0.0
 30
0.0
  3
*U24
  1

  0
TEXT
  5
600
  8
0
  6
CONTINUOUS
 10
-716.35632992356398
 20
286.75328027636738
 30
0.0
 40
9.8353293413173617
  1
Fastener
  7
ARIAL
  0
ENDBLK
  5
602
  8
0
  0
BLOCK
  8
0
  2
*U25
 70
     1
 10
0.0
 20
0.0
 30
0.0
  3
*U25
  1

  0
SOLID
  5
604
  8
0
  6
CONTINUOUS
 10
-489.30972406980283
 20
28.325906998766559
 30
0.0
 11
-490.07509093453302
 21
28.173666063789138
 31
0.0
 12
-488.54435720507269
 22
28.173666063789138
 32
0.0
 13
-488.54435720507269
 23
28.173666063789138
 33
0.0
210
0.0
220
0.0
230
1.0
  0
SOLID
  5
605
  8
0
  6
CONTINUOUS
 10
-490.07509093453302
 20
28.173666063789138
 30
0.0
 11
-490.72393763217599
 21
27.740120561139658
 31
0.0
 12
-487.89551050742978
 22
27.740120561139658
 32
0.0
 13
-487.89551050742978
 23
27.740120561139658
 33
0.0
210
0.0
220
0.0
230
1.0
  0
SOLID
  5
606
  8
0
  6
CONTINUOUS
 10
490.07509093453302
 20
28.173666063789138
 30
0.0
 11
488.54435720507269
 21
28.173666063789138
 31
0.0
 12
487.89551050742978
 22
27.740120561139658
 32
0.0
 13
487.89551050742978
 23
27.740120561139658
 33
0.0
210
0.0
220
0.0
230
-1.0
  0
SOLID
  5
607
  8
0
  6
CONTINUOUS
 10
-490.72393763217599
 20
27.740120561139658
 30
0.0
 11
-491.15748313482538
 21
27.091273863496738
 31
0.0
 12
-487.46196500478032
 22
27.091273863496738
 32
0.0
 13
-487.46196500478032
 23
27.091273863496738
 33
0.0
210
0.0
220
0.0
230
1.0
  0
SOLID
  5
608
  8
0
  6
CONTINUOUS
 10
490.72393763217599
 20
27.740120561139658
 30
0.0
 11
487.89551050742978
 21
27.740120561139658
 31
0.0
 12
487.46196500478032
 22
27.091273863496738
 32
0.0
 13
487.46196500478032
 23
27.091273863496738
 33
0.0
210
0.0
220
0.0
230
-1.0
  0
SOLID
  5
609
  8
0
  6
CONTINUOUS
 10
-491.15748313482538
 20
27.091273863496738
 30
0.0
 11
-491.30972406980288
 21
26.32590699876657
 31
0.0
 12
-487.30972406980288
 22
26.32590699876657
 32
0.0
 13
-487.30972406980288
 23
26.32590699876657
 33
0.0
210
0.0
220
0.0
230
1.0
  0
SOLID
  5
60A
  8
0
  6
CONTINUOUS
 10
491.15748313482538
 20
27.091273863496738
 30
0.0
 11
487.46196500478032
 21
27.091273863496738
 31
0.0
 12
487.30972406980288
 22
26.32590699876657
 32
0.0
 13
487.30972406980288
 23
26.32590699876657
 33
0.0
210
0.0
220
0.0
230
-1.0
  0
SOLID
  5
60B
  8
0
  6
CONTINUOUS
 10
-491.30972406980288
 20
26.32590699876657
 30
0.0
 11
-491.15748313482538
 21
25.56054013403639
 31
0.0
 12
-487.46196500478032
 22
25.56054013403639
 32
0.0
 13
-487.46196500478032
 23
25.56054013403639
 33
0.0
  0
SOLID
  5
60C
  8
0
  6
CONTINUOUS
 10
491.30972406980288
 20
26.32590699876657
 30
0.0
 11
487.30972406980288
 21
26.32590699876657
 31
0.0
 12
487.46196500478032
 22
25.56054013403639
 32
0.0
 13
487.46196500478032
 23
25.56054013403639
 33
0.0
210
0.0
220
0.0
230
-1.0
  0
SOLID
  5
60D
  8
0
  6
CONTINUOUS
 10
-491.15748313482538
 20
25.56054013403639
 30
0.0
 11
-490.72393763217599
 21
24.91169343639347
 31
0.0
 12
-487.89551050742978
 22
24.91169343639347
 32
0.0
 13
-487.89551050742978
 23
24.91169343639347
 33
0.0
210
0.0
220
0.0
230
1.0
  0
SOLID
  5
60E
  8
0
  6
CONTINUOUS
 10
491.15748313482538
 20
25.56054013403639
 30
0.0
 11
487.46196500478032
 21
25.56054013403639
 31
0.0
 12
487.89551050742978
 22
24.91169343639347
 32
0.0
 13
487.89551050742978
 23
24.91169343639347
 33
0.0
210
0.0
220
0.0
230
-1.0
  0
SOLID
  5
60F
  8
0
  6
CONTINUOUS
 10
490.07509093453302
 20
24.47814793374399
 30
0.0
 11
488.54435720507269
 21
24.47814793374399
 31
0.0
 12
489.30972406980283
 22
24.325906998766559
 32
0.0
 13
489.30972406980283
 23
24.325906998766559
 33
0.0
210
0.0
220
0.0
230
-1.0
  0
SOLID
  5
610
  8
0
  6
CONTINUOUS
 10
-490.72393763217599
 20
24.91169343639347
 30
0.0
 11
-490.07509093453302
 21
24.47814793374399
 31
0.0
 12
-488.54435720507269
 22
24.47814793374399
 32
0.0
 13
-488.54435720507269
 23
24.47814793374399
 33
0.0
210
0.0
220
0.0
230
1.0
  0
SOLID
  5
611
  8
0
  6
CONTINUOUS
 10
490.72393763217599
 20
24.91169343639347
 30
0.0
 11
487.89551050742978
 21
24.91169343639347
 31
0.0
 12
488.54435720507269
 22
24.47814793374399
 32
0.0
 13
488.54435720507269
 23
24.47814793374399
 33
0.0
210
0.0
220
0.0
230
-1.0
  0
LINE
  5
612
  8
0
  6
CONTINUOUS
 10
-489.30972406980283
 20
28.325906998766559
 30
0.0
 11
-490.07509093453302
 21
28.173666063789138
 31
0.0
  0
LINE
  5
613
  8
0
  6
CONTINUOUS
 10
-488.54435720507269
 20
28.173666063789138
 30
0.0
 11
-489.30972406980283
 21
28.325906998766559
 31
0.0
  0
LINE
  5
614
  8
0
  6
CONTINUOUS
 10
-490.07509093453302
 20
28.173666063789138
 30
0.0
 11
-490.72393763217599
 21
27.740120561139658
 31
0.0
  0
LINE
  5
615
  8
0
  6
CONTINUOUS
 10
-488.54435720507269
 20
28.173666063789138
 30
0.0
 11
-487.89551050742978
 21
27.740120561139658
 31
0.0
  0
LINE
  5
616
  8
0
  6
CONTINUOUS
 10
-490.72393763217599
 20
27.740120561139658
 30
0.0
 11
-491.15748313482538
 21
27.091273863496738
 31
0.0
  0
LINE
  5
617
  8
0
  6
CONTINUOUS
 10
-487.89551050742978
 20
27.740120561139658
 30
0.0
 11
-487.46196500478032
 21
27.091273863496738
 31
0.0
  0
LINE
  5
618
  8
0
  6
CONTINUOUS
 10
-491.15748313482538
 20
27.091273863496738
 30
0.0
 11
-491.30972406980288
 21
26.32590699876657
 31
0.0
  0
LINE
  5
619
  8
0
  6
CONTINUOUS
 10
-487.46196500478032
 20
27.091273863496738
 30
0.0
 11
-487.30972406980288
 21
26.32590699876657
 31
0.0
  0
LINE
  5
61A
  8
0
  6
CONTINUOUS
 10
-491.30972406980288
 20
26.32590699876657
 30
0.0
 11
-491.15748313482538
 21
25.56054013403639
 31
0.0
  0
LINE
  5
61B
  8
0
  6
CONTINUOUS
 10
-487.30972406980288
 20
26.32590699876657
 30
0.0
 11
-487.46196500478032
 21
25.56054013403639
 31
0.0
  0
LINE
  5
61C
  8
0
  6
CONTINUOUS
 10
-491.15748313482538
 20
25.56054013403639
 30
0.0
 11
-490.72393763217599
 21
24.91169343639347
 31
0.0
  0
LINE
  5
61D
  8
0
  6
CONTINUOUS
 10
-487.46196500478032
 20
25.56054013403639
 30
0.0
 11
-487.89551050742978
 21
24.91169343639347
 31
0.0
  0
LINE
  5
61E
  8
0
  6
CONTINUOUS
 10
-488.54435720507269
 20
24.47814793374399
 30
0.0
 11
-489.30972406980283
 21
24.325906998766559
 31
0.0
  0
LINE
  5
61F
  8
0
  6
CONTINUOUS
 10
-489.30972406980283
 20
24.325906998766559
 30
0.0
 11
-490.07509093453302
 21
24.47814793374399
 31
0.0
  0
LINE
  5
620
  8
0
  6
CONTINUOUS
 10
-490.72393763217599
 20
24.91169343639347
 30
0.0
 11
-490.07509093453302
 21
24.47814793374399
 31
0.0
  0
LINE
  5
621
  8
0
  6
CONTINUOUS
 10
-487.89551050742978
 20
24.91169343639347
 30
0.0
 11
-488.54435720507269
 21
24.47814793374399
 31
0.0
  0
ENDBLK
  5
623
  8
0
  0
BLOCK
  8
0
  2
*U26
 70
     1
 10
0.0
 20
0.0
 30
0.0
  3
*U26
  1

  0
TEXT
  5
625
  8
0
  6
CONTINUOUS
 10
-728.34644927558304
 20
-11.372640805072461
 30
0.0
 40
9.8353293413173617
  1
Selected fascia* & gutter
  7
ARIAL
  0
TEXT
  5
626
  8
0
  6
CONTINUOUS
 10
-728.56113586420656
 20
-26.757256189687851
 30
0.0
 40
9.8353293413173617
  1
(Fascia board height not to
  7
ARIAL
  0
TEXT
  5
627
  8
0
  6
CONTINUOUS
 10
-728.23239702537683
 20
-42.141871574303217
 30
0.0
 40
9.8353293413173617
  1
exceed plywood height)
  7
ARIAL
  0
ENDBLK
  5
629
  8
0
  0
BLOCK
  8
0
  2
*U27
 70
     1
 10
0.0
 20
0.0
 30
0.0
  3
*U27
  1

  0
SOLID
  5
62B
  8
0
  6
CONTINUOUS
 10
-409.36626717916442
 20
-35.624725471943002
 30
0.0
 11
-410.13163404389462
 21
-35.77696640692043
 31
0.0
 12
-408.60090031443423
 22
-35.77696640692043
 32
0.0
 13
-408.60090031443423
 23
-35.77696640692043
 33
0.0
210
0.0
220
0.0
230
1.0
  0
SOLID
  5
62C
  8
0
  6
CONTINUOUS
 10
-410.13163404389462
 20
-35.77696640692043
 30
0.0
 11
-410.78048074153747
 21
-36.21051190956991
 31
0.0
 12
-407.95205361679132
 22
-36.21051190956991
 32
0.0
 13
-407.95205361679132
 23
-36.21051190956991
 33
0.0
210
0.0
220
0.0
230
1.0
  0
SOLID
  5
62D
  8
0
  6
CONTINUOUS
 10
410.13163404389462
 20
-35.77696640692043
 30
0.0
 11
408.60090031443423
 21
-35.77696640692043
 31
0.0
 12
407.95205361679132
 22
-36.21051190956991
 32
0.0
 13
407.95205361679132
 23
-36.21051190956991
 33
0.0
210
0.0
220
0.0
230
-1.0
  0
SOLID
  5
62E
  8
0
  6
CONTINUOUS
 10
-410.78048074153747
 20
-36.21051190956991
 30
0.0
 11
-411.21402624418698
 21
-36.859358607212833
 31
0.0
 12
-407.51850811414181
 22
-36.859358607212833
 32
0.0
 13
-407.51850811414181
 23
-36.859358607212833
 33
0.0
210
0.0
220
0.0
230
1.0
  0
SOLID
  5
62F
  8
0
  6
CONTINUOUS
 10
410.78048074153747
 20
-36.21051190956991
 30
0.0
 11
407.95205361679132
 21
-36.21051190956991
 31
0.0
 12
407.51850811414181
 22
-36.859358607212833
 32
0.0
 13
407.51850811414181
 23
-36.859358607212833
 33
0.0
210
0.0
220
0.0
230
-1.0
  0
SOLID
  5
630
  8
0
  6
CONTINUOUS
 10
-411.21402624418698
 20
-36.859358607212833
 30
0.0
 11
-411.36626717916442
 21
-37.624725471943002
 31
0.0
 12
-407.36626717916442
 22
-37.624725471943002
 32
0.0
 13
-407.36626717916442
 23
-37.624725471943002
 33
0.0
210
0.0
220
0.0
230
1.0
  0
SOLID
  5
631
  8
0
  6
CONTINUOUS
 10
411.21402624418698
 20
-36.859358607212833
 30
0.0
 11
407.51850811414181
 21
-36.859358607212833
 31
0.0
 12
407.36626717916442
 22
-37.624725471943002
 32
0.0
 13
407.36626717916442
 23
-37.624725471943002
 33
0.0
210
0.0
220
0.0
230
-1.0
  0
SOLID
  5
632
  8
0
  6
CONTINUOUS
 10
-411.36626717916442
 20
-37.624725471943002
 30
0.0
 11
-411.21402624418698
 21
-38.390092336673192
 31
0.0
 12
-407.51850811414181
 22
-38.390092336673192
 32
0.0
 13
-407.51850811414181
 23
-38.390092336673192
 33
0.0
210
0.0
220
0.0
230
1.0
  0
SOLID
  5
633
  8
0
  6
CONTINUOUS
 10
411.36626717916442
 20
-37.624725471943002
 30
0.0
 11
407.36626717916442
 21
-37.624725471943002
 31
0.0
 12
407.51850811414181
 22
-38.390092336673192
 32
0.0
 13
407.51850811414181
 23
-38.390092336673192
 33
0.0
210
0.0
220
0.0
230
-1.0
  0
SOLID
  5
634
  8
0
  6
CONTINUOUS
 10
-411.21402624418698
 20
-38.390092336673192
 30
0.0
 11
-410.78048074153747
 21
-39.038939034316101
 31
0.0
 12
-407.95205361679132
 22
-39.038939034316101
 32
0.0
 13
-407.95205361679132
 23
-39.038939034316101
 33
0.0
210
0.0
220
0.0
230
1.0
  0
SOLID
  5
635
  8
0
  6
CONTINUOUS
 10
411.21402624418698
 20
-38.390092336673192
 30
0.0
 11
407.51850811414181
 21
-38.390092336673192
 31
0.0
 12
407.95205361679132
 22
-39.038939034316101
 32
0.0
 13
407.95205361679132
 23
-39.038939034316101
 33
0.0
210
0.0
220
0.0
230
-1.0
  0
SOLID
  5
636
  8
0
  6
CONTINUOUS
 10
410.13163404389462
 20
-39.472484536965581
 30
0.0
 11
408.60090031443423
 21
-39.472484536965581
 31
0.0
 12
409.36626717916442
 22
-39.624725471943002
 32
0.0
 13
409.36626717916442
 23
-39.624725471943002
 33
0.0
210
0.0
220
0.0
230
-1.0
  0
SOLID
  5
637
  8
0
  6
CONTINUOUS
 10
-410.78048074153747
 20
-39.038939034316101
 30
0.0
 11
-410.13163404389462
 21
-39.472484536965581
 31
0.0
 12
-408.60090031443423
 22
-39.472484536965581
 32
0.0
 13
-408.60090031443423
 23
-39.472484536965581
 33
0.0
210
0.0
220
0.0
230
1.0
  0
SOLID
  5
638
  8
0
  6
CONTINUOUS
 10
410.78048074153747
 20
-39.038939034316101
 30
0.0
 11
407.95205361679132
 21
-39.038939034316101
 31
0.0
 12
408.60090031443423
 22
-39.472484536965581
 32
0.0
 13
408.60090031443423
 23
-39.472484536965581
 33
0.0
210
0.0
220
0.0
230
-1.0
  0
LINE
  5
639
  8
0
  6
CONTINUOUS
 10
-409.36626717916442
 20
-35.624725471943002
 30
0.0
 11
-410.13163404389462
 21
-35.77696640692043
 31
0.0
  0
LINE
  5
63A
  8
0
  6
CONTINUOUS
 10
-408.60090031443423
 20
-35.77696640692043
 30
0.0
 11
-409.36626717916442
 21
-35.624725471943002
 31
0.0
  0
LINE
  5
63B
  8
0
  6
CONTINUOUS
 10
-410.13163404389462
 20
-35.77696640692043
 30
0.0
 11
-410.78048074153747
 21
-36.21051190956991
 31
0.0
  0
LINE
  5
63C
  8
0
  6
CONTINUOUS
 10
-408.60090031443423
 20
-35.77696640692043
 30
0.0
 11
-407.95205361679132
 21
-36.21051190956991
 31
0.0
  0
LINE
  5
63D
  8
0
  6
CONTINUOUS
 10
-410.78048074153747
 20
-36.21051190956991
 30
0.0
 11
-411.21402624418698
 21
-36.859358607212833
 31
0.0
  0
LINE
  5
63E
  8
0
  6
CONTINUOUS
 10
-407.95205361679132
 20
-36.21051190956991
 30
0.0
 11
-407.51850811414181
 21
-36.859358607212833
 31
0.0
  0
LINE
  5
63F
  8
0
  6
CONTINUOUS
 10
-411.21402624418698
 20
-36.859358607212833
 30
0.0
 11
-411.36626717916442
 21
-37.624725471943002
 31
0.0
  0
LINE
  5
640
  8
0
  6
CONTINUOUS
 10
-407.51850811414181
 20
-36.859358607212833
 30
0.0
 11
-407.36626717916442
 21
-37.624725471943002
 31
0.0
  0
LINE
  5
641
  8
0
  6
CONTINUOUS
 10
-411.36626717916442
 20
-37.624725471943002
 30
0.0
 11
-411.21402624418698
 21
-38.390092336673192
 31
0.0
  0
LINE
  5
642
  8
0
  6
CONTINUOUS
 10
-407.36626717916442
 20
-37.624725471943002
 30
0.0
 11
-407.51850811414181
 21
-38.390092336673192
 31
0.0
  0
LINE
  5
643
  8
0
  6
CONTINUOUS
 10
-411.21402624418698
 20
-38.390092336673192
 30
0.0
 11
-410.78048074153747
 21
-39.038939034316101
 31
0.0
  0
LINE
  5
644
  8
0
  6
CONTINUOUS
 10
-407.51850811414181
 20
-38.390092336673192
 30
0.0
 11
-407.95205361679132
 21
-39.038939034316101
 31
0.0
  0
LINE
  5
645
  8
0
  6
CONTINUOUS
 10
-408.60090031443423
 20
-39.472484536965581
 30
0.0
 11
-409.36626717916442
 21
-39.624725471943002
 31
0.0
  0
LINE
  5
646
  8
0
  6
CONTINUOUS
 10
-409.36626717916442
 20
-39.624725471943002
 30
0.0
 11
-410.13163404389462
 21
-39.472484536965581
 31
0.0
  0
LINE
  5
647
  8
0
  6
CONTINUOUS
 10
-410.78048074153747
 20
-39.038939034316101
 30
0.0
 11
-410.13163404389462
 21
-39.472484536965581
 31
0.0
  0
LINE
  5
648
  8
0
  6
CONTINUOUS
 10
-407.95205361679132
 20
-39.038939034316101
 30
0.0
 11
-408.60090031443423
 21
-39.472484536965581
 31
0.0
  0
ENDBLK
  5
64A
  8
0
  0
BLOCK
  8
0
  2
*U28
 70
     1
 10
0.0
 20
0.0
 30
0.0
  3
*U28
  1

  0
TEXT
  5
64C
  8
0
  6
CONTINUOUS
 10
-728.85632992356398
 20
-130.7614449226601
 30
0.0
 40
9.8353293413173617
  1
Fascia board
  7
ARIAL
  0
ENDBLK
  5
64E
  8
0
  0
BLOCK
  8
0
  2
*U29
 70
     1
 10
0.0
 20
0.0
 30
0.0
  3
*U29
  1

  0
SOLID
  5
650
  8
0
  6
CONTINUOUS
 10
147.7446788065383
 20
349.30330878290738
 30
0.0
 11
146.97931194180811
 21
349.15106784792988
 31
0.0
 12
148.51004567126839
 22
349.15106784792988
 32
0.0
 13
148.51004567126839
 23
349.15106784792988
 33
0.0
210
0.0
220
0.0
230
1.0
  0
SOLID
  5
651
  8
0
  6
CONTINUOUS
 10
146.97931194180811
 20
349.15106784792988
 30
0.0
 11
146.3304652441652
 21
348.71752234528049
 31
0.0
 12
149.15889236891141
 22
348.71752234528049
 32
0.0
 13
149.15889236891141
 23
348.71752234528049
 33
0.0
210
0.0
220
0.0
230
1.0
  0
SOLID
  5
652
  8
0
  6
CONTINUOUS
 10
-146.97931194180811
 20
349.15106784792988
 30
0.0
 11
-148.51004567126839
 21
349.15106784792988
 31
0.0
 12
-149.15889236891141
 22
348.71752234528049
 32
0.0
 13
-149.15889236891141
 23
348.71752234528049
 33
0.0
210
0.0
220
0.0
230
-1.0
  0
SOLID
  5
653
  8
0
  6
CONTINUOUS
 10
146.3304652441652
 20
348.71752234528049
 30
0.0
 11
145.89691974151569
 21
348.06867564763758
 31
0.0
 12
149.59243787156089
 22
348.06867564763758
 32
0.0
 13
149.59243787156089
 23
348.06867564763758
 33
0.0
  0
SOLID
  5
654
  8
0
  6
CONTINUOUS
 10
-146.3304652441652
 20
348.71752234528049
 30
0.0
 11
-149.15889236891141
 21
348.71752234528049
 31
0.0
 12
-149.59243787156089
 22
348.06867564763758
 32
0.0
 13
-149.59243787156089
 23
348.06867564763758
 33
0.0
210
0.0
220
0.0
230
-1.0
  0
SOLID
  5
655
  8
0
  6
CONTINUOUS
 10
145.89691974151569
 20
348.06867564763758
 30
0.0
 11
145.7446788065383
 21
347.30330878290738
 31
0.0
 12
149.7446788065383
 22
347.30330878290738
 32
0.0
 13
149.7446788065383
 23
347.30330878290738
 33
0.0
210
0.0
220
0.0
230
1.0
  0
SOLID
  5
656
  8
0
  6
CONTINUOUS
 10
-145.89691974151569
 20
348.06867564763758
 30
0.0
 11
-149.59243787156089
 21
348.06867564763758
 31
0.0
 12
-149.7446788065383
 22
347.30330878290738
 32
0.0
 13
-149.7446788065383
 23
347.30330878290738
 33
0.0
210
0.0
220
0.0
230
-1.0
  0
SOLID
  5
657
  8
0
  6
CONTINUOUS
 10
145.7446788065383
 20
347.30330878290738
 30
0.0
 11
145.89691974151569
 21
346.53794191817718
 31
0.0
 12
149.59243787156089
 22
346.53794191817718
 32
0.0
 13
149.59243787156089
 23
346.53794191817718
 33
0.0
210
0.0
220
0.0
230
1.0
  0
SOLID
  5
658
  8
0
  6
CONTINUOUS
 10
-145.7446788065383
 20
347.30330878290738
 30
0.0
 11
-149.7446788065383
 21
347.30330878290738
 31
0.0
 12
-149.59243787156089
 22
346.53794191817718
 32
0.0
 13
-149.59243787156089
 23
346.53794191817718
 33
0.0
210
0.0
220
0.0
230
-1.0
  0
SOLID
  5
659
  8
0
  6
CONTINUOUS
 10
145.89691974151569
 20
346.53794191817718
 30
0.0
 11
146.3304652441652
 21
345.88909522053427
 31
0.0
 12
149.15889236891141
 22
345.88909522053427
 32
0.0
 13
149.15889236891141
 23
345.88909522053427
 33
0.0
210
0.0
220
0.0
230
1.0
  0
SOLID
  5
65A
  8
0
  6
CONTINUOUS
 10
-145.89691974151569
 20
346.53794191817718
 30
0.0
 11
-149.59243787156089
 21
346.53794191817718
 31
0.0
 12
-149.15889236891141
 22
345.88909522053427
 32
0.0
 13
-149.15889236891141
 23
345.88909522053427
 33
0.0
210
0.0
220
0.0
230
-1.0
  0
SOLID
  5
65B
  8
0
  6
CONTINUOUS
 10
-146.97931194180811
 20
345.45554971788482
 30
0.0
 11
-148.51004567126839
 21
345.45554971788482
 31
0.0
 12
-147.7446788065383
 22
345.30330878290738
 32
0.0
 13
-147.7446788065383
 23
345.30330878290738
 33
0.0
210
0.0
220
0.0
230
-1.0
  0
SOLID
  5
65C
  8
0
  6
CONTINUOUS
 10
146.3304652441652
 20
345.88909522053427
 30
0.0
 11
146.97931194180811
 21
345.45554971788482
 31
0.0
 12
148.51004567126839
 22
345.45554971788482
 32
0.0
 13
148.51004567126839
 23
345.45554971788482
 33
0.0
210
0.0
220
0.0
230
1.0
  0
SOLID
  5
65D
  8
0
  6
CONTINUOUS
 10
-146.3304652441652
 20
345.88909522053427
 30
0.0
 11
-149.15889236891141
 21
345.88909522053427
 31
0.0
 12
-148.51004567126839
 22
345.45554971788482
 32
0.0
 13
-148.51004567126839
 23
345.45554971788482
 33
0.0
210
0.0
220
0.0
230
-1.0
  0
LINE
  5
65E
  8
0
  6
CONTINUOUS
 10
147.7446788065383
 20
349.30330878290738
 30
0.0
 11
146.97931194180811
 21
349.15106784792988
 31
0.0
  0
LINE
  5
65F
  8
0
  6
CONTINUOUS
 10
148.51004567126839
 20
349.15106784792988
 30
0.0
 11
147.7446788065383
 21
349.30330878290738
 31
0.0
  0
LINE
  5
660
  8
0
  6
CONTINUOUS
 10
146.97931194180811
 20
349.15106784792988
 30
0.0
 11
146.3304652441652
 21
348.71752234528049
 31
0.0
  0
LINE
  5
661
  8
0
  6
CONTINUOUS
 10
148.51004567126839
 20
349.15106784792988
 30
0.0
 11
149.15889236891141
 21
348.71752234528049
 31
0.0
  0
LINE
  5
662
  8
0
  6
CONTINUOUS
 10
146.3304652441652
 20
348.71752234528049
 30
0.0
 11
145.89691974151569
 21
348.06867564763758
 31
0.0
  0
LINE
  5
663
  8
0
  6
CONTINUOUS
 10
149.15889236891141
 20
348.71752234528049
 30
0.0
 11
149.59243787156089
 21
348.06867564763758
 31
0.0
  0
LINE
  5
664
  8
0
  6
CONTINUOUS
 10
145.89691974151569
 20
348.06867564763758
 30
0.0
 11
145.7446788065383
 21
347.30330878290738
 31
0.0
  0
LINE
  5
665
  8
0
  6
CONTINUOUS
 10
149.59243787156089
 20
348.06867564763758
 30
0.0
 11
149.7446788065383
 21
347.30330878290738
 31
0.0
  0
LINE
  5
666
  8
0
  6
CONTINUOUS
 10
145.7446788065383
 20
347.30330878290738
 30
0.0
 11
145.89691974151569
 21
346.53794191817718
 31
0.0
  0
LINE
  5
667
  8
0
  6
CONTINUOUS
 10
149.7446788065383
 20
347.30330878290738
 30
0.0
 11
149.59243787156089
 21
346.53794191817718
 31
0.0
  0
LINE
  5
668
  8
0
  6
CONTINUOUS
 10
145.89691974151569
 20
346.53794191817718
 30
0.0
 11
146.3304652441652
 21
345.88909522053427
 31
0.0
  0
LINE
  5
669
  8
0
  6
CONTINUOUS
 10
149.59243787156089
 20
346.53794191817718
 30
0.0
 11
149.15889236891141
 21
345.88909522053427
 31
0.0
  0
LINE
  5
66A
  8
0
  6
CONTINUOUS
 10
148.51004567126839
 20
345.45554971788482
 30
0.0
 11
147.7446788065383
 21
345.30330878290738
 31
0.0
  0
LINE
  5
66B
  8
0
  6
CONTINUOUS
 10
147.7446788065383
 20
345.30330878290738
 30
0.0
 11
146.97931194180811
 21
345.45554971788482
 31
0.0
  0
LINE
  5
66C
  8
0
  6
CONTINUOUS
 10
146.3304652441652
 20
345.88909522053427
 30
0.0
 11
146.97931194180811
 21
345.45554971788482
 31
0.0
  0
LINE
  5
66D
  8
0
  6
CONTINUOUS
 10
149.15889236891141
 20
345.88909522053427
 30
0.0
 11
148.51004567126839
 21
345.45554971788482
 31
0.0
  0
ENDBLK
  5
66F
  8
0
  0
BLOCK
  8
0
  2
*U30
 70
     1
 10
0.0
 20
0.0
 30
0.0
  3
*U30
  1

  0
TEXT
  5
671
  8
0
  6
CONTINUOUS
 10
-26.414194518072641
 20
386.58652396740399
 30
0.0
 40
9.8353293413173617
  1
CF Shake Panel
  7
ARIAL
  0
ENDBLK
  5
673
  8
0
  0
BLOCK
  8
0
  2
*U31
 70
     1
 10
0.0
 20
0.0
 30
0.0
  3
*U31
  1

  0
SOLID
  5
675
  8
0
  6
CONTINUOUS
 10
90.332413679843498
 20
262.21190890082471
 30
0.0
 11
89.567046815113315
 21
262.05966796584732
 31
0.0
 12
91.097780544573681
 22
262.05966796584732
 32
0.0
 13
91.097780544573681
 23
262.05966796584732
 33
0.0
210
0.0
220
0.0
230
1.0
  0
SOLID
  5
676
  8
0
  6
CONTINUOUS
 10
89.567046815113315
 20
262.05966796584732
 30
0.0
 11
88.918200117470406
 21
261.62612246319787
 31
0.0
 12
91.746627242216604
 22
261.62612246319787
 32
0.0
 13
91.746627242216604
 23
261.62612246319787
 33
0.0
210
0.0
220
0.0
230
1.0
  0
SOLID
  5
677
  8
0
  6
CONTINUOUS
 10
-89.567046815113315
 20
262.05966796584732
 30
0.0
 11
-91.097780544573681
 21
262.05966796584732
 31
0.0
 12
-91.746627242216604
 22
261.62612246319787
 32
0.0
 13
-91.746627242216604
 23
261.62612246319787
 33
0.0
210
0.0
220
0.0
230
-1.0
  0
SOLID
  5
678
  8
0
  6
CONTINUOUS
 10
88.918200117470406
 20
261.62612246319787
 30
0.0
 11
88.484654614820926
 21
260.97727576555502
 31
0.0
 12
92.18017274486607
 22
260.97727576555502
 32
0.0
 13
92.18017274486607
 23
260.97727576555502
 33
0.0
210
0.0
220
0.0
230
1.0
  0
SOLID
  5
679
  8
0
  6
CONTINUOUS
 10
-88.918200117470406
 20
261.62612246319787
 30
0.0
 11
-91.746627242216604
 21
261.62612246319787
 31
0.0
 12
-92.18017274486607
 22
260.97727576555502
 32
0.0
 13
-92.18017274486607
 23
260.97727576555502
 33
0.0
210
0.0
220
0.0
230
-1.0
  0
SOLID
  5
67A
  8
0
  6
CONTINUOUS
 10
88.484654614820926
 20
260.97727576555502
 30
0.0
 11
88.332413679843484
 21
260.21190890082471
 31
0.0
 12
92.332413679843498
 22
260.21190890082471
 32
0.0
 13
92.332413679843498
 23
260.21190890082471
 33
0.0
210
0.0
220
0.0
230
1.0
  0
SOLID
  5
67B
  8
0
  6
CONTINUOUS
 10
-88.484654614820926
 20
260.97727576555502
 30
0.0
 11
-92.18017274486607
 21
260.97727576555502
 31
0.0
 12
-92.332413679843498
 22
260.21190890082471
 32
0.0
 13
-92.332413679843498
 23
260.21190890082471
 33
0.0
210
0.0
220
0.0
230
-1.0
  0
SOLID
  5
67C
  8
0
  6
CONTINUOUS
 10
88.332413679843484
 20
260.21190890082471
 30
0.0
 11
88.484654614820926
 21
259.44654203609463
 31
0.0
 12
92.18017274486607
 22
259.44654203609463
 32
0.0
 13
92.18017274486607
 23
259.44654203609463
 33
0.0
210
0.0
220
0.0
230
1.0
  0
SOLID
  5
67D
  8
0
  6
CONTINUOUS
 10
-88.332413679843484
 20
260.21190890082471
 30
0.0
 11
-92.332413679843498
 21
260.21190890082471
 31
0.0
 12
-92.18017274486607
 22
259.44654203609463
 32
0.0
 13
-92.18017274486607
 23
259.44654203609463
 33
0.0
210
0.0
220
0.0
230
-1.0
  0
SOLID
  5
67E
  8
0
  6
CONTINUOUS
 10
88.484654614820926
 20
259.44654203609463
 30
0.0
 11
88.918200117470406
 21
258.7976953384516
 31
0.0
 12
91.746627242216604
 22
258.7976953384516
 32
0.0
 13
91.746627242216604
 23
258.7976953384516
 33
0.0
210
0.0
220
0.0
230
1.0
  0
SOLID
  5
67F
  8
0
  6
CONTINUOUS
 10
-88.484654614820926
 20
259.44654203609463
 30
0.0
 11
-92.18017274486607
 21
259.44654203609463
 31
0.0
 12
-91.746627242216604
 22
258.7976953384516
 32
0.0
 13
-91.746627242216604
 23
258.7976953384516
 33
0.0
210
0.0
220
0.0
230
-1.0
  0
SOLID
  5
680
  8
0
  6
CONTINUOUS
 10
-89.567046815113315
 20
258.36414983580221
 30
0.0
 11
-91.097780544573681
 21
258.36414983580221
 31
0.0
 12
-90.332413679843498
 22
258.21190890082482
 32
0.0
 13
-90.332413679843498
 23
258.21190890082482
 33
0.0
210
0.0
220
0.0
230
-1.0
  0
SOLID
  5
681
  8
0
  6
CONTINUOUS
 10
88.918200117470406
 20
258.7976953384516
 30
0.0
 11
89.567046815113315
 21
258.36414983580221
 31
0.0
 12
91.097780544573681
 22
258.36414983580221
 32
0.0
 13
91.097780544573681
 23
258.36414983580221
 33
0.0
210
0.0
220
0.0
230
1.0
  0
SOLID
  5
682
  8
0
  6
CONTINUOUS
 10
-88.918200117470406
 20
258.7976953384516
 30
0.0
 11
-91.746627242216604
 21
258.7976953384516
 31
0.0
 12
-91.097780544573681
 22
258.36414983580221
 32
0.0
 13
-91.097780544573681
 23
258.36414983580221
 33
0.0
210
0.0
220
0.0
230
-1.0
  0
LINE
  5
683
  8
0
  6
CONTINUOUS
 10
90.332413679843498
 20
262.21190890082471
 30
0.0
 11
89.567046815113315
 21
262.05966796584732
 31
0.0
  0
LINE
  5
684
  8
0
  6
CONTINUOUS
 10
91.097780544573681
 20
262.05966796584732
 30
0.0
 11
90.332413679843498
 21
262.21190890082471
 31
0.0
  0
LINE
  5
685
  8
0
  6
CONTINUOUS
 10
89.567046815113315
 20
262.05966796584732
 30
0.0
 11
88.918200117470406
 21
261.62612246319787
 31
0.0
  0
LINE
  5
686
  8
0
  6
CONTINUOUS
 10
91.097780544573681
 20
262.05966796584732
 30
0.0
 11
91.746627242216604
 21
261.62612246319787
 31
0.0
  0
LINE
  5
687
  8
0
  6
CONTINUOUS
 10
88.918200117470406
 20
261.62612246319787
 30
0.0
 11
88.484654614820926
 21
260.97727576555502
 31
0.0
  0
LINE
  5
688
  8
0
  6
CONTINUOUS
 10
91.746627242216604
 20
261.62612246319787
 30
0.0
 11
92.18017274486607
 21
260.97727576555502
 31
0.0
  0
LINE
  5
689
  8
0
  6
CONTINUOUS
 10
88.484654614820926
 20
260.97727576555502
 30
0.0
 11
88.332413679843484
 21
260.21190890082471
 31
0.0
  0
LINE
  5
68A
  8
0
  6
CONTINUOUS
 10
92.18017274486607
 20
260.97727576555502
 30
0.0
 11
92.332413679843498
 21
260.21190890082471
 31
0.0
  0
LINE
  5
68B
  8
0
  6
CONTINUOUS
 10
88.332413679843484
 20
260.21190890082471
 30
0.0
 11
88.484654614820926
 21
259.44654203609463
 31
0.0
  0
LINE
  5
68C
  8
0
  6
CONTINUOUS
 10
92.332413679843498
 20
260.21190890082471
 30
0.0
 11
92.18017274486607
 21
259.44654203609463
 31
0.0
  0
LINE
  5
68D
  8
0
  6
CONTINUOUS
 10
88.484654614820926
 20
259.44654203609463
 30
0.0
 11
88.918200117470406
 21
258.7976953384516
 31
0.0
  0
LINE
  5
68E
  8
0
  6
CONTINUOUS
 10
92.18017274486607
 20
259.44654203609463
 30
0.0
 11
91.746627242216604
 21
258.7976953384516
 31
0.0
  0
LINE
  5
68F
  8
0
  6
CONTINUOUS
 10
91.097780544573681
 20
258.36414983580221
 30
0.0
 11
90.332413679843498
 21
258.21190890082482
 31
0.0
  0
LINE
  5
690
  8
0
  6
CONTINUOUS
 10
90.332413679843498
 20
258.21190890082482
 30
0.0
 11
89.567046815113315
 21
258.36414983580221
 31
0.0
  0
LINE
  5
691
  8
0
  6
CONTINUOUS
 10
88.918200117470406
 20
258.7976953384516
 30
0.0
 11
89.567046815113315
 21
258.36414983580221
 31
0.0
  0
LINE
  5
692
  8
0
  6
CONTINUOUS
 10
91.746627242216604
 20
258.7976953384516
 30
0.0
 11
91.097780544573681
 21
258.36414983580221
 31
0.0
  0
ENDBLK
  5
694
  8
0
  0
BLOCK
  8
0
  2
*U32
 70
     1
 10
0.0
 20
0.0
 30
0.0
  3
*U32
  1

  0
TEXT
  5
696
  8
0
  6
CONTINUOUS
 10
-26.810022915847359
 20
346.08785004234193
 30
0.0
 40
9.8353293413173617
  1
Rafter
  7
ARIAL
  0
ENDBLK
  5
698
  8
0
  0
BLOCK
  8
0
  2
*U33
 70
     1
 10
0.0
 20
0.0
 30
0.0
  3
*U33
  1

  0
SOLID
  5
69A
  8
0
  6
CONTINUOUS
 10
-297.47633949514523
 20
161.3720038482721
 30
0.0
 11
-298.24170635987542
 21
161.21976291329469
 31
0.0
 12
-296.71097263041497
 22
161.21976291329469
 32
0.0
 13
-296.71097263041497
 23
161.21976291329469
 33
0.0
210
0.0
220
0.0
230
1.0
  0
SOLID
  5
69B
  8
0
  6
CONTINUOUS
 10
-298.24170635987542
 20
161.21976291329469
 30
0.0
 11
-298.89055305751828
 21
160.78621741064521
 31
0.0
 12
-296.06212593277212
 22
160.78621741064521
 32
0.0
 13
-296.06212593277212
 23
160.78621741064521
 33
0.0
210
0.0
220
0.0
230
1.0
  0
SOLID
  5
69C
  8
0
  6
CONTINUOUS
 10
298.24170635987542
 20
161.21976291329469
 30
0.0
 11
296.71097263041497
 21
161.21976291329469
 31
0.0
 12
296.06212593277212
 22
160.78621741064521
 32
0.0
 13
296.06212593277212
 23
160.78621741064521
 33
0.0
210
0.0
220
0.0
230
-1.0
  0
SOLID
  5
69D
  8
0
  6
CONTINUOUS
 10
-298.89055305751828
 20
160.78621741064521
 30
0.0
 11
-299.32409856016773
 21
160.1373707130023
 31
0.0
 12
-295.62858043012261
 22
160.1373707130023
 32
0.0
 13
-295.62858043012261
 23
160.1373707130023
 33
0.0
210
0.0
220
0.0
230
1.0
  0
SOLID
  5
69E
  8
0
  6
CONTINUOUS
 10
298.89055305751828
 20
160.78621741064521
 30
0.0
 11
296.06212593277212
 21
160.78621741064521
 31
0.0
 12
295.62858043012261
 22
160.1373707130023
 32
0.0
 13
295.62858043012261
 23
160.1373707130023
 33
0.0
210
0.0
220
0.0
230
-1.0
  0
SOLID
  5
69F
  8
0
  6
CONTINUOUS
 10
-299.32409856016773
 20
160.1373707130023
 30
0.0
 11
-299.47633949514523
 21
159.3720038482721
 31
0.0
 12
-295.47633949514523
 22
159.3720038482721
 32
0.0
 13
-295.47633949514523
 23
159.3720038482721
 33
0.0
210
0.0
220
0.0
230
1.0
  0
SOLID
  5
6A0
  8
0
  6
CONTINUOUS
 10
299.32409856016773
 20
160.1373707130023
 30
0.0
 11
295.62858043012261
 21
160.1373707130023
 31
0.0
 12
295.47633949514523
 22
159.3720038482721
 32
0.0
 13
295.47633949514523
 23
159.3720038482721
 33
0.0
210
0.0
220
0.0
230
-1.0
  0
SOLID
  5
6A1
  8
0
  6
CONTINUOUS
 10
-299.47633949514523
 20
159.3720038482721
 30
0.0
 11
-299.32409856016773
 21
158.6066369835419
 31
0.0
 12
-295.62858043012261
 22
158.6066369835419
 32
0.0
 13
-295.62858043012261
 23
158.6066369835419
 33
0.0
210
0.0
220
0.0
230
1.0
  0
SOLID
  5
6A2
  8
0
  6
CONTINUOUS
 10
299.47633949514523
 20
159.3720038482721
 30
0.0
 11
295.47633949514523
 21
159.3720038482721
 31
0.0
 12
295.62858043012261
 22
158.6066369835419
 32
0.0
 13
295.62858043012261
 23
158.6066369835419
 33
0.0
210
0.0
220
0.0
230
-1.0
  0
SOLID
  5
6A3
  8
0
  6
CONTINUOUS
 10
-299.32409856016773
 20
158.6066369835419
 30
0.0
 11
-298.89055305751828
 21
157.95779028589899
 31
0.0
 12
-296.06212593277212
 22
157.95779028589899
 32
0.0
 13
-296.06212593277212
 23
157.95779028589899
 33
0.0
210
0.0
220
0.0
230
1.0
  0
SOLID
  5
6A4
  8
0
  6
CONTINUOUS
 10
299.32409856016773
 20
158.6066369835419
 30
0.0
 11
295.62858043012261
 21
158.6066369835419
 31
0.0
 12
296.06212593277212
 22
157.95779028589899
 32
0.0
 13
296.06212593277212
 23
157.95779028589899
 33
0.0
210
0.0
220
0.0
230
-1.0
  0
SOLID
  5
6A5
  8
0
  6
CONTINUOUS
 10
298.24170635987542
 20
157.52424478324949
 30
0.0
 11
296.71097263041497
 21
157.52424478324949
 31
0.0
 12
297.47633949514523
 22
157.3720038482721
 32
0.0
 13
297.47633949514523
 23
157.3720038482721
 33
0.0
210
0.0
220
0.0
230
-1.0
  0
SOLID
  5
6A6
  8
0
  6
CONTINUOUS
 10
-298.89055305751828
 20
157.95779028589899
 30
0.0
 11
-298.24170635987542
 21
157.52424478324949
 31
0.0
 12
-296.71097263041497
 22
157.52424478324949
 32
0.0
 13
-296.71097263041497
 23
157.52424478324949
 33
0.0
210
0.0
220
0.0
230
1.0
  0
SOLID
  5
6A7
  8
0
  6
CONTINUOUS
 10
298.89055305751828
 20
157.95779028589899
 30
0.0
 11
296.06212593277212
 21
157.95779028589899
 31
0.0
 12
296.71097263041497
 22
157.52424478324949
 32
0.0
 13
296.71097263041497
 23
157.52424478324949
 33
0.0
210
0.0
220
0.0
230
-1.0
  0
LINE
  5
6A8
  8
0
  6
CONTINUOUS
 10
-297.47633949514523
 20
161.3720038482721
 30
0.0
 11
-298.24170635987542
 21
161.21976291329469
 31
0.0
  0
LINE
  5
6A9
  8
0
  6
CONTINUOUS
 10
-296.71097263041497
 20
161.21976291329469
 30
0.0
 11
-297.47633949514523
 21
161.3720038482721
 31
0.0
  0
LINE
  5
6AA
  8
0
  6
CONTINUOUS
 10
-298.24170635987542
 20
161.21976291329469
 30
0.0
 11
-298.89055305751828
 21
160.78621741064521
 31
0.0
  0
LINE
  5
6AB
  8
0
  6
CONTINUOUS
 10
-296.71097263041497
 20
161.21976291329469
 30
0.0
 11
-296.06212593277212
 21
160.78621741064521
 31
0.0
  0
LINE
  5
6AC
  8
0
  6
CONTINUOUS
 10
-298.89055305751828
 20
160.78621741064521
 30
0.0
 11
-299.32409856016773
 21
160.1373707130023
 31
0.0
  0
LINE
  5
6AD
  8
0
  6
CONTINUOUS
 10
-296.06212593277212
 20
160.78621741064521
 30
0.0
 11
-295.62858043012261
 21
160.1373707130023
 31
0.0
  0
LINE
  5
6AE
  8
0
  6
CONTINUOUS
 10
-299.32409856016773
 20
160.1373707130023
 30
0.0
 11
-299.47633949514523
 21
159.3720038482721
 31
0.0
  0
LINE
  5
6AF
  8
0
  6
CONTINUOUS
 10
-295.62858043012261
 20
160.1373707130023
 30
0.0
 11
-295.47633949514523
 21
159.3720038482721
 31
0.0
  0
LINE
  5
6B0
  8
0
  6
CONTINUOUS
 10
-299.47633949514523
 20
159.3720038482721
 30
0.0
 11
-299.32409856016773
 21
158.6066369835419
 31
0.0
  0
LINE
  5
6B1
  8
0
  6
CONTINUOUS
 10
-295.47633949514523
 20
159.3720038482721
 30
0.0
 11
-295.62858043012261
 21
158.6066369835419
 31
0.0
  0
LINE
  5
6B2
  8
0
  6
CONTINUOUS
 10
-299.32409856016773
 20
158.6066369835419
 30
0.0
 11
-298.89055305751828
 21
157.95779028589899
 31
0.0
  0
LINE
  5
6B3
  8
0
  6
CONTINUOUS
 10
-295.62858043012261
 20
158.6066369835419
 30
0.0
 11
-296.06212593277212
 21
157.95779028589899
 31
0.0
  0
LINE
  5
6B4
  8
0
  6
CONTINUOUS
 10
-296.71097263041497
 20
157.52424478324949
 30
0.0
 11
-297.47633949514523
 21
157.3720038482721
 31
0.0
  0
LINE
  5
6B5
  8
0
  6
CONTINUOUS
 10
-297.47633949514523
 20
157.3720038482721
 30
0.0
 11
-298.24170635987542
 21
157.52424478324949
 31
0.0
  0
LINE
  5
6B6
  8
0
  6
CONTINUOUS
 10
-298.89055305751828
 20
157.95779028589899
 30
0.0
 11
-298.24170635987542
 21
157.52424478324949
 31
0.0
  0
LINE
  5
6B7
  8
0
  6
CONTINUOUS
 10
-296.06212593277212
 20
157.95779028589899
 30
0.0
 11
-296.71097263041497
 21
157.52424478324949
 31
0.0
  0
ENDBLK
  5
6B9
  8
0
  0
BLOCK
  8
0
  2
*U34
 70
     1
 10
0.0
 20
0.0
 30
0.0
  3
*U34
  1

  0
TEXT
  5
6BB
  8
0
  6
CONTINUOUS
 10
-715.68379347960547
 20
330.58085352753051
 30
0.0
 40
9.8353293413173617
  1
Substrate
  7
ARIAL
  0
ENDBLK
  5
6BD
  8
0
  0
BLOCK
  8
0
  2
*U35
 70
     1
 10
0.0
 20
0.0
 30
0.0
  3
*U35
  1

  0
SOLID
  5
6BF
  8
0
  6
CONTINUOUS
 10
-241.57025492641191
 20
191.58207927490409
 30
0.0
 11
-242.33562179114199
 21
191.4298383399267
 31
0.0
 12
-240.80488806168171
 22
191.4298383399267
 32
0.0
 13
-240.80488806168171
 23
191.4298383399267
 33
0.0
210
0.0
220
0.0
230
1.0
  0
SOLID
  5
6C0
  8
0
  6
CONTINUOUS
 10
-242.33562179114199
 20
191.4298383399267
 30
0.0
 11
-242.98446848878501
 21
190.9962928372772
 31
0.0
 12
-240.1560413640388
 22
190.9962928372772
 32
0.0
 13
-240.1560413640388
 23
190.9962928372772
 33
0.0
210
0.0
220
0.0
230
1.0
  0
SOLID
  5
6C1
  8
0
  6
CONTINUOUS
 10
242.33562179114199
 20
191.4298383399267
 30
0.0
 11
240.80488806168171
 21
191.4298383399267
 31
0.0
 12
240.1560413640388
 22
190.9962928372772
 32
0.0
 13
240.1560413640388
 23
190.9962928372772
 33
0.0
210
0.0
220
0.0
230
-1.0
  0
SOLID
  5
6C2
  8
0
  6
CONTINUOUS
 10
-242.98446848878501
 20
190.9962928372772
 30
0.0
 11
-243.41801399143449
 21
190.34744613963429
 31
0.0
 12
-239.72249586138929
 22
190.34744613963429
 32
0.0
 13
-239.72249586138929
 23
190.34744613963429
 33
0.0
210
0.0
220
0.0
230
1.0
  0
SOLID
  5
6C3
  8
0
  6
CONTINUOUS
 10
242.98446848878501
 20
190.9962928372772
 30
0.0
 11
240.1560413640388
 21
190.9962928372772
 31
0.0
 12
239.72249586138929
 22
190.34744613963429
 32
0.0
 13
239.72249586138929
 23
190.34744613963429
 33
0.0
210
0.0
220
0.0
230
-1.0
  0
SOLID
  5
6C4
  8
0
  6
CONTINUOUS
 10
-243.41801399143449
 20
190.34744613963429
 30
0.0
 11
-243.57025492641191
 21
189.5820792749042
 31
0.0
 12
-239.57025492641191
 22
189.5820792749042
 32
0.0
 13
-239.57025492641191
 23
189.5820792749042
 33
0.0
210
0.0
220
0.0
230
1.0
  0
SOLID
  5
6C5
  8
0
  6
CONTINUOUS
 10
243.41801399143449
 20
190.34744613963429
 30
0.0
 11
239.72249586138929
 21
190.34744613963429
 31
0.0
 12
239.57025492641191
 22
189.5820792749042
 32
0.0
 13
239.57025492641191
 23
189.5820792749042
 33
0.0
210
0.0
220
0.0
230
-1.0
  0
SOLID
  5
6C6
  8
0
  6
CONTINUOUS
 10
-243.57025492641191
 20
189.5820792749042
 30
0.0
 11
-243.41801399143449
 21
188.81671241017401
 31
0.0
 12
-239.72249586138929
 22
188.81671241017401
 32
0.0
 13
-239.72249586138929
 23
188.81671241017401
 33
0.0
210
0.0
220
0.0
230
1.0
  0
SOLID
  5
6C7
  8
0
  6
CONTINUOUS
 10
243.57025492641191
 20
189.5820792749042
 30
0.0
 11
239.57025492641191
 21
189.5820792749042
 31
0.0
 12
239.72249586138929
 22
188.81671241017401
 32
0.0
 13
239.72249586138929
 23
188.81671241017401
 33
0.0
210
0.0
220
0.0
230
-1.0
  0
SOLID
  5
6C8
  8
0
  6
CONTINUOUS
 10
-243.41801399143449
 20
188.81671241017401
 30
0.0
 11
-242.98446848878501
 21
188.1678657125311
 31
0.0
 12
-240.1560413640388
 22
188.1678657125311
 32
0.0
 13
-240.1560413640388
 23
188.1678657125311
 33
0.0
210
0.0
220
0.0
230
1.0
  0
SOLID
  5
6C9
  8
0
  6
CONTINUOUS
 10
243.41801399143449
 20
188.81671241017401
 30
0.0
 11
239.72249586138929
 21
188.81671241017401
 31
0.0
 12
240.1560413640388
 22
188.1678657125311
 32
0.0
 13
240.1560413640388
 23
188.1678657125311
 33
0.0
210
0.0
220
0.0
230
-1.0
  0
SOLID
  5
6CA
  8
0
  6
CONTINUOUS
 10
242.33562179114199
 20
187.73432020988159
 30
0.0
 11
240.80488806168171
 21
187.73432020988159
 31
0.0
 12
241.57025492641191
 22
187.5820792749042
 32
0.0
 13
241.57025492641191
 23
187.5820792749042
 33
0.0
210
0.0
220
0.0
230
-1.0
  0
SOLID
  5
6CB
  8
0
  6
CONTINUOUS
 10
-242.98446848878501
 20
188.1678657125311
 30
0.0
 11
-242.33562179114199
 21
187.73432020988159
 31
0.0
 12
-240.80488806168171
 22
187.73432020988159
 32
0.0
 13
-240.80488806168171
 23
187.73432020988159
 33
0.0
210
0.0
220
0.0
230
1.0
  0
SOLID
  5
6CC
  8
0
  6
CONTINUOUS
 10
242.98446848878501
 20
188.1678657125311
 30
0.0
 11
240.1560413640388
 21
188.1678657125311
 31
0.0
 12
240.80488806168171
 22
187.73432020988159
 32
0.0
 13
240.80488806168171
 23
187.73432020988159
 33
0.0
210
0.0
220
0.0
230
-1.0
  0
LINE
  5
6CD
  8
0
  6
CONTINUOUS
 10
-241.57025492641191
 20
191.58207927490409
 30
0.0
 11
-242.33562179114199
 21
191.4298383399267
 31
0.0
  0
LINE
  5
6CE
  8
0
  6
CONTINUOUS
 10
-240.80488806168171
 20
191.4298383399267
 30
0.0
 11
-241.57025492641191
 21
191.58207927490409
 31
0.0
  0
LINE
  5
6CF
  8
0
  6
CONTINUOUS
 10
-242.33562179114199
 20
191.4298383399267
 30
0.0
 11
-242.98446848878501
 21
190.9962928372772
 31
0.0
  0
LINE
  5
6D0
  8
0
  6
CONTINUOUS
 10
-240.80488806168171
 20
191.4298383399267
 30
0.0
 11
-240.1560413640388
 21
190.9962928372772
 31
0.0
  0
LINE
  5
6D1
  8
0
  6
CONTINUOUS
 10
-242.98446848878501
 20
190.9962928372772
 30
0.0
 11
-243.41801399143449
 21
190.34744613963429
 31
0.0
  0
LINE
  5
6D2
  8
0
  6
CONTINUOUS
 10
-240.1560413640388
 20
190.9962928372772
 30
0.0
 11
-239.72249586138929
 21
190.34744613963429
 31
0.0
  0
LINE
  5
6D3
  8
0
  6
CONTINUOUS
 10
-243.41801399143449
 20
190.34744613963429
 30
0.0
 11
-243.57025492641191
 21
189.5820792749042
 31
0.0
  0
LINE
  5
6D4
  8
0
  6
CONTINUOUS
 10
-239.72249586138929
 20
190.34744613963429
 30
0.0
 11
-239.57025492641191
 21
189.5820792749042
 31
0.0
  0
LINE
  5
6D5
  8
0
  6
CONTINUOUS
 10
-243.57025492641191
 20
189.5820792749042
 30
0.0
 11
-243.41801399143449
 21
188.81671241017401
 31
0.0
  0
LINE
  5
6D6
  8
0
  6
CONTINUOUS
 10
-239.57025492641191
 20
189.5820792749042
 30
0.0
 11
-239.72249586138929
 21
188.81671241017401
 31
0.0
  0
LINE
  5
6D7
  8
0
  6
CONTINUOUS
 10
-243.41801399143449
 20
188.81671241017401
 30
0.0
 11
-242.98446848878501
 21
188.1678657125311
 31
0.0
  0
LINE
  5
6D8
  8
0
  6
CONTINUOUS
 10
-239.72249586138929
 20
188.81671241017401
 30
0.0
 11
-240.1560413640388
 21
188.1678657125311
 31
0.0
  0
LINE
  5
6D9
  8
0
  6
CONTINUOUS
 10
-240.80488806168171
 20
187.73432020988159
 30
0.0
 11
-241.57025492641191
 21
187.5820792749042
 31
0.0
  0
LINE
  5
6DA
  8
0
  6
CONTINUOUS
 10
-241.57025492641191
 20
187.5820792749042
 30
0.0
 11
-242.33562179114199
 21
187.73432020988159
 31
0.0
  0
LINE
  5
6DB
  8
0
  6
CONTINUOUS
 10
-242.98446848878501
 20
188.1678657125311
 30
0.0
 11
-242.33562179114199
 21
187.73432020988159
 31
0.0
  0
LINE
  5
6DC
  8
0
  6
CONTINUOUS
 10
-240.1560413640388
 20
188.1678657125311
 30
0.0
 11
-240.80488806168171
 21
187.73432020988159
 31
0.0
  0
ENDBLK
  5
6DE
  8
0
  0
BLOCK
  8
0
  2
*U36
 70
     1
 10
0.0
 20
0.0
 30
0.0
  3
*U36
  1

  0
TEXT
  5
6E0
  8
0
  6
CONTINUOUS
 10
-716.14671143632495
 20
370.4979617200886
 30
0.0
 40
9.8353293413173617
  1
Underlay
  7
ARIAL
  0
ENDBLK
  5
6E2
  8
0
  0
BLOCK
  8
0
  2
*U37
 70
     1
 10
0.0
 20
0.0
 30
0.0
  3
*U37
  1

  0
SOLID
  5
6E4
  8
0
  6
CONTINUOUS
 10
-426.65902097509399
 20
70.893105401882437
 30
0.0
 11
-427.42438783982419
 21
70.740864466904995
 31
0.0
 12
-425.8936541103638
 22
70.740864466904995
 32
0.0
 13
-425.8936541103638
 23
70.740864466904995
 33
0.0
210
0.0
220
0.0
230
1.0
  0
SOLID
  5
6E5
  8
0
  6
CONTINUOUS
 10
-427.42438783982419
 20
70.740864466904995
 30
0.0
 11
-428.07323453746721
 21
70.307318964255515
 31
0.0
 12
-425.24480741272077
 22
70.307318964255515
 32
0.0
 13
-425.24480741272077
 23
70.307318964255515
 33
0.0
210
0.0
220
0.0
230
1.0
  0
SOLID
  5
6E6
  8
0
  6
CONTINUOUS
 10
427.42438783982419
 20
70.740864466904995
 30
0.0
 11
425.8936541103638
 21
70.740864466904995
 31
0.0
 12
425.24480741272077
 22
70.307318964255515
 32
0.0
 13
425.24480741272077
 23
70.307318964255515
 33
0.0
210
0.0
220
0.0
230
-1.0
  0
SOLID
  5
6E7
  8
0
  6
CONTINUOUS
 10
-428.07323453746721
 20
70.307318964255515
 30
0.0
 11
-428.50678004011661
 21
69.658472266612577
 31
0.0
 12
-424.81126191007138
 22
69.658472266612577
 32
0.0
 13
-424.81126191007138
 23
69.658472266612577
 33
0.0
210
0.0
220
0.0
230
1.0
  0
SOLID
  5
6E8
  8
0
  6
CONTINUOUS
 10
428.07323453746721
 20
70.307318964255515
 30
0.0
 11
425.24480741272077
 21
70.307318964255515
 31
0.0
 12
424.81126191007138
 22
69.658472266612577
 32
0.0
 13
424.81126191007138
 23
69.658472266612577
 33
0.0
210
0.0
220
0.0
230
-1.0
  0
SOLID
  5
6E9
  8
0
  6
CONTINUOUS
 10
-428.50678004011661
 20
69.658472266612577
 30
0.0
 11
-428.65902097509411
 21
68.89310540188238
 31
0.0
 12
-424.65902097509388
 22
68.89310540188238
 32
0.0
 13
-424.65902097509388
 23
68.89310540188238
 33
0.0
210
0.0
220
0.0
230
1.0
  0
SOLID
  5
6EA
  8
0
  6
CONTINUOUS
 10
428.50678004011661
 20
69.658472266612577
 30
0.0
 11
424.81126191007138
 21
69.658472266612577
 31
0.0
 12
424.65902097509388
 22
68.89310540188238
 32
0.0
 13
424.65902097509388
 23
68.89310540188238
 33
0.0
210
0.0
220
0.0
230
-1.0
  0
SOLID
  5
6EB
  8
0
  6
CONTINUOUS
 10
-428.65902097509411
 20
68.89310540188238
 30
0.0
 11
-428.50678004011661
 21
68.127738537152183
 31
0.0
 12
-424.81126191007138
 22
68.127738537152183
 32
0.0
 13
-424.81126191007138
 23
68.127738537152183
 33
0.0
210
0.0
220
0.0
230
1.0
  0
SOLID
  5
6EC
  8
0
  6
CONTINUOUS
 10
428.65902097509411
 20
68.89310540188238
 30
0.0
 11
424.65902097509388
 21
68.89310540188238
 31
0.0
 12
424.81126191007138
 22
68.127738537152183
 32
0.0
 13
424.81126191007138
 23
68.127738537152183
 33
0.0
210
0.0
220
0.0
230
-1.0
  0
SOLID
  5
6ED
  8
0
  6
CONTINUOUS
 10
-428.50678004011661
 20
68.127738537152183
 30
0.0
 11
-428.07323453746721
 21
67.478891839509245
 31
0.0
 12
-425.24480741272077
 22
67.478891839509245
 32
0.0
 13
-425.24480741272077
 23
67.478891839509245
 33
0.0
210
0.0
220
0.0
230
1.0
  0
SOLID
  5
6EE
  8
0
  6
CONTINUOUS
 10
428.50678004011661
 20
68.127738537152183
 30
0.0
 11
424.81126191007138
 21
68.127738537152183
 31
0.0
 12
425.24480741272077
 22
67.478891839509245
 32
0.0
 13
425.24480741272077
 23
67.478891839509245
 33
0.0
210
0.0
220
0.0
230
-1.0
  0
SOLID
  5
6EF
  8
0
  6
CONTINUOUS
 10
427.42438783982419
 20
67.045346336859751
 30
0.0
 11
425.8936541103638
 21
67.045346336859751
 31
0.0
 12
426.65902097509399
 22
66.893105401882323
 32
0.0
 13
426.65902097509399
 23
66.893105401882323
 33
0.0
210
0.0
220
0.0
230
-1.0
  0
SOLID
  5
6F0
  8
0
  6
CONTINUOUS
 10
-428.07323453746721
 20
67.478891839509245
 30
0.0
 11
-427.42438783982419
 21
67.045346336859751
 31
0.0
 12
-425.8936541103638
 22
67.045346336859751
 32
0.0
 13
-425.8936541103638
 23
67.045346336859751
 33
0.0
210
0.0
220
0.0
230
1.0
  0
SOLID
  5
6F1
  8
0
  6
CONTINUOUS
 10
428.07323453746721
 20
67.478891839509245
 30
0.0
 11
425.24480741272077
 21
67.478891839509245
 31
0.0
 12
425.8936541103638
 22
67.045346336859751
 32
0.0
 13
425.8936541103638
 23
67.045346336859751
 33
0.0
210
0.0
220
0.0
230
-1.0
  0
LINE
  5
6F2
  8
0
  6
CONTINUOUS
 10
-426.65902097509399
 20
70.893105401882437
 30
0.0
 11
-427.42438783982419
 21
70.740864466904995
 31
0.0
  0
LINE
  5
6F3
  8
0
  6
CONTINUOUS
 10
-425.8936541103638
 20
70.740864466904995
 30
0.0
 11
-426.65902097509399
 21
70.893105401882437
 31
0.0
  0
LINE
  5
6F4
  8
0
  6
CONTINUOUS
 10
-427.42438783982419
 20
70.740864466904995
 30
0.0
 11
-428.07323453746721
 21
70.307318964255515
 31
0.0
  0
LINE
  5
6F5
  8
0
  6
CONTINUOUS
 10
-425.8936541103638
 20
70.740864466904995
 30
0.0
 11
-425.24480741272077
 21
70.307318964255515
 31
0.0
  0
LINE
  5
6F6
  8
0
  6
CONTINUOUS
 10
-428.07323453746721
 20
70.307318964255515
 30
0.0
 11
-428.50678004011661
 21
69.658472266612577
 31
0.0
  0
LINE
  5
6F7
  8
0
  6
CONTINUOUS
 10
-425.24480741272077
 20
70.307318964255515
 30
0.0
 11
-424.81126191007138
 21
69.658472266612577
 31
0.0
  0
LINE
  5
6F8
  8
0
  6
CONTINUOUS
 10
-428.50678004011661
 20
69.658472266612577
 30
0.0
 11
-428.65902097509411
 21
68.89310540188238
 31
0.0
  0
LINE
  5
6F9
  8
0
  6
CONTINUOUS
 10
-424.81126191007138
 20
69.658472266612577
 30
0.0
 11
-424.65902097509388
 21
68.89310540188238
 31
0.0
  0
LINE
  5
6FA
  8
0
  6
CONTINUOUS
 10
-428.65902097509411
 20
68.89310540188238
 30
0.0
 11
-428.50678004011661
 21
68.127738537152183
 31
0.0
  0
LINE
  5
6FB
  8
0
  6
CONTINUOUS
 10
-424.65902097509388
 20
68.89310540188238
 30
0.0
 11
-424.81126191007138
 21
68.127738537152183
 31
0.0
  0
LINE
  5
6FC
  8
0
  6
CONTINUOUS
 10
-428.50678004011661
 20
68.127738537152183
 30
0.0
 11
-428.07323453746721
 21
67.478891839509245
 31
0.0
  0
LINE
  5
6FD
  8
0
  6
CONTINUOUS
 10
-424.81126191007138
 20
68.127738537152183
 30
0.0
 11
-425.24480741272077
 21
67.478891839509245
 31
0.0
  0
LINE
  5
6FE
  8
0
  6
CONTINUOUS
 10
-425.8936541103638
 20
67.045346336859751
 30
0.0
 11
-426.65902097509399
 21
66.893105401882323
 31
0.0
  0
LINE
  5
6FF
  8
0
  6
CONTINUOUS
 10
-426.65902097509399
 20
66.893105401882323
 30
0.0
 11
-427.42438783982419
 21
67.045346336859751
 31
0.0
  0
LINE
  5
700
  8
0
  6
CONTINUOUS
 10
-428.07323453746721
 20
67.478891839509245
 30
0.0
 11
-427.42438783982419
 21
67.045346336859751
 31
0.0
  0
LINE
  5
701
  8
0
  6
CONTINUOUS
 10
-425.24480741272077
 20
67.478891839509245
 30
0.0
 11
-425.8936541103638
 21
67.045346336859751
 31
0.0
  0
ENDBLK
  5
703
  8
0
  0
BLOCK
  8
0
  2
*U38
 70
     1
 10
0.0
 20
0.0
 30
0.0
  3
*U38
  1

  0
TEXT
  5
705
  8
0
  6
CONTINUOUS
 10
-727.10601110042955
 20
-83.963659928756613
 30
0.0
 40
9.8353293413173617
  1
902 CF US Starter
  7
ARIAL
  0
ENDBLK
  5
707
  8
0
  0
BLOCK
  8
0
  2
*U39
 70
     1
 10
0.0
 20
0.0
 30
0.0
  3
*U39
  1

  0
SOLID
  5
715
  8
0
  6
CONTINUOUS
 10
-548.74033711720233
 20
120.49445339739989
 30
0.0
 11
-549.14149628925065
 21
120.44785332656549
 31
0.0
 12
-535.55734409753234
 22
120.44785332656549
 32
0.0
 13
-535.55734409753234
 23
120.44785332656549
 33
0.0
  0
SOLID
  5
716
  8
0
  6
CONTINUOUS
 10
548.74033711720233
 20
120.49445339739989
 30
0.0
 11
535.91130677722629
 21
120.49445339739989
 31
0.0
 12
535.55734409753234
 22
120.44785332656549
 32
0.0
 13
535.55734409753234
 23
120.44785332656549
 33
0.0
210
0.0
220
0.0
230
-1.0
  0
SOLID
  5
717
  8
0
  6
CONTINUOUS
 10
-549.14149628925065
 20
120.44785332656549
 30
0.0
 11
-549.17753385466006
 21
120.4348235934076
 31
0.0
 12
-535.45837344831034
 22
120.4348235934076
 32
0.0
 13
-535.45837344831034
 23
120.4348235934076
 33
0.0
210
0.0
220
0.0
230
1.0
  0
SOLID
  5
718
  8
0
  6
CONTINUOUS
 10
549.14149628925065
 20
120.44785332656549
 30
0.0
 11
535.55734409753234
 21
120.44785332656549
 31
0.0
 12
535.45837344831034
 22
120.4348235934076
 32
0.0
 13
535.45837344831034
 23
120.4348235934076
 33
0.0
210
0.0
220
0.0
230
-1.0
  0
SOLID
  5
719
  8
0
  6
CONTINUOUS
 10
-549.17753385466006
 20
120.4348235934076
 30
0.0
 11
-549.5212908374898
 21
120.3105349044645
 31
0.0
 12
-535.15831400981426
 22
120.3105349044645
 32
0.0
 13
-535.15831400981426
 23
120.3105349044645
 33
0.0
210
0.0
220
0.0
230
1.0
  0
SOLID
  5
71A
  8
0
  6
CONTINUOUS
 10
549.17753385466006
 20
120.4348235934076
 30
0.0
 11
535.45837344831034
 21
120.4348235934076
 31
0.0
 12
535.15831400981426
 22
120.3105349044645
 32
0.0
 13
535.15831400981426
 23
120.3105349044645
 33
0.0
210
0.0
220
0.0
230
-1.0
  0
SOLID
  5
71B
  8
0
  6
CONTINUOUS
 10
-549.5212908374898
 20
120.3105349044645
 30
0.0
 11
-549.59872610085233
 21
120.2599978540245
 31
0.0
 12
-535.0363067772397
 22
120.2599978540245
 32
0.0
 13
-535.0363067772397
 23
120.2599978540245
 33
0.0
210
0.0
220
0.0
230
1.0
  0
SOLID
  5
71C
  8
0
  6
CONTINUOUS
 10
549.5212908374898
 20
120.3105349044645
 30
0.0
 11
535.15831400981426
 21
120.3105349044645
 31
0.0
 12
535.0363067772397
 22
120.2599978540245
 32
0.0
 13
535.0363067772397
 23
120.2599978540245
 33
0.0
210
0.0
220
0.0
230
-1.0
  0
SOLID
  5
71D
  8
0
  6
CONTINUOUS
 10
-549.59872610085233
 20
120.2599978540245
 30
0.0
 11
-549.85949395866169
 21
120.0898113290359
 31
0.0
 12
-534.81451537975875
 22
120.0898113290359
 32
0.0
 13
-534.81451537975875
 23
120.0898113290359
 33
0.0
210
0.0
220
0.0
230
1.0
  0
SOLID
  5
71E
  8
0
  6
CONTINUOUS
 10
549.59872610085233
 20
120.2599978540245
 30
0.0
 11
535.0363067772397
 21
120.2599978540245
 31
0.0
 12
534.81451537975875
 22
120.0898113290359
 32
0.0
 13
534.81451537975875
 23
120.0898113290359
 33
0.0
210
0.0
220
0.0
230
-1.0
  0
SOLID
  5
71F
  8
0
  6
CONTINUOUS
 10
-549.85949395866169
 20
120.0898113290359
 30
0.0
 11
-549.96233088082874
 21
119.9818902644781
 31
0.0
 12
-534.67386991016315
 22
119.9818902644781
 32
0.0
 13
-534.67386991016315
 23
119.9818902644781
 33
0.0
210
0.0
220
0.0
230
1.0
  0
SOLID
  5
720
  8
0
  6
CONTINUOUS
 10
549.85949395866169
 20
120.0898113290359
 30
0.0
 11
534.81451537975875
 21
120.0898113290359
 31
0.0
 12
534.67386991016315
 22
119.9818902644781
 32
0.0
 13
534.67386991016315
 23
119.9818902644781
 33
0.0
210
0.0
220
0.0
230
-1.0
  0
SOLID
  5
721
  8
0
  6
CONTINUOUS
 10
-549.96233088082874
 20
119.9818902644781
 30
0.0
 11
-550.13809389344874
 21
119.7974377251367
 31
0.0
 12
-534.53233449872516
 22
119.7974377251367
 32
0.0
 13
-534.53233449872516
 23
119.7974377251367
 33
0.0
210
0.0
220
0.0
230
1.0
  0
SOLID
  5
722
  8
0
  6
CONTINUOUS
 10
549.96233088082874
 20
119.9818902644781
 30
0.0
 11
534.67386991016315
 21
119.9818902644781
 31
0.0
 12
534.53233449872516
 22
119.7974377251367
 32
0.0
 13
534.53233449872516
 23
119.7974377251367
 33
0.0
210
0.0
220
0.0
230
-1.0
  0
SOLID
  5
723
  8
0
  6
CONTINUOUS
 10
-550.13809389344874
 20
119.7974377251367
 30
0.0
 11
-550.24237536862995
 21
119.6194533974017
 31
0.0
 12
-534.39576232061677
 22
119.6194533974017
 32
0.0
 13
-534.39576232061677
 23
119.6194533974017
 33
0.0
  0
SOLID
  5
724
  8
0
  6
CONTINUOUS
 10
550.13809389344874
 20
119.7974377251367
 30
0.0
 11
534.53233449872516
 21
119.7974377251367
 31
0.0
 12
534.39576232061677
 22
119.6194533974017
 32
0.0
 13
534.39576232061677
 23
119.6194533974017
 33
0.0
210
0.0
220
0.0
230
-1.0
  0
SOLID
  5
725
  8
0
  6
CONTINUOUS
 10
-550.24237536862995
 20
119.6194533974017
 30
0.0
 11
-550.31561318997944
 21
119.4944533974017
 31
0.0
 12
-534.34398562532022
 22
119.4944533974017
 32
0.0
 13
-534.34398562532022
 23
119.4944533974017
 33
0.0
210
0.0
220
0.0
230
1.0
  0
SOLID
  5
726
  8
0
  6
CONTINUOUS
 10
550.24237536862995
 20
119.6194533974017
 30
0.0
 11
534.39576232061677
 21
119.6194533974017
 31
0.0
 12
534.34398562532022
 22
119.4944533974017
 32
0.0
 13
534.34398562532022
 23
119.4944533974017
 33
0.0
210
0.0
220
0.0
230
-1.0
  0
SOLID
  5
727
  8
0
  6
CONTINUOUS
 10
-548.74033711720233
 20
119.4944533974017
 30
0.0
 11
-538.56288521630393
 21
119.4744819384709
 31
0.0
 12
-534.33571317617066
 22
119.4744819384709
 32
0.0
 13
-534.33571317617066
 23
119.4744819384709
 33
0.0
210
0.0
220
0.0
230
1.0
  0
SOLID
  5
728
  8
0
  6
CONTINUOUS
 10
548.74033711720233
 20
119.4944533974017
 30
0.0
 11
534.34398562532022
 21
119.4944533974017
 31
0.0
 12
534.33571317617066
 22
119.4744819384709
 32
0.0
 13
534.33571317617066
 23
119.4744819384709
 33
0.0
210
0.0
220
0.0
230
-1.0
  0
SOLID
  5
729
  8
0
  6
CONTINUOUS
 10
-550.31561318997944
 20
119.4944533974017
 30
0.0
 11
-550.32731451910956
 21
119.4744819384709
 31
0.0
 12
-548.9122624766519
 22
119.4744819384709
 32
0.0
 13
-548.9122624766519
 23
119.4744819384709
 33
0.0
210
0.0
220
0.0
230
1.0
  0
SOLID
  5
72A
  8
0
  6
CONTINUOUS
 10
550.31561318997944
 20
119.4944533974017
 30
0.0
 11
548.74033711720233
 21
119.4944533974017
 31
0.0
 12
548.9122624766519
 22
119.4744819384709
 32
0.0
 13
548.9122624766519
 23
119.4744819384709
 33
0.0
210
0.0
220
0.0
230
-1.0
  0
SOLID
  5
72B
  8
0
  6
CONTINUOUS
 10
-538.56288521630393
 20
119.4744819384709
 30
0.0
 11
-535.71719249341265
 21
119.46889776711861
 31
0.0
 12
-534.33340013666202
 22
119.46889776711861
 32
0.0
 13
-534.33340013666202
 23
119.46889776711861
 33
0.0
210
0.0
220
0.0
230
1.0
  0
SOLID
  5
72C
  8
0
  6
CONTINUOUS
 10
538.56288521630393
 20
119.4744819384709
 30
0.0
 11
534.33571317617066
 21
119.4744819384709
 31
0.0
 12
534.33340013666202
 22
119.46889776711861
 32
0.0
 13
534.33340013666202
 23
119.46889776711861
 33
0.0
210
0.0
220
0.0
230
-1.0
  0
SOLID
  5
72D
  8
0
  6
CONTINUOUS
 10
-550.32731451910956
 20
119.4744819384709
 30
0.0
 11
-550.34225318277049
 21
119.44898509922599
 31
0.0
 12
-548.96339243146588
 22
119.44898509922599
 32
0.0
 13
-548.96339243146588
 23
119.44898509922599
 33
0.0
210
0.0
220
0.0
230
1.0
  0
SOLID
  5
72E
  8
0
  6
CONTINUOUS
 10
550.32731451910956
 20
119.4744819384709
 30
0.0
 11
548.9122624766519
 21
119.4744819384709
 31
0.0
 12
548.96339243146588
 22
119.44898509922599
 32
0.0
 13
548.96339243146588
 23
119.44898509922599
 33
0.0
210
0.0
220
0.0
230
-1.0
  0
SOLID
  5
72F
  8
0
  6
CONTINUOUS
 10
-535.71719249341265
 20
119.46889776711861
 30
0.0
 11
-535.5363067772397
 21
119.3939724502401
 31
0.0
 12
-534.30236505424568
 22
119.3939724502401
 32
0.0
 13
-534.30236505424568
 23
119.3939724502401
 33
0.0
210
0.0
220
0.0
230
1.0
  0
SOLID
  5
730
  8
0
  6
CONTINUOUS
 10
535.71719249341265
 20
119.46889776711861
 30
0.0
 11
534.33340013666202
 21
119.46889776711861
 31
0.0
 12
534.30236505424568
 22
119.3939724502401
 32
0.0
 13
534.30236505424568
 23
119.3939724502401
 33
0.0
210
0.0
220
0.0
230
-1.0
  0
SOLID
  5
731
  8
0
  6
CONTINUOUS
 10
-550.34225318277049
 20
119.44898509922599
 30
0.0
 11
-550.38165032496875
 21
119.32103536810089
 31
0.0
 12
-549.21997576354249
 22
119.32103536810089
 32
0.0
 13
-549.21997576354249
 23
119.32103536810089
 33
0.0
210
0.0
220
0.0
230
1.0
  0
SOLID
  5
732
  8
0
  6
CONTINUOUS
 10
550.34225318277049
 20
119.44898509922599
 30
0.0
 11
548.96339243146588
 21
119.44898509922599
 31
0.0
 12
549.21997576354249
 22
119.32103536810089
 32
0.0
 13
549.21997576354249
 23
119.32103536810089
 33
0.0
210
0.0
220
0.0
230
-1.0
  0
SOLID
  5
733
  8
0
  6
CONTINUOUS
 10
-535.5363067772397
 20
119.3939724502401
 30
0.0
 11
-535.38097669134982
 21
119.2747834832917
 31
0.0
 12
-534.25299536765056
 22
119.2747834832917
 32
0.0
 13
-534.25299536765056
 23
119.2747834832917
 33
0.0
210
0.0
220
0.0
230
1.0
  0
SOLID
  5
734
  8
0
  6
CONTINUOUS
 10
535.5363067772397
 20
119.3939724502401
 30
0.0
 11
534.30236505424568
 21
119.3939724502401
 31
0.0
 12
534.25299536765056
 22
119.2747834832917
 32
0.0
 13
534.25299536765056
 23
119.2747834832917
 33
0.0
210
0.0
220
0.0
230
-1.0
  0
SOLID
  5
735
  8
0
  6
CONTINUOUS
 10
-535.38097669134982
 20
119.2747834832917
 30
0.0
 11
-535.32158807095198
 21
119.1973867263312
 31
0.0
 12
-534.22093658123379
 22
119.1973867263312
 32
0.0
 13
-534.22093658123379
 23
119.1973867263312
 33
0.0
210
0.0
220
0.0
230
1.0
  0
SOLID
  5
736
  8
0
  6
CONTINUOUS
 10
535.38097669134982
 20
119.2747834832917
 30
0.0
 11
534.25299536765056
 21
119.2747834832917
 31
0.0
 12
534.22093658123379
 22
119.1973867263312
 32
0.0
 13
534.22093658123379
 23
119.1973867263312
 33
0.0
210
0.0
220
0.0
230
-1.0
  0
SOLID
  5
737
  8
0
  6
CONTINUOUS
 10
-535.32158807095198
 20
119.1973867263312
 30
0.0
 11
-535.2617877244013
 21
119.1194533974017
 31
0.0
 12
-534.21067646383494
 22
119.1194533974017
 32
0.0
 13
-534.21067646383494
 23
119.1194533974017
 33
0.0
  0
SOLID
  5
738
  8
0
  6
CONTINUOUS
 10
535.32158807095198
 20
119.1973867263312
 30
0.0
 11
534.22093658123379
 21
119.1973867263312
 31
0.0
 12
534.21067646383494
 22
119.1194533974017
 32
0.0
 13
534.21067646383494
 23
119.1194533974017
 33
0.0
210
0.0
220
0.0
230
-1.0
  0
SOLID
  5
739
  8
0
  6
CONTINUOUS
 10
-550.38165032496875
 20
119.32103536810089
 30
0.0
 11
-550.46109886966224
 21
119.0630110707894
 31
0.0
 12
-549.41435546240143
 22
119.0630110707894
 32
0.0
 13
-549.41435546240143
 23
119.0630110707894
 33
0.0
210
0.0
220
0.0
230
1.0
  0
SOLID
  5
73A
  8
0
  6
CONTINUOUS
 10
550.38165032496875
 20
119.32103536810089
 30
0.0
 11
549.21997576354249
 21
119.32103536810089
 31
0.0
 12
549.41435546240143
 22
119.0630110707894
 32
0.0
 13
549.41435546240143
 23
119.0630110707894
 33
0.0
210
0.0
220
0.0
230
-1.0
  0
SOLID
  5
73B
  8
0
  6
CONTINUOUS
 10
-550.46109886966224
 20
119.0630110707894
 30
0.0
 11
-550.46417483293317
 21
119.04639555532491
 31
0.0
 12
-549.42687257387513
 22
119.04639555532491
 32
0.0
 13
-549.42687257387513
 23
119.04639555532491
 33
0.0
210
0.0
220
0.0
230
1.0
  0
SOLID
  5
73C
  8
0
  6
CONTINUOUS
 10
550.46109886966224
 20
119.0630110707894
 30
0.0
 11
549.41435546240143
 21
119.0630110707894
 31
0.0
 12
549.42687257387513
 22
119.04639555532491
 32
0.0
 13
549.42687257387513
 23
119.04639555532491
 33
0.0
210
0.0
220
0.0
230
-1.0
  0
SOLID
  5
73D
  8
0
  6
CONTINUOUS
 10
-535.2617877244013
 20
119.1194533974017
 30
0.0
 11
-535.18686240752288
 21
118.93856768122861
 31
0.0
 12
-534.18686240752277
 22
118.93856768122861
 32
0.0
 13
-534.18686240752277
 23
118.93856768122861
 33
0.0
  0
SOLID
  5
73E
  8
0
  6
CONTINUOUS
 10
535.2617877244013
 20
119.1194533974017
 30
0.0
 11
534.21067646383494
 21
119.1194533974017
 31
0.0
 12
534.18686240752277
 22
118.93856768122861
 32
0.0
 13
534.18686240752277
 23
118.93856768122861
 33
0.0
210
0.0
220
0.0
230
-1.0
  0
SOLID
  5
73F
  8
0
  6
CONTINUOUS
 10
-535.18686240752288
 20
118.93856768122861
 30
0.0
 11
-535.16130677723959
 21
118.7444533974017
 31
0.0
 12
-534.1613067772397
 22
118.7444533974017
 32
0.0
 13
-534.1613067772397
 23
118.7444533974017
 33
0.0
210
0.0
220
0.0
230
1.0
  0
SOLID
  5
740
  8
0
  6
CONTINUOUS
 10
535.18686240752288
 20
118.93856768122861
 30
0.0
 11
534.18686240752277
 21
118.93856768122861
 31
0.0
 12
534.1613067772397
 22
118.7444533974017
 32
0.0
 13
534.1613067772397
 23
118.7444533974017
 33
0.0
210
0.0
220
0.0
230
-1.0
  0
SOLID
  5
741
  8
0
  6
CONTINUOUS
 10
-535.16130677723959
 20
118.7444533974017
 30
0.0
 11
-535.16130677723959
 21
116.0837292962775
 31
0.0
 12
-534.1613067772397
 22
116.0837292962775
 32
0.0
 13
-534.1613067772397
 23
116.0837292962775
 33
0.0
210
0.0
220
0.0
230
1.0
  0
SOLID
  5
742
  8
0
  6
CONTINUOUS
 10
535.16130677723959
 20
118.7444533974017
 30
0.0
 11
534.1613067772397
 21
118.7444533974017
 31
0.0
 12
534.1613067772397
 22
116.0837292962775
 32
0.0
 13
534.1613067772397
 23
116.0837292962775
 33
0.0
210
0.0
220
0.0
230
-1.0
  0
SOLID
  5
743
  8
0
  6
CONTINUOUS
 10
-550.46417483293317
 20
119.04639555532491
 30
0.0
 11
-552.49612532181629
 21
108.0703526713355
 31
0.0
 12
-551.47880251521565
 22
108.0703526713355
 32
0.0
 13
-551.47880251521565
 23
108.0703526713355
 33
0.0
210
0.0
220
0.0
230
1.0
  0
SOLID
  5
744
  8
0
  6
CONTINUOUS
 10
550.46417483293317
 20
119.04639555532491
 30
0.0
 11
549.42687257387513
 21
119.04639555532491
 31
0.0
 12
551.47880251521565
 22
108.0703526713355
 32
0.0
 13
551.47880251521565
 23
108.0703526713355
 33
0.0
210
0.0
220
0.0
230
-1.0
  0
SOLID
  5
745
  8
0
  6
CONTINUOUS
 10
-552.49612532181629
 20
108.0703526713355
 30
0.0
 11
-552.50777837547253
 21
107.8883197151123
 31
0.0
 12
-551.51283289183993
 22
107.8883197151123
 32
0.0
 13
-551.51283289183993
 23
107.8883197151123
 33
0.0
  0
SOLID
  5
746
  8
0
  6
CONTINUOUS
 10
552.49612532181629
 20
108.0703526713355
 30
0.0
 11
551.47880251521565
 21
108.0703526713355
 31
0.0
 12
551.51283289183993
 22
107.8883197151123
 32
0.0
 13
551.51283289183993
 23
107.8883197151123
 33
0.0
210
0.0
220
0.0
230
-1.0
  0
SOLID
  5
747
  8
0
  6
CONTINUOUS
 10
-552.50777837547253
 20
107.8883197151123
 30
0.0
 11
-552.53435155780085
 21
107.4732186542053
 31
0.0
 12
-551.53940607416848
 22
107.4732186542053
 32
0.0
 13
-551.53940607416848
 23
107.4732186542053
 33
0.0
  0
SOLID
  5
748
  8
0
  6
CONTINUOUS
 10
552.50777837547253
 20
107.8883197151123
 30
0.0
 11
551.51283289183993
 21
107.8883197151123
 31
0.0
 12
551.53940607416848
 22
107.4732186542053
 32
0.0
 13
551.53940607416848
 23
107.4732186542053
 33
0.0
210
0.0
220
0.0
230
-1.0
  0
SOLID
  5
749
  8
0
  6
CONTINUOUS
 10
-552.53435155780085
 20
107.4732186542053
 30
0.0
 11
-552.53788317976102
 21
107.4180510041962
 31
0.0
 12
-551.52969062408442
 22
107.4180510041962
 32
0.0
 13
-551.52969062408442
 23
107.4180510041962
 33
0.0
210
0.0
220
0.0
230
1.0
  0
SOLID
  5
74A
  8
0
  6
CONTINUOUS
 10
552.53435155780085
 20
107.4732186542053
 30
0.0
 11
551.53940607416848
 21
107.4732186542053
 31
0.0
 12
551.52969062408442
 22
107.4180510041962
 32
0.0
 13
551.52969062408442
 23
107.4180510041962
 33
0.0
210
0.0
220
0.0
230
-1.0
  0
SOLID
  5
74B
  8
0
  6
CONTINUOUS
 10
-552.53788317976102
 20
107.4180510041962
 30
0.0
 11
-552.4754566457899
 21
107.0635717832033
 31
0.0
 12
-551.4672640901133
 22
107.0635717832033
 32
0.0
 13
-551.4672640901133
 23
107.0635717832033
 33
0.0
210
0.0
220
0.0
230
1.0
  0
SOLID
  5
74C
  8
0
  6
CONTINUOUS
 10
552.53788317976102
 20
107.4180510041962
 30
0.0
 11
551.52969062408442
 21
107.4180510041962
 31
0.0
 12
551.4672640901133
 22
107.0635717832033
 32
0.0
 13
551.4672640901133
 23
107.0635717832033
 33
0.0
210
0.0
220
0.0
230
-1.0
  0
SOLID
  5
74D
  8
0
  6
CONTINUOUS
 10
-552.4754566457899
 20
107.0635717832033
 30
0.0
 11
-552.42451720481733
 21
106.7743202069075
 31
0.0
 12
-551.3406617026626
 22
106.7743202069075
 32
0.0
 13
-551.3406617026626
 23
106.7743202069075
 33
0.0
210
0.0
220
0.0
230
1.0
  0
SOLID
  5
74E
  8
0
  6
CONTINUOUS
 10
552.4754566457899
 20
107.0635717832033
 30
0.0
 11
551.4672640901133
 21
107.0635717832033
 31
0.0
 12
551.3406617026626
 22
106.7743202069075
 32
0.0
 13
551.3406617026626
 23
106.7743202069075
 33
0.0
210
0.0
220
0.0
230
-1.0
  0
SOLID
  5
74F
  8
0
  6
CONTINUOUS
 10
-552.42451720481733
 20
106.7743202069075
 30
0.0
 11
-552.38433808171806
 21
106.68252197999669
 31
0.0
 12
-551.30048257956332
 22
106.68252197999669
 32
0.0
 13
-551.30048257956332
 23
106.68252197999669
 33
0.0
210
0.0
220
0.0
230
1.0
  0
SOLID
  5
750
  8
0
  6
CONTINUOUS
 10
552.42451720481733
 20
106.7743202069075
 30
0.0
 11
551.3406617026626
 21
106.7743202069075
 31
0.0
 12
551.30048257956332
 22
106.68252197999669
 32
0.0
 13
551.30048257956332
 23
106.68252197999669
 33
0.0
210
0.0
220
0.0
230
-1.0
  0
SOLID
  5
751
  8
0
  6
CONTINUOUS
 10
-552.38433808171806
 20
106.68252197999669
 30
0.0
 11
-552.23949548015935
 21
106.3515965396535
 31
0.0
 12
-551.04848381425109
 22
106.3515965396535
 32
0.0
 13
-551.04848381425109
 23
106.3515965396535
 33
0.0
210
0.0
220
0.0
230
1.0
  0
SOLID
  5
752
  8
0
  6
CONTINUOUS
 10
552.38433808171806
 20
106.68252197999669
 30
0.0
 11
551.30048257956332
 21
106.68252197999669
 31
0.0
 12
551.04848381425109
 22
106.3515965396535
 32
0.0
 13
551.04848381425109
 23
106.3515965396535
 33
0.0
210
0.0
220
0.0
230
-1.0
  0
SOLID
  5
753
  8
0
  6
CONTINUOUS
 10
-552.23949548015935
 20
106.3515965396535
 30
0.0
 11
-552.16243197395295
 21
106.17552765901149
 31
0.0
 12
-550.83152302398878
 22
106.17552765901149
 32
0.0
 13
-550.83152302398878
 23
106.17552765901149
 33
0.0
  0
SOLID
  5
754
  8
0
  6
CONTINUOUS
 10
552.23949548015935
 20
106.3515965396535
 30
0.0
 11
551.04848381425109
 21
106.3515965396535
 31
0.0
 12
550.83152302398878
 22
106.17552765901149
 32
0.0
 13
550.83152302398878
 23
106.17552765901149
 33
0.0
210
0.0
220
0.0
230
-1.0
  0
SOLID
  5
755
  8
0
  6
CONTINUOUS
 10
-552.16243197395295
 20
106.17552765901149
 30
0.0
 11
-552.09691530423947
 21
106.0894909963006
 31
0.0
 12
-550.72550438932012
 22
106.0894909963006
 32
0.0
 13
-550.72550438932012
 23
106.0894909963006
 33
0.0
  0
SOLID
  5
756
  8
0
  6
CONTINUOUS
 10
552.16243197395295
 20
106.17552765901149
 30
0.0
 11
550.83152302398878
 21
106.17552765901149
 31
0.0
 12
550.72550438932012
 22
106.0894909963006
 32
0.0
 13
550.72550438932012
 23
106.0894909963006
 33
0.0
210
0.0
220
0.0
230
-1.0
  0
SOLID
  5
757
  8
0
  6
CONTINUOUS
 10
-552.09691530423947
 20
106.0894909963006
 30
0.0
 11
-551.76643391417679
 21
105.6555019670439
 31
0.0
 12
-550.03726943081585
 22
105.6555019670439
 32
0.0
 13
-550.03726943081585
 23
105.6555019670439
 33
0.0
210
0.0
220
0.0
230
1.0
  0
SOLID
  5
758
  8
0
  6
CONTINUOUS
 10
552.09691530423947
 20
106.0894909963006
 30
0.0
 11
550.72550438932012
 21
106.0894909963006
 31
0.0
 12
550.03726943081585
 22
105.6555019670439
 32
0.0
 13
550.03726943081585
 23
105.6555019670439
 33
0.0
210
0.0
220
0.0
230
-1.0
  0
SOLID
  5
759
  8
0
  6
CONTINUOUS
 10
-551.76643391417679
 20
105.6555019670439
 30
0.0
 11
-551.25889481785691
 21
105.24362182748941
 31
0.0
 12
-549.38409552169514
 22
105.24362182748941
 32
0.0
 13
-549.38409552169514
 23
105.24362182748941
 33
0.0
  0
SOLID
  5
75A
  8
0
  6
CONTINUOUS
 10
551.76643391417679
 20
105.6555019670439
 30
0.0
 11
550.03726943081585
 21
105.6555019670439
 31
0.0
 12
549.38409552169514
 22
105.24362182748941
 32
0.0
 13
549.38409552169514
 23
105.24362182748941
 33
0.0
210
0.0
220
0.0
230
-1.0
  0
SOLID
  5
75B
  8
0
  6
CONTINUOUS
 10
-420.75000000000091
 20
104.0797633734888
 30
0.0
 11
-421.33234285148183
 21
104.00309648263909
 31
0.0
 12
-420.16765714851988
 22
104.00309648263909
 32
0.0
 13
-420.16765714851988
 23
104.00309648263909
 33
0.0
210
0.0
220
0.0
230
1.0
  0
SOLID
  5
75C
  8
0
  6
CONTINUOUS
 10
-421.33234285148183
 20
104.00309648263909
 30
0.0
 11
-421.87500000000131
 21
103.7783205320036
 31
0.0
 12
-419.6250000000004
 22
103.7783205320036
 32
0.0
 13
-419.6250000000004
 23
103.7783205320036
 33
0.0
210
0.0
220
0.0
230
1.0
  0
SOLID
  5
75D
  8
0
  6
CONTINUOUS
 10
421.33234285148183
 20
104.00309648263909
 30
0.0
 11
420.16765714851988
 21
104.00309648263909
 31
0.0
 12
419.6250000000004
 22
103.7783205320036
 32
0.0
 13
419.6250000000004
 23
103.7783205320036
 33
0.0
210
0.0
220
0.0
230
-1.0
  0
SOLID
  5
75E
  8
0
  6
CONTINUOUS
 10
-421.87500000000131
 20
103.7783205320036
 30
0.0
 11
-422.34099025767131
 21
103.42075363115821
 31
0.0
 12
-419.1590097423304
 22
103.42075363115821
 32
0.0
 13
-419.1590097423304
 23
103.42075363115821
 33
0.0
210
0.0
220
0.0
230
1.0
  0
SOLID
  5
75F
  8
0
  6
CONTINUOUS
 10
421.87500000000131
 20
103.7783205320036
 30
0.0
 11
419.6250000000004
 21
103.7783205320036
 31
0.0
 12
419.1590097423304
 22
103.42075363115821
 32
0.0
 13
419.1590097423304
 23
103.42075363115821
 33
0.0
210
0.0
220
0.0
230
-1.0
  0
SOLID
  5
760
  8
0
  6
CONTINUOUS
 10
-422.34099025767131
 20
103.42075363115821
 30
0.0
 11
-422.60264128501888
 21
103.0797633734888
 31
0.0
 12
-418.89735871498277
 22
103.0797633734888
 32
0.0
 13
-418.89735871498277
 23
103.0797633734888
 33
0.0
210
0.0
220
0.0
230
1.0
  0
SOLID
  5
761
  8
0
  6
CONTINUOUS
 10
422.34099025767131
 20
103.42075363115821
 30
0.0
 11
419.1590097423304
 21
103.42075363115821
 31
0.0
 12
418.89735871498277
 22
103.0797633734888
 32
0.0
 13
418.89735871498277
 23
103.0797633734888
 33
0.0
210
0.0
220
0.0
230
-1.0
  0
SOLID
  5
762
  8
0
  6
CONTINUOUS
 10
-420.75000000000091
 20
103.0797633734888
 30
0.0
 11
-420.42647619362242
 21
103.0371706563501
 31
0.0
 12
-418.86467617363093
 22
103.0371706563501
 32
0.0
 13
-418.86467617363093
 23
103.0371706563501
 33
0.0
210
0.0
220
0.0
230
1.0
  0
SOLID
  5
763
  8
0
  6
CONTINUOUS
 10
420.75000000000091
 20
103.0797633734888
 30
0.0
 11
418.89735871498277
 21
103.0797633734888
 31
0.0
 12
418.86467617363093
 22
103.0371706563501
 32
0.0
 13
418.86467617363093
 23
103.0371706563501
 33
0.0
210
0.0
220
0.0
230
-1.0
  0
SOLID
  5
764
  8
0
  6
CONTINUOUS
 10
-422.60264128501888
 20
103.0797633734888
 30
0.0
 11
-422.63532382637078
 21
103.0371706563501
 31
0.0
 12
-421.07352380637928
 22
103.0371706563501
 32
0.0
 13
-421.07352380637928
 23
103.0371706563501
 33
0.0
210
0.0
220
0.0
230
1.0
  0
SOLID
  5
765
  8
0
  6
CONTINUOUS
 10
422.60264128501888
 20
103.0797633734888
 30
0.0
 11
420.75000000000091
 21
103.0797633734888
 31
0.0
 12
421.07352380637928
 22
103.0371706563501
 32
0.0
 13
421.07352380637928
 23
103.0371706563501
 33
0.0
210
0.0
220
0.0
230
-1.0
  0
SOLID
  5
766
  8
0
  6
CONTINUOUS
 10
-420.42647619362242
 20
103.0371706563501
 30
0.0
 11
-420.22752741369948
 21
102.9547633734883
 31
0.0
 12
-418.80144284148508
 22
102.9547633734883
 32
0.0
 13
-418.80144284148508
 23
102.9547633734883
 33
0.0
  0
SOLID
  5
767
  8
0
  6
CONTINUOUS
 10
420.42647619362242
 20
103.0371706563501
 30
0.0
 11
418.86467617363093
 21
103.0371706563501
 31
0.0
 12
418.80144284148508
 22
102.9547633734883
 32
0.0
 13
418.80144284148508
 23
102.9547633734883
 33
0.0
210
0.0
220
0.0
230
-1.0
  0
SOLID
  5
768
  8
0
  6
CONTINUOUS
 10
-422.63532382637078
 20
103.0371706563501
 30
0.0
 11
-422.69855715851662
 21
102.9547633734883
 31
0.0
 12
-421.27247258630217
 22
102.9547633734883
 32
0.0
 13
-421.27247258630217
 23
102.9547633734883
 33
0.0
210
0.0
220
0.0
230
1.0
  0
SOLID
  5
769
  8
0
  6
CONTINUOUS
 10
422.63532382637078
 20
103.0371706563501
 30
0.0
 11
421.07352380637928
 21
103.0371706563501
 31
0.0
 12
421.27247258630217
 22
102.9547633734883
 32
0.0
 13
421.27247258630217
 23
102.9547633734883
 33
0.0
210
0.0
220
0.0
230
-1.0
  0
SOLID
  5
76A
  8
0
  6
CONTINUOUS
 10
-420.22752741369948
 20
102.9547633734883
 30
0.0
 11
-420.12500000000051
 21
102.9122951282191
 31
0.0
 12
-418.78385191832439
 22
102.9122951282191
 32
0.0
 13
-418.78385191832439
 23
102.9122951282191
 33
0.0
  0
SOLID
  5
76B
  8
0
  6
CONTINUOUS
 10
420.22752741369948
 20
102.9547633734883
 30
0.0
 11
418.80144284148508
 21
102.9547633734883
 31
0.0
 12
418.78385191832439
 22
102.9122951282191
 32
0.0
 13
418.78385191832439
 23
102.9122951282191
 33
0.0
210
0.0
220
0.0
230
-1.0
  0
SOLID
  5
76C
  8
0
  6
CONTINUOUS
 10
-422.69855715851662
 20
102.9547633734883
 30
0.0
 11
-422.71614808167732
 21
102.9122951282191
 31
0.0
 12
-421.37500000000131
 22
102.9122951282191
 32
0.0
 13
-421.37500000000131
 23
102.9122951282191
 33
0.0
210
0.0
220
0.0
230
1.0
  0
SOLID
  5
76D
  8
0
  6
CONTINUOUS
 10
422.69855715851662
 20
102.9547633734883
 30
0.0
 11
421.27247258630217
 21
102.9547633734883
 31
0.0
 12
421.37500000000131
 22
102.9122951282191
 32
0.0
 13
421.37500000000131
 23
102.9122951282191
 33
0.0
210
0.0
220
0.0
230
-1.0
  0
SOLID
  5
76E
  8
0
  6
CONTINUOUS
 10
-420.12500000000051
 20
102.9122951282191
 30
0.0
 11
-419.86611652351701
 21
102.7136468499717
 31
0.0
 12
-418.70156910733232
 22
102.7136468499717
 32
0.0
 13
-418.70156910733232
 23
102.7136468499717
 33
0.0
  0
SOLID
  5
76F
  8
0
  6
CONTINUOUS
 10
420.12500000000051
 20
102.9122951282191
 30
0.0
 11
418.78385191832439
 21
102.9122951282191
 31
0.0
 12
418.70156910733232
 22
102.7136468499717
 32
0.0
 13
418.70156910733232
 23
102.7136468499717
 33
0.0
210
0.0
220
0.0
230
-1.0
  0
SOLID
  5
770
  8
0
  6
CONTINUOUS
 10
-422.71614808167732
 20
102.9122951282191
 30
0.0
 11
-422.7984308926695
 21
102.7136468499717
 31
0.0
 12
-421.6338834764847
 22
102.7136468499717
 32
0.0
 13
-421.6338834764847
 23
102.7136468499717
 33
0.0
210
0.0
220
0.0
230
1.0
  0
SOLID
  5
771
  8
0
  6
CONTINUOUS
 10
422.71614808167732
 20
102.9122951282191
 30
0.0
 11
421.37500000000131
 21
102.9122951282191
 31
0.0
 12
421.6338834764847
 22
102.7136468499717
 32
0.0
 13
421.6338834764847
 23
102.7136468499717
 33
0.0
210
0.0
220
0.0
230
-1.0
  0
SOLID
  5
772
  8
0
  6
CONTINUOUS
 10
-551.25889481785691
 20
105.24362182748941
 30
0.0
 11
-547.16176953181764
 21
102.66004567568299
 31
0.0
 12
-545.28697023565599
 22
102.66004567568299
 32
0.0
 13
-545.28697023565599
 23
102.66004567568299
 33
0.0
210
0.0
220
0.0
230
1.0
  0
SOLID
  5
773
  8
0
  6
CONTINUOUS
 10
551.25889481785691
 20
105.24362182748941
 30
0.0
 11
549.38409552169514
 21
105.24362182748941
 31
0.0
 12
545.28697023565599
 22
102.66004567568299
 32
0.0
 13
545.28697023565599
 23
102.66004567568299
 33
0.0
210
0.0
220
0.0
230
-1.0
  0
SOLID
  5
774
  8
0
  6
CONTINUOUS
 10
-419.86611652351701
 20
102.7136468499717
 30
0.0
 11
-419.6674682452695
 21
102.4547633734883
 31
0.0
 12
-418.59433606029847
 22
102.4547633734883
 32
0.0
 13
-418.59433606029847
 23
102.4547633734883
 33
0.0
210
0.0
220
0.0
230
1.0
  0
SOLID
  5
775
  8
0
  6
CONTINUOUS
 10
419.86611652351701
 20
102.7136468499717
 30
0.0
 11
418.70156910733232
 21
102.7136468499717
 31
0.0
 12
418.59433606029847
 22
102.4547633734883
 32
0.0
 13
418.59433606029847
 23
102.4547633734883
 33
0.0
210
0.0
220
0.0
230
-1.0
  0
SOLID
  5
776
  8
0
  6
CONTINUOUS
 10
-422.7984308926695
 20
102.7136468499717
 30
0.0
 11
-422.90566393970329
 21
102.4547633734883
 31
0.0
 12
-421.8325317547322
 22
102.4547633734883
 32
0.0
 13
-421.8325317547322
 23
102.4547633734883
 33
0.0
  0
SOLID
  5
777
  8
0
  6
CONTINUOUS
 10
422.7984308926695
 20
102.7136468499717
 30
0.0
 11
421.6338834764847
 21
102.7136468499717
 31
0.0
 12
421.8325317547322
 22
102.4547633734883
 32
0.0
 13
421.8325317547322
 23
102.4547633734883
 33
0.0
210
0.0
220
0.0
230
-1.0
  0
SOLID
  5
778
  8
0
  6
CONTINUOUS
 10
-419.6674682452695
 20
102.4547633734883
 30
0.0
 11
-419.64979907582062
 21
102.4121062249688
 31
0.0
 12
-418.57666689084959
 22
102.4121062249688
 32
0.0
 13
-418.57666689084959
 23
102.4121062249688
 33
0.0
210
0.0
220
0.0
230
1.0
  0
SOLID
  5
779
  8
0
  6
CONTINUOUS
 10
419.6674682452695
 20
102.4547633734883
 30
0.0
 11
418.59433606029847
 21
102.4547633734883
 31
0.0
 12
418.57666689084959
 22
102.4121062249688
 32
0.0
 13
418.57666689084959
 23
102.4121062249688
 33
0.0
210
0.0
220
0.0
230
-1.0
  0
SOLID
  5
77A
  8
0
  6
CONTINUOUS
 10
-422.90566393970329
 20
102.4547633734883
 30
0.0
 11
-422.92333310915211
 21
102.4121062249688
 31
0.0
 12
-421.85020092418108
 22
102.4121062249688
 32
0.0
 13
-421.85020092418108
 23
102.4121062249688
 33
0.0
210
0.0
220
0.0
230
1.0
  0
SOLID
  5
77B
  8
0
  6
CONTINUOUS
 10
422.90566393970329
 20
102.4547633734883
 30
0.0
 11
421.8325317547322
 21
102.4547633734883
 31
0.0
 12
421.85020092418108
 22
102.4121062249688
 32
0.0
 13
421.85020092418108
 23
102.4121062249688
 33
0.0
210
0.0
220
0.0
230
-1.0
  0
SOLID
  5
77C
  8
0
  6
CONTINUOUS
 10
-419.64979907582062
 20
102.4121062249688
 30
0.0
 11
-419.54259271713869
 21
102.1532871798662
 31
0.0
 12
-418.54259271713869
 22
102.1532871798662
 32
0.0
 13
-418.54259271713869
 23
102.1532871798662
 33
0.0
  0
SOLID
  5
77D
  8
0
  6
CONTINUOUS
 10
419.64979907582062
 20
102.4121062249688
 30
0.0
 11
418.57666689084959
 21
102.4121062249688
 31
0.0
 12
418.54259271713869
 22
102.1532871798662
 32
0.0
 13
418.54259271713869
 23
102.1532871798662
 33
0.0
210
0.0
220
0.0
230
-1.0
  0
SOLID
  5
77E
  8
0
  6
CONTINUOUS
 10
-422.92333310915211
 20
102.4121062249688
 30
0.0
 11
-422.95740728286307
 21
102.1532871798662
 31
0.0
 12
-421.95740728286307
 22
102.1532871798662
 32
0.0
 13
-421.95740728286307
 23
102.1532871798662
 33
0.0
210
0.0
220
0.0
230
1.0
  0
SOLID
  5
77F
  8
0
  6
CONTINUOUS
 10
422.92333310915211
 20
102.4121062249688
 30
0.0
 11
421.85020092418108
 21
102.4121062249688
 31
0.0
 12
421.95740728286307
 22
102.1532871798662
 32
0.0
 13
421.95740728286307
 23
102.1532871798662
 33
0.0
210
0.0
220
0.0
230
-1.0
  0
SOLID
  5
780
  8
0
  6
CONTINUOUS
 10
-419.54259271713869
 20
102.1532871798662
 30
0.0
 11
-419.5
 21
101.82976337348791
 31
0.0
 12
-418.5
 22
101.82976337348791
 32
0.0
 13
-418.5
 23
101.82976337348791
 33
0.0
210
0.0
220
0.0
230
1.0
  0
SOLID
  5
781
  8
0
  6
CONTINUOUS
 10
419.54259271713869
 20
102.1532871798662
 30
0.0
 11
418.54259271713869
 21
102.1532871798662
 31
0.0
 12
418.5
 22
101.82976337348791
 32
0.0
 13
418.5
 23
101.82976337348791
 33
0.0
210
0.0
220
0.0
230
-1.0
  0
SOLID
  5
782
  8
0
  6
CONTINUOUS
 10
-422.95740728286307
 20
102.1532871798662
 30
0.0
 11
-423.00000000000171
 21
101.82976337348791
 31
0.0
 12
-421.95999574841221
 22
101.82976337348791
 32
0.0
 13
-421.95999574841221
 23
101.82976337348791
 33
0.0
210
0.0
220
0.0
230
1.0
  0
SOLID
  5
783
  8
0
  6
CONTINUOUS
 10
422.95740728286307
 20
102.1532871798662
 30
0.0
 11
421.95740728286307
 21
102.1532871798662
 31
0.0
 12
421.95999574841221
 22
101.82976337348791
 32
0.0
 13
421.95999574841221
 23
101.82976337348791
 33
0.0
210
0.0
220
0.0
230
-1.0
  0
SOLID
  5
784
  8
0
  6
CONTINUOUS
 10
-547.16176953181764
 20
102.66004567568299
 30
0.0
 11
-545.82036066419266
 21
101.8141765068718
 31
0.0
 12
-544.11951618625062
 22
101.8141765068718
 32
0.0
 13
-544.11951618625062
 23
101.8141765068718
 33
0.0
210
0.0
220
0.0
230
1.0
  0
SOLID
  5
785
  8
0
  6
CONTINUOUS
 10
547.16176953181764
 20
102.66004567568299
 30
0.0
 11
545.28697023565599
 21
102.66004567568299
 31
0.0
 12
544.11951618625062
 22
101.8141765068718
 32
0.0
 13
544.11951618625062
 23
101.8141765068718
 33
0.0
210
0.0
220
0.0
230
-1.0
  0
SOLID
  5
786
  8
0
  6
CONTINUOUS
 10
-545.82036066419266
 20
101.8141765068718
 30
0.0
 11
-543.87109144315104
 21
100.40184962631361
 31
0.0
 12
-542.17024696520878
 22
100.40184962631361
 32
0.0
 13
-542.17024696520878
 23
100.40184962631361
 33
0.0
210
0.0
220
0.0
230
1.0
  0
SOLID
  5
787
  8
0
  6
CONTINUOUS
 10
545.82036066419266
 20
101.8141765068718
 30
0.0
 11
544.11951618625062
 21
101.8141765068718
 31
0.0
 12
542.17024696520878
 22
100.40184962631361
 32
0.0
 13
542.17024696520878
 23
100.40184962631361
 33
0.0
210
0.0
220
0.0
230
-1.0
  0
SOLID
  5
788
  8
0
  6
CONTINUOUS
 10
-543.87109144315104
 20
100.40184962631361
 30
0.0
 11
-542.8066695679754
 21
99.630631566572575
 31
0.0
 12
-541.34544810790044
 22
99.630631566572575
 32
0.0
 13
-541.34544810790044
 23
99.630631566572575
 33
0.0
210
0.0
220
0.0
230
1.0
  0
SOLID
  5
789
  8
0
  6
CONTINUOUS
 10
543.87109144315104
 20
100.40184962631361
 30
0.0
 11
542.17024696520878
 21
100.40184962631361
 31
0.0
 12
541.34544810790044
 22
99.630631566572575
 32
0.0
 13
541.34544810790044
 23
99.630631566572575
 33
0.0
210
0.0
220
0.0
230
-1.0
  0
SOLID
  5
78A
  8
0
  6
CONTINUOUS
 10
-542.8066695679754
 20
99.630631566572575
 30
0.0
 11
-540.86426267394188
 21
97.814407813629188
 31
0.0
 12
-539.40304121386703
 22
97.814407813629188
 32
0.0
 13
-539.40304121386703
 23
97.814407813629188
 33
0.0
210
0.0
220
0.0
230
1.0
  0
SOLID
  5
78B
  8
0
  6
CONTINUOUS
 10
542.8066695679754
 20
99.630631566572575
 30
0.0
 11
541.34544810790044
 21
99.630631566572575
 31
0.0
 12
539.40304121386703
 22
97.814407813629188
 32
0.0
 13
539.40304121386703
 23
97.814407813629188
 33
0.0
210
0.0
220
0.0
230
-1.0
  0
SOLID
  5
78C
  8
0
  6
CONTINUOUS
 10
-540.86426267394188
 20
97.814407813629188
 30
0.0
 11
-540.13094169271096
 21
97.128725020423119
 31
0.0
 12
-538.83524380978236
 22
97.128725020423119
 32
0.0
 13
-538.83524380978236
 23
97.128725020423119
 33
0.0
210
0.0
220
0.0
230
1.0
  0
SOLID
  5
78D
  8
0
  6
CONTINUOUS
 10
540.86426267394188
 20
97.814407813629188
 30
0.0
 11
539.40304121386703
 21
97.814407813629188
 31
0.0
 12
538.83524380978236
 22
97.128725020423119
 32
0.0
 13
538.83524380978236
 23
97.128725020423119
 33
0.0
210
0.0
220
0.0
230
-1.0
  0
SOLID
  5
78E
  8
0
  6
CONTINUOUS
 10
-423.00000000000171
 20
101.82976337348791
 30
0.0
 11
-423.00000000000171
 21
96.829763373487879
 31
0.0
 12
-422.00000000000182
 22
96.829763373487879
 32
0.0
 13
-422.00000000000182
 23
96.829763373487879
 33
0.0
210
0.0
220
0.0
230
1.0
  0
SOLID
  5
78F
  8
0
  6
CONTINUOUS
 10
423.00000000000171
 20
101.82976337348791
 30
0.0
 11
421.95999574841221
 21
101.82976337348791
 31
0.0
 12
422.00000000000182
 22
96.829763373487879
 32
0.0
 13
422.00000000000182
 23
96.829763373487879
 33
0.0
210
0.0
220
0.0
230
-1.0
  0
SOLID
  5
790
  8
0
  6
CONTINUOUS
 10
-540.13094169271096
 20
97.128725020423119
 30
0.0
 11
-538.26324934043885
 21
94.873264710560747
 31
0.0
 12
-536.96755145751047
 22
94.873264710560747
 32
0.0
 13
-536.96755145751047
 23
94.873264710560747
 33
0.0
210
0.0
220
0.0
230
1.0
  0
SOLID
  5
791
  8
0
  6
CONTINUOUS
 10
540.13094169271096
 20
97.128725020423119
 30
0.0
 11
538.83524380978236
 21
97.128725020423119
 31
0.0
 12
536.96755145751047
 22
94.873264710560747
 32
0.0
 13
536.96755145751047
 23
94.873264710560747
 33
0.0
210
0.0
220
0.0
230
-1.0
  0
SOLID
  5
792
  8
0
  6
CONTINUOUS
 10
-538.26324934043885
 20
94.873264710560747
 30
0.0
 11
-537.77596399441575
 21
94.284809788530552
 31
0.0
 12
-536.59301842901436
 22
94.284809788530552
 32
0.0
 13
-536.59301842901436
 23
94.284809788530552
 33
0.0
210
0.0
220
0.0
230
1.0
  0
SOLID
  5
793
  8
0
  6
CONTINUOUS
 10
538.26324934043885
 20
94.873264710560747
 30
0.0
 11
536.96755145751047
 21
94.873264710560747
 31
0.0
 12
536.59301842901436
 22
94.284809788530552
 32
0.0
 13
536.59301842901436
 23
94.284809788530552
 33
0.0
210
0.0
220
0.0
230
-1.0
  0
SOLID
  5
794
  8
0
  6
CONTINUOUS
 10
-537.77596399441575
 20
94.284809788530552
 30
0.0
 11
-536.10012783389959
 21
91.651786898314555
 31
0.0
 12
-534.91718226849844
 22
91.651786898314555
 32
0.0
 13
-534.91718226849844
 23
91.651786898314555
 33
0.0
210
0.0
220
0.0
230
1.0
  0
SOLID
  5
795
  8
0
  6
CONTINUOUS
 10
537.77596399441575
 20
94.284809788530552
 30
0.0
 11
536.59301842901436
 21
94.284809788530552
 31
0.0
 12
534.91718226849844
 22
91.651786898314555
 32
0.0
 13
534.91718226849844
 23
91.651786898314555
 33
0.0
210
0.0
220
0.0
230
-1.0
  0
SOLID
  5
796
  8
0
  6
CONTINUOUS
 10
-536.10012783389959
 20
91.651786898314555
 30
0.0
 11
-535.79337560504041
 21
91.169827110573507
 31
0.0
 12
-534.69059447057998
 22
91.169827110573507
 32
0.0
 13
-534.69059447057998
 23
91.169827110573507
 33
0.0
210
0.0
220
0.0
230
1.0
  0
SOLID
  5
797
  8
0
  6
CONTINUOUS
 10
536.10012783389959
 20
91.651786898314555
 30
0.0
 11
534.91718226849844
 21
91.651786898314555
 31
0.0
 12
534.69059447057998
 22
91.169827110573507
 32
0.0
 13
534.69059447057998
 23
91.169827110573507
 33
0.0
210
0.0
220
0.0
230
-1.0
  0
SOLID
  5
798
  8
0
  6
CONTINUOUS
 10
-535.79337560504041
 20
91.169827110573507
 30
0.0
 11
-534.55666276910108
 21
88.539297746761619
 31
0.0
 12
-533.45388163464077
 22
88.539297746761619
 32
0.0
 13
-533.45388163464077
 23
88.539297746761619
 33
0.0
210
0.0
220
0.0
230
1.0
  0
SOLID
  5
799
  8
0
  6
CONTINUOUS
 10
535.79337560504041
 20
91.169827110573507
 30
0.0
 11
534.69059447057998
 21
91.169827110573507
 31
0.0
 12
533.45388163464077
 22
88.539297746761619
 32
0.0
 13
533.45388163464077
 23
88.539297746761619
 33
0.0
210
0.0
220
0.0
230
-1.0
  0
SOLID
  5
79A
  8
0
  6
CONTINUOUS
 10
-534.55666276910108
 20
88.539297746761619
 30
0.0
 11
-534.2348156565356
 21
87.854718226230517
 31
0.0
 12
-533.22321098985367
 22
87.854718226230517
 32
0.0
 13
-533.22321098985367
 23
87.854718226230517
 33
0.0
210
0.0
220
0.0
230
1.0
  0
SOLID
  5
79B
  8
0
  6
CONTINUOUS
 10
534.55666276910108
 20
88.539297746761619
 30
0.0
 11
533.45388163464077
 21
88.539297746761619
 31
0.0
 12
533.22321098985367
 22
87.854718226230517
 32
0.0
 13
533.22321098985367
 23
87.854718226230517
 33
0.0
210
0.0
220
0.0
230
-1.0
  0
SOLID
  5
79C
  8
0
  6
CONTINUOUS
 10
-534.2348156565356
 20
87.854718226230517
 30
0.0
 11
-533.18041169379512
 21
84.563471362838243
 31
0.0
 12
-532.11421778546583
 22
84.563471362838243
 32
0.0
 13
-532.11421778546583
 23
84.563471362838243
 33
0.0
210
0.0
220
0.0
230
1.0
  0
SOLID
  5
79D
  8
0
  6
CONTINUOUS
 10
534.2348156565356
 20
87.854718226230517
 30
0.0
 11
533.22321098985367
 21
87.854718226230517
 31
0.0
 12
532.11421778546583
 22
84.563471362838243
 32
0.0
 13
532.11421778546583
 23
84.563471362838243
 33
0.0
210
0.0
220
0.0
230
-1.0
  0
SOLID
  5
79E
  8
0
  6
CONTINUOUS
 10
-533.18041169379512
 20
84.563471362838243
 30
0.0
 11
-533.01201290891106
 21
84.037826551045185
 31
0.0
 12
-531.9798649253903
 22
84.037826551045185
 32
0.0
 13
-531.9798649253903
 23
84.037826551045185
 33
0.0
210
0.0
220
0.0
230
1.0
  0
SOLID
  5
79F
  8
0
  6
CONTINUOUS
 10
533.18041169379512
 20
84.563471362838243
 30
0.0
 11
532.11421778546583
 21
84.563471362838243
 31
0.0
 12
531.9798649253903
 22
84.037826551045185
 32
0.0
 13
531.9798649253903
 23
84.037826551045185
 33
0.0
210
0.0
220
0.0
230
-1.0
  0
SOLID
  5
7A0
  8
0
  6
CONTINUOUS
 10
-533.01201290891106
 20
84.037826551045185
 30
0.0
 11
-527.79373791779597
 21
63.621743305421909
 31
0.0
 12
-526.76158993427498
 22
63.621743305421909
 32
0.0
 13
-526.76158993427498
 23
63.621743305421909
 33
0.0
210
0.0
220
0.0
230
1.0
  0
SOLID
  5
7A1
  8
0
  6
CONTINUOUS
 10
533.01201290891106
 20
84.037826551045185
 30
0.0
 11
531.9798649253903
 21
84.037826551045185
 31
0.0
 12
526.76158993427498
 22
63.621743305421909
 32
0.0
 13
526.76158993427498
 23
63.621743305421909
 33
0.0
210
0.0
220
0.0
230
-1.0
  0
SOLID
  5
7A2
  8
0
  6
CONTINUOUS
 10
-527.79373791779597
 20
63.621743305421909
 30
0.0
 11
-527.6355012576239
 21
63.002655037347871
 31
0.0
 12
-526.53835855906982
 22
63.002655037347871
 32
0.0
 13
-526.53835855906982
 23
63.002655037347871
 33
0.0
210
0.0
220
0.0
230
1.0
  0
SOLID
  5
7A3
  8
0
  6
CONTINUOUS
 10
527.79373791779597
 20
63.621743305421909
 30
0.0
 11
526.76158993427498
 21
63.621743305421909
 31
0.0
 12
526.53835855906982
 22
63.002655037347871
 32
0.0
 13
526.53835855906982
 23
63.002655037347871
 33
0.0
210
0.0
220
0.0
230
-1.0
  0
SOLID
  5
7A4
  8
0
  6
CONTINUOUS
 10
-527.6355012576239
 20
63.002655037347871
 30
0.0
 11
-525.63912495653415
 21
57.569533979795793
 31
0.0
 12
-524.57927913876836
 22
57.569533979795793
 32
0.0
 13
-524.57927913876836
 23
57.569533979795793
 33
0.0
210
0.0
220
0.0
230
1.0
  0
SOLID
  5
7A5
  8
0
  6
CONTINUOUS
 10
527.6355012576239
 20
63.002655037347871
 30
0.0
 11
526.53835855906982
 21
63.002655037347871
 31
0.0
 12
524.57927913876836
 22
57.569533979795793
 32
0.0
 13
524.57927913876836
 23
57.569533979795793
 33
0.0
210
0.0
220
0.0
230
-1.0
  0
SOLID
  5
7A6
  8
0
  6
CONTINUOUS
 10
-525.63912495653415
 20
57.569533979795793
 30
0.0
 11
-525.47796880109775
 21
57.130948878792111
 31
0.0
 12
-524.30679722226773
 22
57.130948878792111
 32
0.0
 13
-524.30679722226773
 23
57.130948878792111
 33
0.0
210
0.0
220
0.0
230
1.0
  0
SOLID
  5
7A7
  8
0
  6
CONTINUOUS
 10
525.63912495653415
 20
57.569533979795793
 30
0.0
 11
524.57927913876836
 21
57.569533979795793
 31
0.0
 12
524.30679722226773
 22
57.130948878792111
 32
0.0
 13
524.30679722226773
 23
57.130948878792111
 33
0.0
210
0.0
220
0.0
230
-1.0
  0
SOLID
  5
7A8
  8
0
  6
CONTINUOUS
 10
-525.47796880109775
 20
57.130948878792111
 30
0.0
 11
-522.55661818503177
 21
52.428762137489713
 31
0.0
 12
-521.38544660620175
 22
52.428762137489713
 32
0.0
 13
-521.38544660620175
 23
52.428762137489713
 33
0.0
210
0.0
220
0.0
230
1.0
  0
SOLID
  5
7A9
  8
0
  6
CONTINUOUS
 10
525.47796880109775
 20
57.130948878792111
 30
0.0
 11
524.30679722226773
 21
57.130948878792111
 31
0.0
 12
521.38544660620175
 22
52.428762137489713
 32
0.0
 13
521.38544660620175
 23
52.428762137489713
 33
0.0
210
0.0
220
0.0
230
-1.0
  0
SOLID
  5
7AA
  8
0
  6
CONTINUOUS
 10
-522.55661818503177
 20
52.428762137489713
 30
0.0
 11
-522.17678055315071
 21
51.817377982963173
 31
0.0
 12
-520.8047034906017
 22
51.817377982963173
 32
0.0
 13
-520.8047034906017
 23
51.817377982963173
 33
0.0
210
0.0
220
0.0
230
1.0
  0
SOLID
  5
7AB
  8
0
  6
CONTINUOUS
 10
522.55661818503177
 20
52.428762137489713
 30
0.0
 11
521.38544660620175
 21
52.428762137489713
 31
0.0
 12
520.8047034906017
 22
51.817377982963173
 32
0.0
 13
520.8047034906017
 23
51.817377982963173
 33
0.0
210
0.0
220
0.0
230
-1.0
  0
SOLID
  5
7AC
  8
0
  6
CONTINUOUS
 10
-522.17678055315071
 20
51.817377982963173
 30
0.0
 11
-518.58940340392019
 21
48.040724439539233
 31
0.0
 12
-517.21732634137095
 22
48.040724439539233
 32
0.0
 13
-517.21732634137095
 23
48.040724439539233
 33
0.0
  0
SOLID
  5
7AD
  8
0
  6
CONTINUOUS
 10
522.17678055315071
 20
51.817377982963173
 30
0.0
 11
520.8047034906017
 21
51.817377982963173
 31
0.0
 12
517.21732634137095
 22
48.040724439539233
 32
0.0
 13
517.21732634137095
 23
48.040724439539233
 33
0.0
210
0.0
220
0.0
230
-1.0
  0
SOLID
  5
7AE
  8
0
  6
CONTINUOUS
 10
-518.58940340392019
 20
48.040724439539233
 30
0.0
 11
-517.86855540546867
 21
47.281843219535219
 31
0.0
 12
-516.33299740425116
 22
47.281843219535219
 32
0.0
 13
-516.33299740425116
 23
47.281843219535219
 33
0.0
  0
SOLID
  5
7AF
  8
0
  6
CONTINUOUS
 10
518.58940340392019
 20
48.040724439539233
 30
0.0
 11
517.21732634137095
 21
48.040724439539233
 31
0.0
 12
516.33299740425116
 22
47.281843219535219
 32
0.0
 13
516.33299740425116
 23
47.281843219535219
 33
0.0
210
0.0
220
0.0
230
-1.0
  0
SOLID
  5
7B0
  8
0
  6
CONTINUOUS
 10
-517.86855540546867
 20
47.281843219535219
 30
0.0
 11
-514.85982853723203
 21
44.699923505517241
 31
0.0
 12
-513.32427053601486
 22
44.699923505517241
 32
0.0
 13
-513.32427053601486
 23
44.699923505517241
 33
0.0
210
0.0
220
0.0
230
1.0
  0
SOLID
  5
7B1
  8
0
  6
CONTINUOUS
 10
517.86855540546867
 20
47.281843219535219
 30
0.0
 11
516.33299740425116
 21
47.281843219535219
 31
0.0
 12
513.32427053601486
 22
44.699923505517241
 32
0.0
 13
513.32427053601486
 23
44.699923505517241
 33
0.0
210
0.0
220
0.0
230
-1.0
  0
SOLID
  5
7B2
  8
0
  6
CONTINUOUS
 10
-514.85982853723203
 20
44.699923505517241
 30
0.0
 11
-513.97549960011224
 21
43.941042285513227
 31
0.0
 12
-512.53631069543815
 22
43.941042285513227
 32
0.0
 13
-512.53631069543815
 23
43.941042285513227
 33
0.0
210
0.0
220
0.0
230
1.0
  0
SOLID
  5
7B3
  8
0
  6
CONTINUOUS
 10
514.85982853723203
 20
44.699923505517241
 30
0.0
 11
513.32427053601486
 21
44.699923505517241
 31
0.0
 12
512.53631069543815
 22
43.941042285513227
 32
0.0
 13
512.53631069543815
 23
43.941042285513227
 33
0.0
210
0.0
220
0.0
230
-1.0
  0
SOLID
  5
7B4
  8
0
  6
CONTINUOUS
 10
-513.97549960011224
 20
43.941042285513227
 30
0.0
 11
-513.3435630543313
 21
43.32911695873527
 31
0.0
 12
-511.90093776720801
 22
43.32911695873527
 32
0.0
 13
-511.90093776720801
 23
43.32911695873527
 33
0.0
210
0.0
220
0.0
230
1.0
  0
SOLID
  5
7B5
  8
0
  6
CONTINUOUS
 10
513.97549960011224
 20
43.941042285513227
 30
0.0
 11
512.53631069543815
 21
43.941042285513227
 31
0.0
 12
511.90093776720801
 22
43.32911695873527
 32
0.0
 13
511.90093776720801
 23
43.32911695873527
 33
0.0
210
0.0
220
0.0
230
-1.0
  0
SOLID
  5
7B6
  8
0
  6
CONTINUOUS
 10
-513.3435630543313
 20
43.32911695873527
 30
0.0
 11
-512.35064184144483
 21
42.367638086027171
 31
0.0
 12
-511.08399644701962
 22
42.367638086027171
 32
0.0
 13
-511.08399644701962
 23
42.367638086027171
 33
0.0
210
0.0
220
0.0
230
1.0
  0
SOLID
  5
7B7
  8
0
  6
CONTINUOUS
 10
513.3435630543313
 20
43.32911695873527
 30
0.0
 11
511.90093776720801
 21
43.32911695873527
 31
0.0
 12
511.08399644701962
 22
42.367638086027171
 32
0.0
 13
511.08399644701962
 23
42.367638086027171
 33
0.0
210
0.0
220
0.0
230
-1.0
  0
SOLID
  5
7B8
  8
0
  6
CONTINUOUS
 10
-512.35064184144483
 20
42.367638086027171
 30
0.0
 11
-511.46679938559907
 21
41.295434089374972
 31
0.0
 12
-510.17297513037931
 22
41.295434089374972
 32
0.0
 13
-510.17297513037931
 23
41.295434089374972
 33
0.0
210
0.0
220
0.0
230
1.0
  0
SOLID
  5
7B9
  8
0
  6
CONTINUOUS
 10
512.35064184144483
 20
42.367638086027171
 30
0.0
 11
511.08399644701962
 21
42.367638086027171
 31
0.0
 12
510.17297513037931
 22
41.295434089374972
 32
0.0
 13
510.17297513037931
 23
41.295434089374972
 33
0.0
210
0.0
220
0.0
230
-1.0
  0
SOLID
  5
7BA
  8
0
  6
CONTINUOUS
 10
-511.46679938559907
 20
41.295434089374972
 30
0.0
 11
-510.979823720681
 21
40.704675803501537
 31
0.0
 12
-509.74043381280978
 22
40.704675803501537
 32
0.0
 13
-509.74043381280978
 23
40.704675803501537
 33
0.0
210
0.0
220
0.0
230
1.0
  0
SOLID
  5
7BB
  8
0
  6
CONTINUOUS
 10
511.46679938559907
 20
41.295434089374972
 30
0.0
 11
510.17297513037931
 21
41.295434089374972
 31
0.0
 12
509.74043381280978
 22
40.704675803501537
 32
0.0
 13
509.74043381280978
 23
40.704675803501537
 33
0.0
210
0.0
220
0.0
230
-1.0
  0
SOLID
  5
7BC
  8
0
  6
CONTINUOUS
 10
-510.979823720681
 20
40.704675803501537
 30
0.0
 11
-510.7009916140787
 21
40.301145136760589
 31
0.0
 12
-509.4449767867373
 22
40.301145136760589
 32
0.0
 13
-509.4449767867373
 23
40.301145136760589
 33
0.0
  0
SOLID
  5
7BD
  8
0
  6
CONTINUOUS
 10
510.979823720681
 20
40.704675803501537
 30
0.0
 11
509.74043381280978
 21
40.704675803501537
 31
0.0
 12
509.4449767867373
 22
40.301145136760589
 32
0.0
 13
509.4449767867373
 23
40.301145136760589
 33
0.0
210
0.0
220
0.0
230
-1.0
  0
SOLID
  5
7BE
  8
0
  6
CONTINUOUS
 10
-510.7009916140787
 20
40.301145136760589
 30
0.0
 11
-510.3451723227181
 21
39.786197279314379
 31
0.0
 12
-509.16289155138168
 22
39.786197279314379
 32
0.0
 13
-509.16289155138168
 23
39.786197279314379
 33
0.0
210
0.0
220
0.0
230
1.0
  0
SOLID
  5
7BF
  8
0
  6
CONTINUOUS
 10
510.7009916140787
 20
40.301145136760589
 30
0.0
 11
509.4449767867373
 21
40.301145136760589
 31
0.0
 12
509.16289155138168
 22
39.786197279314379
 32
0.0
 13
509.16289155138168
 23
39.786197279314379
 33
0.0
210
0.0
220
0.0
230
-1.0
  0
SOLID
  5
7C0
  8
0
  6
CONTINUOUS
 10
-510.3451723227181
 20
39.786197279314379
 30
0.0
 11
-510.095111357397
 21
39.424304707861531
 31
0.0
 12
-509.07454257538382
 22
39.424304707861531
 32
0.0
 13
-509.07454257538382
 23
39.424304707861531
 33
0.0
  0
SOLID
  5
7C1
  8
0
  6
CONTINUOUS
 10
510.3451723227181
 20
39.786197279314379
 30
0.0
 11
509.16289155138168
 21
39.786197279314379
 31
0.0
 12
509.07454257538382
 22
39.424304707861531
 32
0.0
 13
509.07454257538382
 23
39.424304707861531
 33
0.0
210
0.0
220
0.0
230
-1.0
  0
SOLID
  5
7C2
  8
0
  6
CONTINUOUS
 10
-510.095111357397
 20
39.424304707861531
 30
0.0
 11
-510.04420914381768
 21
39.21580050329321
 31
0.0
 12
-509.02364036180438
 22
39.21580050329321
 32
0.0
 13
-509.02364036180438
 23
39.21580050329321
 33
0.0
210
0.0
220
0.0
230
1.0
  0
SOLID
  5
7C3
  8
0
  6
CONTINUOUS
 10
510.095111357397
 20
39.424304707861531
 30
0.0
 11
509.07454257538382
 21
39.424304707861531
 31
0.0
 12
509.02364036180438
 22
39.21580050329321
 32
0.0
 13
509.02364036180438
 23
39.21580050329321
 33
0.0
210
0.0
220
0.0
230
-1.0
  0
SOLID
  5
7C4
  8
0
  6
CONTINUOUS
 10
-510.04420914381768
 20
39.21580050329321
 30
0.0
 11
-510.0177495854096
 21
39.107417610072048
 31
0.0
 12
-509.02605274686459
 22
39.107417610072048
 32
0.0
 13
-509.02605274686459
 23
39.107417610072048
 33
0.0
210
0.0
220
0.0
230
1.0
  0
SOLID
  5
7C5
  8
0
  6
CONTINUOUS
 10
510.04420914381768
 20
39.21580050329321
 30
0.0
 11
509.02364036180438
 21
39.21580050329321
 31
0.0
 12
509.02605274686459
 22
39.107417610072048
 32
0.0
 13
509.02605274686459
 23
39.107417610072048
 33
0.0
210
0.0
220
0.0
230
-1.0
  0
SOLID
  5
7C6
  8
0
  6
CONTINUOUS
 10
-510.0177495854096
 20
39.107417610072048
 30
0.0
 11
-510.02500820101562
 21
38.781304763023769
 31
0.0
 12
-509.03331136247073
 22
38.781304763023769
 32
0.0
 13
-509.03331136247073
 23
38.781304763023769
 33
0.0
210
0.0
220
0.0
230
1.0
  0
SOLID
  5
7C7
  8
0
  6
CONTINUOUS
 10
510.0177495854096
 20
39.107417610072048
 30
0.0
 11
509.02605274686459
 21
39.107417610072048
 31
0.0
 12
509.03331136247073
 22
38.781304763023769
 32
0.0
 13
509.03331136247073
 23
38.781304763023769
 33
0.0
210
0.0
220
0.0
230
-1.0
  0
SOLID
  5
7C8
  8
0
  6
CONTINUOUS
 10
-510.02500820101562
 20
38.781304763023769
 30
0.0
 11
-510.0485419938334
 21
38.628797378606109
 31
0.0
 12
-509.03670586989517
 22
38.628797378606109
 32
0.0
 13
-509.03670586989517
 23
38.628797378606109
 33
0.0
210
0.0
220
0.0
230
1.0
  0
SOLID
  5
7C9
  8
0
  6
CONTINUOUS
 10
510.02500820101562
 20
38.781304763023769
 30
0.0
 11
509.03331136247073
 21
38.781304763023769
 31
0.0
 12
509.03670586989517
 22
38.628797378606109
 32
0.0
 13
509.03670586989517
 23
38.628797378606109
 33
0.0
210
0.0
220
0.0
230
-1.0
  0
SOLID
  5
7CA
  8
0
  6
CONTINUOUS
 10
-510.0485419938334
 20
38.628797378606109
 30
0.0
 11
-510.49990586115359
 21
35.703798278008598
 31
0.0
 12
-509.48806973721543
 22
35.703798278008598
 32
0.0
 13
-509.48806973721543
 23
35.703798278008598
 33
0.0
210
0.0
220
0.0
230
1.0
  0
SOLID
  5
7CB
  8
0
  6
CONTINUOUS
 10
510.0485419938334
 20
38.628797378606109
 30
0.0
 11
509.03670586989517
 21
38.628797378606109
 31
0.0
 12
509.48806973721543
 22
35.703798278008598
 32
0.0
 13
509.48806973721543
 23
35.703798278008598
 33
0.0
210
0.0
220
0.0
230
-1.0
  0
SOLID
  5
7CC
  8
0
  6
CONTINUOUS
 10
-510.49990586115359
 20
35.703798278008598
 30
0.0
 11
-510.50695908776788
 21
35.551290893591073
 31
0.0
 12
-509.5116035300332
 22
35.551290893591073
 32
0.0
 13
-509.5116035300332
 23
35.551290893591073
 33
0.0
210
0.0
220
0.0
230
1.0
  0
SOLID
  5
7CD
  8
0
  6
CONTINUOUS
 10
510.49990586115359
 20
35.703798278008598
 30
0.0
 11
509.48806973721543
 21
35.703798278008598
 31
0.0
 12
509.5116035300332
 22
35.551290893591073
 32
0.0
 13
509.5116035300332
 23
35.551290893591073
 33
0.0
210
0.0
220
0.0
230
-1.0
  0
SOLID
  5
7CE
  8
0
  6
CONTINUOUS
 10
-510.50695908776788
 20
35.551290893591073
 30
0.0
 11
-510.54493161698559
 21
34.73023530763362
 31
0.0
 12
-509.5495760592508
 22
34.73023530763362
 32
0.0
 13
-509.5495760592508
 23
34.73023530763362
 33
0.0
210
0.0
220
0.0
230
1.0
  0
SOLID
  5
7CF
  8
0
  6
CONTINUOUS
 10
510.50695908776788
 20
35.551290893591073
 30
0.0
 11
509.5116035300332
 21
35.551290893591073
 31
0.0
 12
509.5495760592508
 22
34.73023530763362
 32
0.0
 13
509.5495760592508
 23
34.73023530763362
 33
0.0
210
0.0
220
0.0
230
-1.0
  0
SOLID
  5
7D0
  8
0
  6
CONTINUOUS
 10
-510.54493161698559
 20
34.73023530763362
 30
0.0
 11
-510.55658691972599
 21
34.478220189911809
 31
0.0
 12
-509.51567275054441
 22
34.478220189911809
 32
0.0
 13
-509.51567275054441
 23
34.478220189911809
 33
0.0
  0
SOLID
  5
7D1
  8
0
  6
CONTINUOUS
 10
510.54493161698559
 20
34.73023530763362
 30
0.0
 11
509.5495760592508
 21
34.73023530763362
 31
0.0
 12
509.51567275054441
 22
34.478220189911809
 32
0.0
 13
509.51567275054441
 23
34.478220189911809
 33
0.0
210
0.0
220
0.0
230
-1.0
  0
SOLID
  5
7D2
  8
0
  6
CONTINUOUS
 10
-510.55658691972599
 20
34.478220189911809
 30
0.0
 11
-510.39780914552671
 21
33.539535772956221
 31
0.0
 12
-509.38939259777578
 22
33.539535772956221
 32
0.0
 13
-509.38939259777578
 23
33.539535772956221
 33
0.0
210
0.0
220
0.0
230
1.0
  0
SOLID
  5
7D3
  8
0
  6
CONTINUOUS
 10
510.55658691972599
 20
34.478220189911809
 30
0.0
 11
509.51567275054441
 21
34.478220189911809
 31
0.0
 12
509.38939259777578
 22
33.539535772956221
 32
0.0
 13
509.38939259777578
 23
33.539535772956221
 33
0.0
210
0.0
220
0.0
230
-1.0
  0
SOLID
  5
7D4
  8
0
  6
CONTINUOUS
 10
-510.39780914552671
 20
33.539535772956221
 30
0.0
 11
-510.35196631157879
 21
33.268515763555769
 31
0.0
 12
-509.28072183540951
 22
33.268515763555769
 32
0.0
 13
-509.28072183540951
 23
33.268515763555769
 33
0.0
210
0.0
220
0.0
230
1.0
  0
SOLID
  5
7D5
  8
0
  6
CONTINUOUS
 10
510.39780914552671
 20
33.539535772956221
 30
0.0
 11
509.38939259777578
 21
33.539535772956221
 31
0.0
 12
509.28072183540951
 22
33.268515763555769
 32
0.0
 13
509.28072183540951
 23
33.268515763555769
 33
0.0
210
0.0
220
0.0
230
-1.0
  0
SOLID
  5
7D6
  8
0
  6
CONTINUOUS
 10
-510.35196631157879
 20
33.268515763555769
 30
0.0
 11
-510.08344048155152
 21
32.598824382050481
 31
0.0
 12
-509.01219600538229
 22
32.598824382050481
 32
0.0
 13
-509.01219600538229
 23
32.598824382050481
 33
0.0
210
0.0
220
0.0
230
1.0
  0
SOLID
  5
7D7
  8
0
  6
CONTINUOUS
 10
510.35196631157879
 20
33.268515763555769
 30
0.0
 11
509.28072183540951
 21
33.268515763555769
 31
0.0
 12
509.01219600538229
 22
32.598824382050481
 32
0.0
 13
509.01219600538229
 23
32.598824382050481
 33
0.0
210
0.0
220
0.0
230
-1.0
  0
SOLID
  5
7D8
  8
0
  6
CONTINUOUS
 10
-510.08344048155152
 20
32.598824382050481
 30
0.0
 11
-509.89535991026042
 21
32.129759869301573
 31
0.0
 12
-508.76306725826618
 22
32.129759869301573
 32
0.0
 13
-508.76306725826618
 23
32.129759869301573
 33
0.0
210
0.0
220
0.0
230
1.0
  0
SOLID
  5
7D9
  8
0
  6
CONTINUOUS
 10
510.08344048155152
 20
32.598824382050481
 30
0.0
 11
509.01219600538229
 21
32.598824382050481
 31
0.0
 12
508.76306725826618
 22
32.129759869301573
 32
0.0
 13
508.76306725826618
 23
32.129759869301573
 33
0.0
210
0.0
220
0.0
230
-1.0
  0
SOLID
  5
7DA
  8
0
  6
CONTINUOUS
 10
-419.5
 20
101.82976337348791
 30
0.0
 11
-419.5
 21
30.329763373487559
 31
0.0
 12
-418.5
 22
30.329763373487559
 32
0.0
 13
-418.5
 23
30.329763373487559
 33
0.0
210
0.0
220
0.0
230
1.0
  0
SOLID
  5
7DB
  8
0
  6
CONTINUOUS
 10
419.5
 20
101.82976337348791
 30
0.0
 11
418.5
 21
101.82976337348791
 31
0.0
 12
418.5
 22
30.329763373487559
 32
0.0
 13
418.5
 23
30.329763373487559
 33
0.0
210
0.0
220
0.0
230
-1.0
  0
SOLID
  5
7DC
  8
0
  6
CONTINUOUS
 10
-419.5
 20
30.329763373487559
 30
0.0
 11
-419.55962980399408
 21
29.8768300445583
 31
0.0
 12
-418.55962980399408
 22
29.8768300445583
 32
0.0
 13
-418.55962980399408
 23
29.8768300445583
 33
0.0
  0
SOLID
  5
7DD
  8
0
  6
CONTINUOUS
 10
419.5
 20
30.329763373487559
 30
0.0
 11
418.5
 21
30.329763373487559
 31
0.0
 12
418.55962980399408
 22
29.8768300445583
 32
0.0
 13
418.55962980399408
 23
29.8768300445583
 33
0.0
210
0.0
220
0.0
230
-1.0
  0
SOLID
  5
7DE
  8
0
  6
CONTINUOUS
 10
-509.89535991026042
 20
32.129759869301573
 30
0.0
 11
-508.66395194822587
 21
29.811240700424719
 31
0.0
 12
-507.53165929623168
 22
29.811240700424719
 32
0.0
 13
-507.53165929623168
 23
29.811240700424719
 33
0.0
210
0.0
220
0.0
230
1.0
  0
SOLID
  5
7DF
  8
0
  6
CONTINUOUS
 10
509.89535991026042
 20
32.129759869301573
 30
0.0
 11
508.76306725826618
 21
32.129759869301573
 31
0.0
 12
507.53165929623168
 22
29.811240700424719
 32
0.0
 13
507.53165929623168
 23
29.811240700424719
 33
0.0
210
0.0
220
0.0
230
-1.0
  0
SOLID
  5
7E0
  8
0
  6
CONTINUOUS
 10
-419.55962980399408
 20
29.8768300445583
 30
0.0
 11
-419.66683616267602
 21
29.618010999455819
 31
0.0
 12
-418.59370397770499
 22
29.618010999455819
 32
0.0
 13
-418.59370397770499
 23
29.618010999455819
 33
0.0
  0
SOLID
  5
7E1
  8
0
  6
CONTINUOUS
 10
419.55962980399408
 20
29.8768300445583
 30
0.0
 11
418.55962980399408
 21
29.8768300445583
 31
0.0
 12
418.59370397770499
 22
29.618010999455819
 32
0.0
 13
418.59370397770499
 23
29.618010999455819
 33
0.0
210
0.0
220
0.0
230
-1.0
  0
SOLID
  5
7E2
  8
0
  6
CONTINUOUS
 10
-419.66683616267602
 20
29.618010999455819
 30
0.0
 11
-419.73445554337718
 21
29.454763373487829
 31
0.0
 12
-418.66132335840609
 22
29.454763373487829
 32
0.0
 13
-418.66132335840609
 23
29.454763373487829
 33
0.0
210
0.0
220
0.0
230
1.0
  0
SOLID
  5
7E3
  8
0
  6
CONTINUOUS
 10
419.66683616267602
 20
29.618010999455819
 30
0.0
 11
418.59370397770499
 21
29.618010999455819
 31
0.0
 12
418.66132335840609
 22
29.454763373487829
 32
0.0
 13
418.66132335840609
 23
29.454763373487829
 33
0.0
210
0.0
220
0.0
230
-1.0
  0
SOLID
  5
7E4
  8
0
  6
CONTINUOUS
 10
-508.66395194822587
 20
29.811240700424719
 30
0.0
 11
-508.33721029220811
 21
29.196045073870259
 31
0.0
 12
-507.15865424085342
 22
29.196045073870259
 32
0.0
 13
-507.15865424085342
 23
29.196045073870259
 33
0.0
210
0.0
220
0.0
230
1.0
  0
SOLID
  5
7E5
  8
0
  6
CONTINUOUS
 10
508.66395194822587
 20
29.811240700424719
 30
0.0
 11
507.53165929623168
 21
29.811240700424719
 31
0.0
 12
507.15865424085342
 22
29.196045073870259
 32
0.0
 13
507.15865424085342
 23
29.196045073870259
 33
0.0
210
0.0
220
0.0
230
-1.0
  0
SOLID
  5
7E6
  8
0
  6
CONTINUOUS
 10
-419.73445554337718
 20
29.454763373487829
 30
0.0
 11
-420.01256313292339
 21
29.092326506411428
 31
0.0
 12
-418.81144962425321
 22
29.092326506411428
 32
0.0
 13
-418.81144962425321
 23
29.092326506411428
 33
0.0
210
0.0
220
0.0
230
1.0
  0
SOLID
  5
7E7
  8
0
  6
CONTINUOUS
 10
419.73445554337718
 20
29.454763373487829
 30
0.0
 11
418.66132335840609
 21
29.454763373487829
 31
0.0
 12
418.81144962425321
 22
29.092326506411428
 32
0.0
 13
418.81144962425321
 23
29.092326506411428
 33
0.0
210
0.0
220
0.0
230
-1.0
  0
SOLID
  5
7E8
  8
0
  6
CONTINUOUS
 10
-508.33721029220811
 20
29.196045073870259
 30
0.0
 11
-508.25424477485399
 21
29.03983596342777
 31
0.0
 12
-506.99357446936358
 22
29.03983596342777
 32
0.0
 13
-506.99357446936358
 23
29.03983596342777
 33
0.0
210
0.0
220
0.0
230
1.0
  0
SOLID
  5
7E9
  8
0
  6
CONTINUOUS
 10
508.33721029220811
 20
29.196045073870259
 30
0.0
 11
507.15865424085342
 21
29.196045073870259
 31
0.0
 12
506.99357446936358
 22
29.03983596342777
 32
0.0
 13
506.99357446936358
 23
29.03983596342777
 33
0.0
210
0.0
220
0.0
230
-1.0
  0
SOLID
  5
7EA
  8
0
  6
CONTINUOUS
 10
-420.01256313292339
 20
29.092326506411428
 30
0.0
 11
-420.19183889811688
 21
28.954763373487872
 31
0.0
 12
-418.86843013959282
 22
28.954763373487872
 32
0.0
 13
-418.86843013959282
 23
28.954763373487872
 33
0.0
210
0.0
220
0.0
230
1.0
  0
SOLID
  5
7EB
  8
0
  6
CONTINUOUS
 10
420.01256313292339
 20
29.092326506411428
 30
0.0
 11
418.81144962425321
 21
29.092326506411428
 31
0.0
 12
418.86843013959282
 22
28.954763373487872
 32
0.0
 13
418.86843013959282
 23
28.954763373487872
 33
0.0
210
0.0
220
0.0
230
-1.0
  0
SOLID
  5
7EC
  8
0
  6
CONTINUOUS
 10
-508.25424477485399
 20
29.03983596342777
 30
0.0
 11
-508.1838282677117
 21
28.936128698655899
 31
0.0
 12
-506.88397797065852
 22
28.936128698655899
 32
0.0
 13
-506.88397797065852
 23
28.936128698655899
 33
0.0
210
0.0
220
0.0
230
1.0
  0
SOLID
  5
7ED
  8
0
  6
CONTINUOUS
 10
508.25424477485399
 20
29.03983596342777
 30
0.0
 11
506.99357446936358
 21
29.03983596342777
 31
0.0
 12
506.88397797065852
 22
28.936128698655899
 32
0.0
 13
506.88397797065852
 23
28.936128698655899
 33
0.0
210
0.0
220
0.0
230
-1.0
  0
SOLID
  5
7EE
  8
0
  6
CONTINUOUS
 10
-420.19183889811688
 20
28.954763373487872
 30
0.0
 11
-420.37499999999972
 21
28.814218916865201
 31
0.0
 12
-418.97627369417012
 22
28.814218916865201
 32
0.0
 13
-418.97627369417012
 23
28.814218916865201
 33
0.0
210
0.0
220
0.0
230
1.0
  0
SOLID
  5
7EF
  8
0
  6
CONTINUOUS
 10
420.19183889811688
 20
28.954763373487872
 30
0.0
 11
418.86843013959282
 21
28.954763373487872
 31
0.0
 12
418.97627369417012
 22
28.814218916865201
 32
0.0
 13
418.97627369417012
 23
28.814218916865201
 33
0.0
210
0.0
220
0.0
230
-1.0
  0
SOLID
  5
7F0
  8
0
  6
CONTINUOUS
 10
-508.1838282677117
 20
28.936128698655899
 30
0.0
 11
-508.05153290348608
 21
28.74128815738754
 31
0.0
 12
-506.55987808020649
 22
28.74128815738754
 32
0.0
 13
-506.55987808020649
 23
28.74128815738754
 33
0.0
210
0.0
220
0.0
230
1.0
  0
SOLID
  5
7F1
  8
0
  6
CONTINUOUS
 10
508.1838282677117
 20
28.936128698655899
 30
0.0
 11
506.88397797065852
 21
28.936128698655899
 31
0.0
 12
506.55987808020649
 22
28.74128815738754
 32
0.0
 13
506.55987808020649
 23
28.74128815738754
 33
0.0
210
0.0
220
0.0
230
-1.0
  0
SOLID
  5
7F2
  8
0
  6
CONTINUOUS
 10
-420.37499999999972
 20
28.814218916865201
 30
0.0
 11
-420.79706667107018
 21
28.63939317748217
 31
0.0
 12
-419.11042220219213
 22
28.63939317748217
 32
0.0
 13
-419.11042220219213
 23
28.63939317748217
 33
0.0
210
0.0
220
0.0
230
1.0
  0
SOLID
  5
7F3
  8
0
  6
CONTINUOUS
 10
420.37499999999972
 20
28.814218916865201
 30
0.0
 11
418.97627369417012
 21
28.814218916865201
 31
0.0
 12
419.11042220219213
 22
28.63939317748217
 32
0.0
 13
419.11042220219213
 23
28.63939317748217
 33
0.0
210
0.0
220
0.0
230
-1.0
  0
SOLID
  5
7F4
  8
0
  6
CONTINUOUS
 10
-420.79706667107018
 20
28.63939317748217
 30
0.0
 11
-420.93965142947468
 21
28.620621537920339
 31
0.0
 12
-419.1248261878365
 22
28.620621537920339
 32
0.0
 13
-419.1248261878365
 23
28.620621537920339
 33
0.0
210
0.0
220
0.0
230
1.0
  0
SOLID
  5
7F5
  8
0
  6
CONTINUOUS
 10
420.79706667107018
 20
28.63939317748217
 30
0.0
 11
419.11042220219213
 21
28.63939317748217
 31
0.0
 12
419.1248261878365
 22
28.620621537920339
 32
0.0
 13
419.1248261878365
 23
28.620621537920339
 33
0.0
210
0.0
220
0.0
230
-1.0
  0
SOLID
  5
7F6
  8
0
  6
CONTINUOUS
 10
-508.05153290348608
 20
28.74128815738754
 30
0.0
 11
-507.96960111317009
 21
28.620621537920339
 31
0.0
 12
-506.20148842848772
 22
28.620621537920339
 32
0.0
 13
-506.20148842848772
 23
28.620621537920339
 33
0.0
210
0.0
220
0.0
230
1.0
  0
SOLID
  5
7F7
  8
0
  6
CONTINUOUS
 10
508.05153290348608
 20
28.74128815738754
 30
0.0
 11
506.55987808020649
 21
28.74128815738754
 31
0.0
 12
506.20148842848772
 22
28.620621537920339
 32
0.0
 13
506.20148842848772
 23
28.620621537920339
 33
0.0
210
0.0
220
0.0
230
-1.0
  0
SOLID
  5
7F8
  8
0
  6
CONTINUOUS
 10
-420.93965142947468
 20
28.620621537920339
 30
0.0
 11
-421.2499999999996
 21
28.579763373488088
 31
0.0
 12
-419.15617776008457
 22
28.579763373488088
 32
0.0
 13
-419.15617776008457
 23
28.579763373488088
 33
0.0
210
0.0
220
0.0
230
1.0
  0
SOLID
  5
7F9
  8
0
  6
CONTINUOUS
 10
420.93965142947468
 20
28.620621537920339
 30
0.0
 11
419.1248261878365
 21
28.620621537920339
 31
0.0
 12
419.15617776008457
 22
28.579763373488088
 32
0.0
 13
419.15617776008457
 23
28.579763373488088
 33
0.0
210
0.0
220
0.0
230
-1.0
  0
SOLID
  5
7FA
  8
0
  6
CONTINUOUS
 10
-507.96960111317009
 20
28.620621537920339
 30
0.0
 11
-507.9418587054044
 21
28.579763373488088
 31
0.0
 12
-421.2499999999996
 22
28.579763373488088
 32
0.0
 13
-421.2499999999996
 23
28.579763373488088
 33
0.0
  0
SOLID
  5
7FB
  8
0
  6
CONTINUOUS
 10
507.96960111317009
 20
28.620621537920339
 30
0.0
 11
506.20148842848772
 21
28.620621537920339
 31
0.0
 12
421.2499999999996
 22
28.579763373488088
 32
0.0
 13
421.2499999999996
 23
28.579763373488088
 33
0.0
210
0.0
220
0.0
230
-1.0
  0
SOLID
  5
7FC
  8
0
  6
CONTINUOUS
 10
-507.9418587054044
 20
28.579763373488088
 30
0.0
 11
-507.92043150051842
 21
28.548206045517489
 31
0.0
 12
-419.18039254950497
 22
28.548206045517489
 32
0.0
 13
-419.18039254950497
 23
28.548206045517489
 33
0.0
210
0.0
220
0.0
230
1.0
  0
SOLID
  5
7FD
  8
0
  6
CONTINUOUS
 10
507.9418587054044
 20
28.579763373488088
 30
0.0
 11
419.15617776008457
 21
28.579763373488088
 31
0.0
 12
419.18039254950497
 22
28.548206045517489
 32
0.0
 13
419.18039254950497
 23
28.548206045517489
 33
0.0
210
0.0
220
0.0
230
-1.0
  0
SOLID
  5
7FE
  8
0
  6
CONTINUOUS
 10
-507.92043150051842
 20
28.548206045517489
 30
0.0
 11
-507.74818966114287
 21
28.385219725224971
 31
0.0
 12
-419.30545635173678
 22
28.385219725224971
 32
0.0
 13
-419.30545635173678
 23
28.385219725224971
 33
0.0
210
0.0
220
0.0
230
1.0
  0
SOLID
  5
7FF
  8
0
  6
CONTINUOUS
 10
507.92043150051842
 20
28.548206045517489
 30
0.0
 11
419.18039254950497
 21
28.548206045517489
 31
0.0
 12
419.30545635173678
 22
28.385219725224971
 32
0.0
 13
419.30545635173678
 23
28.385219725224971
 33
0.0
210
0.0
220
0.0
230
-1.0
  0
SOLID
  5
800
  8
0
  6
CONTINUOUS
 10
-507.74818966114287
 20
28.385219725224971
 30
0.0
 11
-507.48879736164059
 21
28.139766027323429
 31
0.0
 12
-419.62533783869969
 22
28.139766027323429
 32
0.0
 13
-419.62533783869969
 23
28.139766027323429
 33
0.0
210
0.0
220
0.0
230
1.0
  0
SOLID
  5
801
  8
0
  6
CONTINUOUS
 10
507.74818966114287
 20
28.385219725224971
 30
0.0
 11
419.30545635173678
 21
28.385219725224971
 31
0.0
 12
419.62533783869969
 22
28.139766027323429
 32
0.0
 13
419.62533783869969
 23
28.139766027323429
 33
0.0
210
0.0
220
0.0
230
-1.0
  0
SOLID
  5
802
  8
0
  6
CONTINUOUS
 10
-507.48879736164059
 20
28.139766027323429
 30
0.0
 11
-507.17013354313821
 21
27.948193513080788
 31
0.0
 12
-419.87499999999972
 22
27.948193513080788
 32
0.0
 13
-419.87499999999972
 23
27.948193513080788
 33
0.0
210
0.0
220
0.0
230
1.0
  0
SOLID
  5
803
  8
0
  6
CONTINUOUS
 10
507.48879736164059
 20
28.139766027323429
 30
0.0
 11
419.62533783869969
 21
28.139766027323429
 31
0.0
 12
419.87499999999972
 22
27.948193513080788
 32
0.0
 13
419.87499999999972
 23
27.948193513080788
 33
0.0
210
0.0
220
0.0
230
-1.0
  0
SOLID
  5
804
  8
0
  6
CONTINUOUS
 10
-507.17013354313821
 20
27.948193513080788
 30
0.0
 11
-506.97949753378742
 21
27.83358803390167
 31
0.0
 12
-420.1516821021562
 22
27.83358803390167
 32
0.0
 13
-420.1516821021562
 23
27.83358803390167
 33
0.0
210
0.0
220
0.0
230
1.0
  0
SOLID
  5
805
  8
0
  6
CONTINUOUS
 10
507.17013354313821
 20
27.948193513080788
 30
0.0
 11
419.87499999999972
 21
27.948193513080788
 31
0.0
 12
420.1516821021562
 22
27.83358803390167
 32
0.0
 13
420.1516821021562
 23
27.83358803390167
 33
0.0
210
0.0
220
0.0
230
-1.0
  0
SOLID
  5
806
  8
0
  6
CONTINUOUS
 10
-506.97949753378742
 20
27.83358803390167
 30
0.0
 11
-506.50392611260861
 21
27.673467351193089
 31
0.0
 12
-420.5382476259677
 22
27.673467351193089
 32
0.0
 13
-420.5382476259677
 23
27.673467351193089
 33
0.0
  0
SOLID
  5
807
  8
0
  6
CONTINUOUS
 10
506.97949753378742
 20
27.83358803390167
 30
0.0
 11
420.1516821021562
 21
27.83358803390167
 31
0.0
 12
420.5382476259677
 22
27.673467351193089
 32
0.0
 13
420.5382476259677
 23
27.673467351193089
 33
0.0
210
0.0
220
0.0
230
-1.0
  0
SOLID
  5
808
  8
0
  6
CONTINUOUS
 10
-506.50392611260861
 20
27.673467351193089
 30
0.0
 11
-506.4163137953721
 21
27.643969060453031
 31
0.0
 12
-420.7623093891749
 22
27.643969060453031
 32
0.0
 13
-420.7623093891749
 23
27.643969060453031
 33
0.0
210
0.0
220
0.0
230
1.0
  0
SOLID
  5
809
  8
0
  6
CONTINUOUS
 10
506.50392611260861
 20
27.673467351193089
 30
0.0
 11
420.5382476259677
 21
27.673467351193089
 31
0.0
 12
420.7623093891749
 22
27.643969060453031
 32
0.0
 13
420.7623093891749
 23
27.643969060453031
 33
0.0
210
0.0
220
0.0
230
-1.0
  0
SOLID
  5
80A
  8
0
  6
CONTINUOUS
 10
-506.4163137953721
 20
27.643969060453031
 30
0.0
 11
-505.82554403644008
 21
27.579763373488049
 31
0.0
 12
-421.24999999999949
 22
27.579763373488049
 32
0.0
 13
-421.24999999999949
 23
27.579763373488049
 33
0.0
  0
SOLID
  5
80B
  8
0
  6
CONTINUOUS
 10
506.4163137953721
 20
27.643969060453031
 30
0.0
 11
420.7623093891749
 21
27.643969060453031
 31
0.0
 12
421.24999999999949
 22
27.579763373488049
 32
0.0
 13
421.24999999999949
 23
27.579763373488049
 33
0.0
210
0.0
220
0.0
230
-1.0
  0
LINE
  5
80C
  8
0
  6
CONTINUOUS
 10
-548.74033711720233
 20
120.49445339739989
 30
0.0
 11
-549.14149628925065
 21
120.44785332656549
 31
0.0
  0
LINE
  5
80D
  8
0
  6
CONTINUOUS
 10
-535.91130677722629
 20
120.49445339739989
 30
0.0
 11
-535.55734409753234
 21
120.44785332656549
 31
0.0
  0
LINE
  5
80E
  8
0
  6
CONTINUOUS
 10
-549.14149628925065
 20
120.44785332656549
 30
0.0
 11
-549.17753385466006
 21
120.4348235934076
 31
0.0
  0
LINE
  5
80F
  8
0
  6
CONTINUOUS
 10
-535.55734409753234
 20
120.44785332656549
 30
0.0
 11
-535.45837344831034
 21
120.4348235934076
 31
0.0
  0
LINE
  5
810
  8
0
  6
CONTINUOUS
 10
-549.17753385466006
 20
120.4348235934076
 30
0.0
 11
-549.5212908374898
 21
120.3105349044645
 31
0.0
  0
LINE
  5
811
  8
0
  6
CONTINUOUS
 10
-535.45837344831034
 20
120.4348235934076
 30
0.0
 11
-535.15831400981426
 21
120.3105349044645
 31
0.0
  0
LINE
  5
812
  8
0
  6
CONTINUOUS
 10
-549.5212908374898
 20
120.3105349044645
 30
0.0
 11
-549.59872610085233
 21
120.2599978540245
 31
0.0
  0
LINE
  5
813
  8
0
  6
CONTINUOUS
 10
-535.15831400981426
 20
120.3105349044645
 30
0.0
 11
-535.0363067772397
 21
120.2599978540245
 31
0.0
  0
LINE
  5
814
  8
0
  6
CONTINUOUS
 10
-549.59872610085233
 20
120.2599978540245
 30
0.0
 11
-549.85949395866169
 21
120.0898113290359
 31
0.0
  0
LINE
  5
815
  8
0
  6
CONTINUOUS
 10
-535.0363067772397
 20
120.2599978540245
 30
0.0
 11
-534.81451537975875
 21
120.0898113290359
 31
0.0
  0
LINE
  5
816
  8
0
  6
CONTINUOUS
 10
-549.85949395866169
 20
120.0898113290359
 30
0.0
 11
-549.96233088082874
 21
119.9818902644781
 31
0.0
  0
LINE
  5
817
  8
0
  6
CONTINUOUS
 10
-534.81451537975875
 20
120.0898113290359
 30
0.0
 11
-534.67386991016315
 21
119.9818902644781
 31
0.0
  0
LINE
  5
818
  8
0
  6
CONTINUOUS
 10
-549.96233088082874
 20
119.9818902644781
 30
0.0
 11
-550.13809389344874
 21
119.7974377251367
 31
0.0
  0
LINE
  5
819
  8
0
  6
CONTINUOUS
 10
-534.67386991016315
 20
119.9818902644781
 30
0.0
 11
-534.53233449872516
 21
119.7974377251367
 31
0.0
  0
LINE
  5
81A
  8
0
  6
CONTINUOUS
 10
-550.13809389344874
 20
119.7974377251367
 30
0.0
 11
-550.24237536862995
 21
119.6194533974017
 31
0.0
  0
LINE
  5
81B
  8
0
  6
CONTINUOUS
 10
-534.53233449872516
 20
119.7974377251367
 30
0.0
 11
-534.39576232061677
 21
119.6194533974017
 31
0.0
  0
LINE
  5
81C
  8
0
  6
CONTINUOUS
 10
-550.24237536862995
 20
119.6194533974017
 30
0.0
 11
-550.31561318997944
 21
119.4944533974017
 31
0.0
  0
LINE
  5
81D
  8
0
  6
CONTINUOUS
 10
-534.39576232061677
 20
119.6194533974017
 30
0.0
 11
-534.34398562532022
 21
119.4944533974017
 31
0.0
  0
LINE
  5
81E
  8
0
  6
CONTINUOUS
 10
-534.34398562532022
 20
119.4944533974017
 30
0.0
 11
-534.33571317617066
 21
119.4744819384709
 31
0.0
  0
LINE
  5
81F
  8
0
  6
CONTINUOUS
 10
-550.31561318997944
 20
119.4944533974017
 30
0.0
 11
-550.32731451910956
 21
119.4744819384709
 31
0.0
  0
LINE
  5
820
  8
0
  6
CONTINUOUS
 10
-538.56288521630393
 20
119.4744819384709
 30
0.0
 11
-535.71719249341265
 21
119.46889776711861
 31
0.0
  0
LINE
  5
821
  8
0
  6
CONTINUOUS
 10
-534.33571317617066
 20
119.4744819384709
 30
0.0
 11
-534.33340013666202
 21
119.46889776711861
 31
0.0
  0
LINE
  5
822
  8
0
  6
CONTINUOUS
 10
-550.32731451910956
 20
119.4744819384709
 30
0.0
 11
-550.34225318277049
 21
119.44898509922599
 31
0.0
  0
LINE
  5
823
  8
0
  6
CONTINUOUS
 10
-548.9122624766519
 20
119.4744819384709
 30
0.0
 11
-548.96339243146588
 21
119.44898509922599
 31
0.0
  0
LINE
  5
824
  8
0
  6
CONTINUOUS
 10
-535.71719249341265
 20
119.46889776711861
 30
0.0
 11
-535.5363067772397
 21
119.3939724502401
 31
0.0
  0
LINE
  5
825
  8
0
  6
CONTINUOUS
 10
-534.33340013666202
 20
119.46889776711861
 30
0.0
 11
-534.30236505424568
 21
119.3939724502401
 31
0.0
  0
LINE
  5
826
  8
0
  6
CONTINUOUS
 10
-550.34225318277049
 20
119.44898509922599
 30
0.0
 11
-550.38165032496875
 21
119.32103536810089
 31
0.0
  0
LINE
  5
827
  8
0
  6
CONTINUOUS
 10
-548.96339243146588
 20
119.44898509922599
 30
0.0
 11
-549.21997576354249
 21
119.32103536810089
 31
0.0
  0
LINE
  5
828
  8
0
  6
CONTINUOUS
 10
-535.5363067772397
 20
119.3939724502401
 30
0.0
 11
-535.38097669134982
 21
119.2747834832917
 31
0.0
  0
LINE
  5
829
  8
0
  6
CONTINUOUS
 10
-534.30236505424568
 20
119.3939724502401
 30
0.0
 11
-534.25299536765056
 21
119.2747834832917
 31
0.0
  0
LINE
  5
82A
  8
0
  6
CONTINUOUS
 10
-535.38097669134982
 20
119.2747834832917
 30
0.0
 11
-535.32158807095198
 21
119.1973867263312
 31
0.0
  0
LINE
  5
82B
  8
0
  6
CONTINUOUS
 10
-534.25299536765056
 20
119.2747834832917
 30
0.0
 11
-534.22093658123379
 21
119.1973867263312
 31
0.0
  0
LINE
  5
82C
  8
0
  6
CONTINUOUS
 10
-535.32158807095198
 20
119.1973867263312
 30
0.0
 11
-535.2617877244013
 21
119.1194533974017
 31
0.0
  0
LINE
  5
82D
  8
0
  6
CONTINUOUS
 10
-534.22093658123379
 20
119.1973867263312
 30
0.0
 11
-534.21067646383494
 21
119.1194533974017
 31
0.0
  0
LINE
  5
82E
  8
0
  6
CONTINUOUS
 10
-550.38165032496875
 20
119.32103536810089
 30
0.0
 11
-550.46109886966224
 21
119.0630110707894
 31
0.0
  0
LINE
  5
82F
  8
0
  6
CONTINUOUS
 10
-549.21997576354249
 20
119.32103536810089
 30
0.0
 11
-549.41435546240143
 21
119.0630110707894
 31
0.0
  0
LINE
  5
830
  8
0
  6
CONTINUOUS
 10
-550.46109886966224
 20
119.0630110707894
 30
0.0
 11
-550.46417483293317
 21
119.04639555532491
 31
0.0
  0
LINE
  5
831
  8
0
  6
CONTINUOUS
 10
-549.41435546240143
 20
119.0630110707894
 30
0.0
 11
-549.42687257387513
 21
119.04639555532491
 31
0.0
  0
LINE
  5
832
  8
0
  6
CONTINUOUS
 10
-535.2617877244013
 20
119.1194533974017
 30
0.0
 11
-535.18686240752288
 21
118.93856768122861
 31
0.0
  0
LINE
  5
833
  8
0
  6
CONTINUOUS
 10
-534.21067646383494
 20
119.1194533974017
 30
0.0
 11
-534.18686240752277
 21
118.93856768122861
 31
0.0
  0
LINE
  5
834
  8
0
  6
CONTINUOUS
 10
-535.18686240752288
 20
118.93856768122861
 30
0.0
 11
-535.16130677723959
 21
118.7444533974017
 31
0.0
  0
LINE
  5
835
  8
0
  6
CONTINUOUS
 10
-534.18686240752277
 20
118.93856768122861
 30
0.0
 11
-534.1613067772397
 21
118.7444533974017
 31
0.0
  0
LINE
  5
836
  8
0
  6
CONTINUOUS
 10
-535.16130677723959
 20
118.7444533974017
 30
0.0
 11
-535.16130677723959
 21
116.0837292962775
 31
0.0
  0
LINE
  5
837
  8
0
  6
CONTINUOUS
 10
-534.1613067772397
 20
118.7444533974017
 30
0.0
 11
-534.1613067772397
 21
116.0837292962775
 31
0.0
  0
LINE
  5
838
  8
0
  6
CONTINUOUS
 10
-550.46417483293317
 20
119.04639555532491
 30
0.0
 11
-552.49612532181629
 21
108.0703526713355
 31
0.0
  0
LINE
  5
839
  8
0
  6
CONTINUOUS
 10
-549.42687257387513
 20
119.04639555532491
 30
0.0
 11
-551.47880251521565
 21
108.0703526713355
 31
0.0
  0
LINE
  5
83A
  8
0
  6
CONTINUOUS
 10
-552.49612532181629
 20
108.0703526713355
 30
0.0
 11
-552.50777837547253
 21
107.8883197151123
 31
0.0
  0
LINE
  5
83B
  8
0
  6
CONTINUOUS
 10
-551.47880251521565
 20
108.0703526713355
 30
0.0
 11
-551.51283289183993
 21
107.8883197151123
 31
0.0
  0
LINE
  5
83C
  8
0
  6
CONTINUOUS
 10
-552.50777837547253
 20
107.8883197151123
 30
0.0
 11
-552.53435155780085
 21
107.4732186542053
 31
0.0
  0
LINE
  5
83D
  8
0
  6
CONTINUOUS
 10
-551.51283289183993
 20
107.8883197151123
 30
0.0
 11
-551.53940607416848
 21
107.4732186542053
 31
0.0
  0
LINE
  5
83E
  8
0
  6
CONTINUOUS
 10
-552.53435155780085
 20
107.4732186542053
 30
0.0
 11
-552.53788317976102
 21
107.4180510041962
 31
0.0
  0
LINE
  5
83F
  8
0
  6
CONTINUOUS
 10
-551.53940607416848
 20
107.4732186542053
 30
0.0
 11
-551.52969062408442
 21
107.4180510041962
 31
0.0
  0
LINE
  5
840
  8
0
  6
CONTINUOUS
 10
-552.53788317976102
 20
107.4180510041962
 30
0.0
 11
-552.4754566457899
 21
107.0635717832033
 31
0.0
  0
LINE
  5
841
  8
0
  6
CONTINUOUS
 10
-551.52969062408442
 20
107.4180510041962
 30
0.0
 11
-551.4672640901133
 21
107.0635717832033
 31
0.0
  0
LINE
  5
842
  8
0
  6
CONTINUOUS
 10
-552.4754566457899
 20
107.0635717832033
 30
0.0
 11
-552.42451720481733
 21
106.7743202069075
 31
0.0
  0
LINE
  5
843
  8
0
  6
CONTINUOUS
 10
-551.4672640901133
 20
107.0635717832033
 30
0.0
 11
-551.3406617026626
 21
106.7743202069075
 31
0.0
  0
LINE
  5
844
  8
0
  6
CONTINUOUS
 10
-552.42451720481733
 20
106.7743202069075
 30
0.0
 11
-552.38433808171806
 21
106.68252197999669
 31
0.0
  0
LINE
  5
845
  8
0
  6
CONTINUOUS
 10
-551.3406617026626
 20
106.7743202069075
 30
0.0
 11
-551.30048257956332
 21
106.68252197999669
 31
0.0
  0
LINE
  5
846
  8
0
  6
CONTINUOUS
 10
-552.38433808171806
 20
106.68252197999669
 30
0.0
 11
-552.23949548015935
 21
106.3515965396535
 31
0.0
  0
LINE
  5
847
  8
0
  6
CONTINUOUS
 10
-551.30048257956332
 20
106.68252197999669
 30
0.0
 11
-551.04848381425109
 21
106.3515965396535
 31
0.0
  0
LINE
  5
848
  8
0
  6
CONTINUOUS
 10
-552.23949548015935
 20
106.3515965396535
 30
0.0
 11
-552.16243197395295
 21
106.17552765901149
 31
0.0
  0
LINE
  5
849
  8
0
  6
CONTINUOUS
 10
-551.04848381425109
 20
106.3515965396535
 30
0.0
 11
-550.83152302398878
 21
106.17552765901149
 31
0.0
  0
LINE
  5
84A
  8
0
  6
CONTINUOUS
 10
-552.16243197395295
 20
106.17552765901149
 30
0.0
 11
-552.09691530423947
 21
106.0894909963006
 31
0.0
  0
LINE
  5
84B
  8
0
  6
CONTINUOUS
 10
-550.83152302398878
 20
106.17552765901149
 30
0.0
 11
-550.72550438932012
 21
106.0894909963006
 31
0.0
  0
LINE
  5
84C
  8
0
  6
CONTINUOUS
 10
-552.09691530423947
 20
106.0894909963006
 30
0.0
 11
-551.76643391417679
 21
105.6555019670439
 31
0.0
  0
LINE
  5
84D
  8
0
  6
CONTINUOUS
 10
-550.72550438932012
 20
106.0894909963006
 30
0.0
 11
-550.03726943081585
 21
105.6555019670439
 31
0.0
  0
LINE
  5
84E
  8
0
  6
CONTINUOUS
 10
-551.76643391417679
 20
105.6555019670439
 30
0.0
 11
-551.25889481785691
 21
105.24362182748941
 31
0.0
  0
LINE
  5
84F
  8
0
  6
CONTINUOUS
 10
-550.03726943081585
 20
105.6555019670439
 30
0.0
 11
-549.38409552169514
 21
105.24362182748941
 31
0.0
  0
LINE
  5
850
  8
0
  6
CONTINUOUS
 10
-420.75000000000091
 20
104.0797633734888
 30
0.0
 11
-421.33234285148183
 21
104.00309648263909
 31
0.0
  0
LINE
  5
851
  8
0
  6
CONTINUOUS
 10
-420.16765714851988
 20
104.00309648263909
 30
0.0
 11
-420.75000000000091
 21
104.0797633734888
 31
0.0
  0
LINE
  5
852
  8
0
  6
CONTINUOUS
 10
-421.33234285148183
 20
104.00309648263909
 30
0.0
 11
-421.87500000000131
 21
103.7783205320036
 31
0.0
  0
LINE
  5
853
  8
0
  6
CONTINUOUS
 10
-420.16765714851988
 20
104.00309648263909
 30
0.0
 11
-419.6250000000004
 21
103.7783205320036
 31
0.0
  0
LINE
  5
854
  8
0
  6
CONTINUOUS
 10
-421.87500000000131
 20
103.7783205320036
 30
0.0
 11
-422.34099025767131
 21
103.42075363115821
 31
0.0
  0
LINE
  5
855
  8
0
  6
CONTINUOUS
 10
-419.6250000000004
 20
103.7783205320036
 30
0.0
 11
-419.1590097423304
 21
103.42075363115821
 31
0.0
  0
LINE
  5
856
  8
0
  6
CONTINUOUS
 10
-422.34099025767131
 20
103.42075363115821
 30
0.0
 11
-422.60264128501888
 21
103.0797633734888
 31
0.0
  0
LINE
  5
857
  8
0
  6
CONTINUOUS
 10
-419.1590097423304
 20
103.42075363115821
 30
0.0
 11
-418.89735871498277
 21
103.0797633734888
 31
0.0
  0
LINE
  5
858
  8
0
  6
CONTINUOUS
 10
-420.75000000000091
 20
103.0797633734888
 30
0.0
 11
-420.42647619362242
 21
103.0371706563501
 31
0.0
  0
LINE
  5
859
  8
0
  6
CONTINUOUS
 10
-418.89735871498277
 20
103.0797633734888
 30
0.0
 11
-418.86467617363093
 21
103.0371706563501
 31
0.0
  0
LINE
  5
85A
  8
0
  6
CONTINUOUS
 10
-422.60264128501888
 20
103.0797633734888
 30
0.0
 11
-422.63532382637078
 21
103.0371706563501
 31
0.0
  0
LINE
  5
85B
  8
0
  6
CONTINUOUS
 10
-420.75000000000091
 20
103.0797633734888
 30
0.0
 11
-421.07352380637928
 21
103.0371706563501
 31
0.0
  0
LINE
  5
85C
  8
0
  6
CONTINUOUS
 10
-420.42647619362242
 20
103.0371706563501
 30
0.0
 11
-420.22752741369948
 21
102.9547633734883
 31
0.0
  0
LINE
  5
85D
  8
0
  6
CONTINUOUS
 10
-418.86467617363093
 20
103.0371706563501
 30
0.0
 11
-418.80144284148508
 21
102.9547633734883
 31
0.0
  0
LINE
  5
85E
  8
0
  6
CONTINUOUS
 10
-422.63532382637078
 20
103.0371706563501
 30
0.0
 11
-422.69855715851662
 21
102.9547633734883
 31
0.0
  0
LINE
  5
85F
  8
0
  6
CONTINUOUS
 10
-421.07352380637928
 20
103.0371706563501
 30
0.0
 11
-421.27247258630217
 21
102.9547633734883
 31
0.0
  0
LINE
  5
860
  8
0
  6
CONTINUOUS
 10
-420.22752741369948
 20
102.9547633734883
 30
0.0
 11
-420.12500000000051
 21
102.9122951282191
 31
0.0
  0
LINE
  5
861
  8
0
  6
CONTINUOUS
 10
-418.80144284148508
 20
102.9547633734883
 30
0.0
 11
-418.78385191832439
 21
102.9122951282191
 31
0.0
  0
LINE
  5
862
  8
0
  6
CONTINUOUS
 10
-422.69855715851662
 20
102.9547633734883
 30
0.0
 11
-422.71614808167732
 21
102.9122951282191
 31
0.0
  0
LINE
  5
863
  8
0
  6
CONTINUOUS
 10
-421.27247258630217
 20
102.9547633734883
 30
0.0
 11
-421.37500000000131
 21
102.9122951282191
 31
0.0
  0
LINE
  5
864
  8
0
  6
CONTINUOUS
 10
-420.12500000000051
 20
102.9122951282191
 30
0.0
 11
-419.86611652351701
 21
102.7136468499717
 31
0.0
  0
LINE
  5
865
  8
0
  6
CONTINUOUS
 10
-418.78385191832439
 20
102.9122951282191
 30
0.0
 11
-418.70156910733232
 21
102.7136468499717
 31
0.0
  0
LINE
  5
866
  8
0
  6
CONTINUOUS
 10
-422.71614808167732
 20
102.9122951282191
 30
0.0
 11
-422.7984308926695
 21
102.7136468499717
 31
0.0
  0
LINE
  5
867
  8
0
  6
CONTINUOUS
 10
-421.37500000000131
 20
102.9122951282191
 30
0.0
 11
-421.6338834764847
 21
102.7136468499717
 31
0.0
  0
LINE
  5
868
  8
0
  6
CONTINUOUS
 10
-551.25889481785691
 20
105.24362182748941
 30
0.0
 11
-547.16176953181764
 21
102.66004567568299
 31
0.0
  0
LINE
  5
869
  8
0
  6
CONTINUOUS
 10
-549.38409552169514
 20
105.24362182748941
 30
0.0
 11
-545.28697023565599
 21
102.66004567568299
 31
0.0
  0
LINE
  5
86A
  8
0
  6
CONTINUOUS
 10
-419.86611652351701
 20
102.7136468499717
 30
0.0
 11
-419.6674682452695
 21
102.4547633734883
 31
0.0
  0
LINE
  5
86B
  8
0
  6
CONTINUOUS
 10
-418.70156910733232
 20
102.7136468499717
 30
0.0
 11
-418.59433606029847
 21
102.4547633734883
 31
0.0
  0
LINE
  5
86C
  8
0
  6
CONTINUOUS
 10
-422.7984308926695
 20
102.7136468499717
 30
0.0
 11
-422.90566393970329
 21
102.4547633734883
 31
0.0
  0
LINE
  5
86D
  8
0
  6
CONTINUOUS
 10
-421.6338834764847
 20
102.7136468499717
 30
0.0
 11
-421.8325317547322
 21
102.4547633734883
 31
0.0
  0
LINE
  5
86E
  8
0
  6
CONTINUOUS
 10
-419.6674682452695
 20
102.4547633734883
 30
0.0
 11
-419.64979907582062
 21
102.4121062249688
 31
0.0
  0
LINE
  5
86F
  8
0
  6
CONTINUOUS
 10
-418.59433606029847
 20
102.4547633734883
 30
0.0
 11
-418.57666689084959
 21
102.4121062249688
 31
0.0
  0
LINE
  5
870
  8
0
  6
CONTINUOUS
 10
-422.90566393970329
 20
102.4547633734883
 30
0.0
 11
-422.92333310915211
 21
102.4121062249688
 31
0.0
  0
LINE
  5
871
  8
0
  6
CONTINUOUS
 10
-421.8325317547322
 20
102.4547633734883
 30
0.0
 11
-421.85020092418108
 21
102.4121062249688
 31
0.0
  0
LINE
  5
872
  8
0
  6
CONTINUOUS
 10
-419.64979907582062
 20
102.4121062249688
 30
0.0
 11
-419.54259271713869
 21
102.1532871798662
 31
0.0
  0
LINE
  5
873
  8
0
  6
CONTINUOUS
 10
-418.57666689084959
 20
102.4121062249688
 30
0.0
 11
-418.54259271713869
 21
102.1532871798662
 31
0.0
  0
LINE
  5
874
  8
0
  6
CONTINUOUS
 10
-422.92333310915211
 20
102.4121062249688
 30
0.0
 11
-422.95740728286307
 21
102.1532871798662
 31
0.0
  0
LINE
  5
875
  8
0
  6
CONTINUOUS
 10
-421.85020092418108
 20
102.4121062249688
 30
0.0
 11
-421.95740728286307
 21
102.1532871798662
 31
0.0
  0
LINE
  5
876
  8
0
  6
CONTINUOUS
 10
-419.54259271713869
 20
102.1532871798662
 30
0.0
 11
-419.5
 21
101.82976337348791
 31
0.0
  0
LINE
  5
877
  8
0
  6
CONTINUOUS
 10
-418.54259271713869
 20
102.1532871798662
 30
0.0
 11
-418.5
 21
101.82976337348791
 31
0.0
  0
LINE
  5
878
  8
0
  6
CONTINUOUS
 10
-422.95740728286307
 20
102.1532871798662
 30
0.0
 11
-423.00000000000171
 21
101.82976337348791
 31
0.0
  0
LINE
  5
879
  8
0
  6
CONTINUOUS
 10
-421.95740728286307
 20
102.1532871798662
 30
0.0
 11
-421.95999574841221
 21
101.82976337348791
 31
0.0
  0
LINE
  5
87A
  8
0
  6
CONTINUOUS
 10
-547.16176953181764
 20
102.66004567568299
 30
0.0
 11
-545.82036066419266
 21
101.8141765068718
 31
0.0
  0
LINE
  5
87B
  8
0
  6
CONTINUOUS
 10
-545.28697023565599
 20
102.66004567568299
 30
0.0
 11
-544.11951618625062
 21
101.8141765068718
 31
0.0
  0
LINE
  5
87C
  8
0
  6
CONTINUOUS
 10
-545.82036066419266
 20
101.8141765068718
 30
0.0
 11
-543.87109144315104
 21
100.40184962631361
 31
0.0
  0
LINE
  5
87D
  8
0
  6
CONTINUOUS
 10
-544.11951618625062
 20
101.8141765068718
 30
0.0
 11
-542.17024696520878
 21
100.40184962631361
 31
0.0
  0
LINE
  5
87E
  8
0
  6
CONTINUOUS
 10
-543.87109144315104
 20
100.40184962631361
 30
0.0
 11
-542.8066695679754
 21
99.630631566572575
 31
0.0
  0
LINE
  5
87F
  8
0
  6
CONTINUOUS
 10
-542.17024696520878
 20
100.40184962631361
 30
0.0
 11
-541.34544810790044
 21
99.630631566572575
 31
0.0
  0
LINE
  5
880
  8
0
  6
CONTINUOUS
 10
-542.8066695679754
 20
99.630631566572575
 30
0.0
 11
-540.86426267394188
 21
97.814407813629188
 31
0.0
  0
LINE
  5
881
  8
0
  6
CONTINUOUS
 10
-541.34544810790044
 20
99.630631566572575
 30
0.0
 11
-539.40304121386703
 21
97.814407813629188
 31
0.0
  0
LINE
  5
882
  8
0
  6
CONTINUOUS
 10
-540.86426267394188
 20
97.814407813629188
 30
0.0
 11
-540.13094169271096
 21
97.128725020423119
 31
0.0
  0
LINE
  5
883
  8
0
  6
CONTINUOUS
 10
-539.40304121386703
 20
97.814407813629188
 30
0.0
 11
-538.83524380978236
 21
97.128725020423119
 31
0.0
  0
LINE
  5
884
  8
0
  6
CONTINUOUS
 10
-423.00000000000171
 20
101.82976337348791
 30
0.0
 11
-423.00000000000171
 21
96.829763373487879
 31
0.0
  0
LINE
  5
885
  8
0
  6
CONTINUOUS
 10
-421.95999574841221
 20
101.82976337348791
 30
0.0
 11
-422.00000000000182
 21
96.829763373487879
 31
0.0
  0
LINE
  5
886
  8
0
  6
CONTINUOUS
 10
-540.13094169271096
 20
97.128725020423119
 30
0.0
 11
-538.26324934043885
 21
94.873264710560747
 31
0.0
  0
LINE
  5
887
  8
0
  6
CONTINUOUS
 10
-538.83524380978236
 20
97.128725020423119
 30
0.0
 11
-536.96755145751047
 21
94.873264710560747
 31
0.0
  0
LINE
  5
888
  8
0
  6
CONTINUOUS
 10
-538.26324934043885
 20
94.873264710560747
 30
0.0
 11
-537.77596399441575
 21
94.284809788530552
 31
0.0
  0
LINE
  5
889
  8
0
  6
CONTINUOUS
 10
-536.96755145751047
 20
94.873264710560747
 30
0.0
 11
-536.59301842901436
 21
94.284809788530552
 31
0.0
  0
LINE
  5
88A
  8
0
  6
CONTINUOUS
 10
-537.77596399441575
 20
94.284809788530552
 30
0.0
 11
-536.10012783389959
 21
91.651786898314555
 31
0.0
  0
LINE
  5
88B
  8
0
  6
CONTINUOUS
 10
-536.59301842901436
 20
94.284809788530552
 30
0.0
 11
-534.91718226849844
 21
91.651786898314555
 31
0.0
  0
LINE
  5
88C
  8
0
  6
CONTINUOUS
 10
-536.10012783389959
 20
91.651786898314555
 30
0.0
 11
-535.79337560504041
 21
91.169827110573507
 31
0.0
  0
LINE
  5
88D
  8
0
  6
CONTINUOUS
 10
-534.91718226849844
 20
91.651786898314555
 30
0.0
 11
-534.69059447057998
 21
91.169827110573507
 31
0.0
  0
LINE
  5
88E
  8
0
  6
CONTINUOUS
 10
-535.79337560504041
 20
91.169827110573507
 30
0.0
 11
-534.55666276910108
 21
88.539297746761619
 31
0.0
  0
LINE
  5
88F
  8
0
  6
CONTINUOUS
 10
-534.69059447057998
 20
91.169827110573507
 30
0.0
 11
-533.45388163464077
 21
88.539297746761619
 31
0.0
  0
LINE
  5
890
  8
0
  6
CONTINUOUS
 10
-534.55666276910108
 20
88.539297746761619
 30
0.0
 11
-534.2348156565356
 21
87.854718226230517
 31
0.0
  0
LINE
  5
891
  8
0
  6
CONTINUOUS
 10
-533.45388163464077
 20
88.539297746761619
 30
0.0
 11
-533.22321098985367
 21
87.854718226230517
 31
0.0
  0
LINE
  5
892
  8
0
  6
CONTINUOUS
 10
-534.2348156565356
 20
87.854718226230517
 30
0.0
 11
-533.18041169379512
 21
84.563471362838243
 31
0.0
  0
LINE
  5
893
  8
0
  6
CONTINUOUS
 10
-533.22321098985367
 20
87.854718226230517
 30
0.0
 11
-532.11421778546583
 21
84.563471362838243
 31
0.0
  0
LINE
  5
894
  8
0
  6
CONTINUOUS
 10
-533.18041169379512
 20
84.563471362838243
 30
0.0
 11
-533.01201290891106
 21
84.037826551045185
 31
0.0
  0
LINE
  5
895
  8
0
  6
CONTINUOUS
 10
-532.11421778546583
 20
84.563471362838243
 30
0.0
 11
-531.9798649253903
 21
84.037826551045185
 31
0.0
  0
LINE
  5
896
  8
0
  6
CONTINUOUS
 10
-533.01201290891106
 20
84.037826551045185
 30
0.0
 11
-527.79373791779597
 21
63.621743305421909
 31
0.0
  0
LINE
  5
897
  8
0
  6
CONTINUOUS
 10
-531.9798649253903
 20
84.037826551045185
 30
0.0
 11
-526.76158993427498
 21
63.621743305421909
 31
0.0
  0
LINE
  5
898
  8
0
  6
CONTINUOUS
 10
-527.79373791779597
 20
63.621743305421909
 30
0.0
 11
-527.6355012576239
 21
63.002655037347871
 31
0.0
  0
LINE
  5
899
  8
0
  6
CONTINUOUS
 10
-526.76158993427498
 20
63.621743305421909
 30
0.0
 11
-526.53835855906982
 21
63.002655037347871
 31
0.0
  0
LINE
  5
89A
  8
0
  6
CONTINUOUS
 10
-527.6355012576239
 20
63.002655037347871
 30
0.0
 11
-525.63912495653415
 21
57.569533979795793
 31
0.0
  0
LINE
  5
89B
  8
0
  6
CONTINUOUS
 10
-526.53835855906982
 20
63.002655037347871
 30
0.0
 11
-524.57927913876836
 21
57.569533979795793
 31
0.0
  0
LINE
  5
89C
  8
0
  6
CONTINUOUS
 10
-525.63912495653415
 20
57.569533979795793
 30
0.0
 11
-525.47796880109775
 21
57.130948878792111
 31
0.0
  0
LINE
  5
89D
  8
0
  6
CONTINUOUS
 10
-524.57927913876836
 20
57.569533979795793
 30
0.0
 11
-524.30679722226773
 21
57.130948878792111
 31
0.0
  0
LINE
  5
89E
  8
0
  6
CONTINUOUS
 10
-525.47796880109775
 20
57.130948878792111
 30
0.0
 11
-522.55661818503177
 21
52.428762137489713
 31
0.0
  0
LINE
  5
89F
  8
0
  6
CONTINUOUS
 10
-524.30679722226773
 20
57.130948878792111
 30
0.0
 11
-521.38544660620175
 21
52.428762137489713
 31
0.0
  0
LINE
  5
8A0
  8
0
  6
CONTINUOUS
 10
-522.55661818503177
 20
52.428762137489713
 30
0.0
 11
-522.17678055315071
 21
51.817377982963173
 31
0.0
  0
LINE
  5
8A1
  8
0
  6
CONTINUOUS
 10
-521.38544660620175
 20
52.428762137489713
 30
0.0
 11
-520.8047034906017
 21
51.817377982963173
 31
0.0
  0
LINE
  5
8A2
  8
0
  6
CONTINUOUS
 10
-522.17678055315071
 20
51.817377982963173
 30
0.0
 11
-518.58940340392019
 21
48.040724439539233
 31
0.0
  0
LINE
  5
8A3
  8
0
  6
CONTINUOUS
 10
-520.8047034906017
 20
51.817377982963173
 30
0.0
 11
-517.21732634137095
 21
48.040724439539233
 31
0.0
  0
LINE
  5
8A4
  8
0
  6
CONTINUOUS
 10
-518.58940340392019
 20
48.040724439539233
 30
0.0
 11
-517.86855540546867
 21
47.281843219535219
 31
0.0
  0
LINE
  5
8A5
  8
0
  6
CONTINUOUS
 10
-517.21732634137095
 20
48.040724439539233
 30
0.0
 11
-516.33299740425116
 21
47.281843219535219
 31
0.0
  0
LINE
  5
8A6
  8
0
  6
CONTINUOUS
 10
-517.86855540546867
 20
47.281843219535219
 30
0.0
 11
-514.85982853723203
 21
44.699923505517241
 31
0.0
  0
LINE
  5
8A7
  8
0
  6
CONTINUOUS
 10
-516.33299740425116
 20
47.281843219535219
 30
0.0
 11
-513.32427053601486
 21
44.699923505517241
 31
0.0
  0
LINE
  5
8A8
  8
0
  6
CONTINUOUS
 10
-514.85982853723203
 20
44.699923505517241
 30
0.0
 11
-513.97549960011224
 21
43.941042285513227
 31
0.0
  0
LINE
  5
8A9
  8
0
  6
CONTINUOUS
 10
-513.32427053601486
 20
44.699923505517241
 30
0.0
 11
-512.53631069543815
 21
43.941042285513227
 31
0.0
  0
LINE
  5
8AA
  8
0
  6
CONTINUOUS
 10
-513.97549960011224
 20
43.941042285513227
 30
0.0
 11
-513.3435630543313
 21
43.32911695873527
 31
0.0
  0
LINE
  5
8AB
  8
0
  6
CONTINUOUS
 10
-512.53631069543815
 20
43.941042285513227
 30
0.0
 11
-511.90093776720801
 21
43.32911695873527
 31
0.0
  0
LINE
  5
8AC
  8
0
  6
CONTINUOUS
 10
-513.3435630543313
 20
43.32911695873527
 30
0.0
 11
-512.35064184144483
 21
42.367638086027171
 31
0.0
  0
LINE
  5
8AD
  8
0
  6
CONTINUOUS
 10
-511.90093776720801
 20
43.32911695873527
 30
0.0
 11
-511.08399644701962
 21
42.367638086027171
 31
0.0
  0
LINE
  5
8AE
  8
0
  6
CONTINUOUS
 10
-512.35064184144483
 20
42.367638086027171
 30
0.0
 11
-511.46679938559907
 21
41.295434089374972
 31
0.0
  0
LINE
  5
8AF
  8
0
  6
CONTINUOUS
 10
-511.08399644701962
 20
42.367638086027171
 30
0.0
 11
-510.17297513037931
 21
41.295434089374972
 31
0.0
  0
LINE
  5
8B0
  8
0
  6
CONTINUOUS
 10
-511.46679938559907
 20
41.295434089374972
 30
0.0
 11
-510.979823720681
 21
40.704675803501537
 31
0.0
  0
LINE
  5
8B1
  8
0
  6
CONTINUOUS
 10
-510.17297513037931
 20
41.295434089374972
 30
0.0
 11
-509.74043381280978
 21
40.704675803501537
 31
0.0
  0
LINE
  5
8B2
  8
0
  6
CONTINUOUS
 10
-510.979823720681
 20
40.704675803501537
 30
0.0
 11
-510.7009916140787
 21
40.301145136760589
 31
0.0
  0
LINE
  5
8B3
  8
0
  6
CONTINUOUS
 10
-509.74043381280978
 20
40.704675803501537
 30
0.0
 11
-509.4449767867373
 21
40.301145136760589
 31
0.0
  0
LINE
  5
8B4
  8
0
  6
CONTINUOUS
 10
-510.7009916140787
 20
40.301145136760589
 30
0.0
 11
-510.3451723227181
 21
39.786197279314379
 31
0.0
  0
LINE
  5
8B5
  8
0
  6
CONTINUOUS
 10
-509.4449767867373
 20
40.301145136760589
 30
0.0
 11
-509.16289155138168
 21
39.786197279314379
 31
0.0
  0
LINE
  5
8B6
  8
0
  6
CONTINUOUS
 10
-510.3451723227181
 20
39.786197279314379
 30
0.0
 11
-510.095111357397
 21
39.424304707861531
 31
0.0
  0
LINE
  5
8B7
  8
0
  6
CONTINUOUS
 10
-509.16289155138168
 20
39.786197279314379
 30
0.0
 11
-509.07454257538382
 21
39.424304707861531
 31
0.0
  0
LINE
  5
8B8
  8
0
  6
CONTINUOUS
 10
-510.095111357397
 20
39.424304707861531
 30
0.0
 11
-510.04420914381768
 21
39.21580050329321
 31
0.0
  0
LINE
  5
8B9
  8
0
  6
CONTINUOUS
 10
-509.07454257538382
 20
39.424304707861531
 30
0.0
 11
-509.02364036180438
 21
39.21580050329321
 31
0.0
  0
LINE
  5
8BA
  8
0
  6
CONTINUOUS
 10
-510.04420914381768
 20
39.21580050329321
 30
0.0
 11
-510.0177495854096
 21
39.107417610072048
 31
0.0
  0
LINE
  5
8BB
  8
0
  6
CONTINUOUS
 10
-509.02364036180438
 20
39.21580050329321
 30
0.0
 11
-509.02605274686459
 21
39.107417610072048
 31
0.0
  0
LINE
  5
8BC
  8
0
  6
CONTINUOUS
 10
-510.0177495854096
 20
39.107417610072048
 30
0.0
 11
-510.02500820101562
 21
38.781304763023769
 31
0.0
  0
LINE
  5
8BD
  8
0
  6
CONTINUOUS
 10
-509.02605274686459
 20
39.107417610072048
 30
0.0
 11
-509.03331136247073
 21
38.781304763023769
 31
0.0
  0
LINE
  5
8BE
  8
0
  6
CONTINUOUS
 10
-510.02500820101562
 20
38.781304763023769
 30
0.0
 11
-510.0485419938334
 21
38.628797378606109
 31
0.0
  0
LINE
  5
8BF
  8
0
  6
CONTINUOUS
 10
-509.03331136247073
 20
38.781304763023769
 30
0.0
 11
-509.03670586989517
 21
38.628797378606109
 31
0.0
  0
LINE
  5
8C0
  8
0
  6
CONTINUOUS
 10
-510.0485419938334
 20
38.628797378606109
 30
0.0
 11
-510.49990586115359
 21
35.703798278008598
 31
0.0
  0
LINE
  5
8C1
  8
0
  6
CONTINUOUS
 10
-509.03670586989517
 20
38.628797378606109
 30
0.0
 11
-509.48806973721543
 21
35.703798278008598
 31
0.0
  0
LINE
  5
8C2
  8
0
  6
CONTINUOUS
 10
-510.49990586115359
 20
35.703798278008598
 30
0.0
 11
-510.50695908776788
 21
35.551290893591073
 31
0.0
  0
LINE
  5
8C3
  8
0
  6
CONTINUOUS
 10
-509.48806973721543
 20
35.703798278008598
 30
0.0
 11
-509.5116035300332
 21
35.551290893591073
 31
0.0
  0
LINE
  5
8C4
  8
0
  6
CONTINUOUS
 10
-510.50695908776788
 20
35.551290893591073
 30
0.0
 11
-510.54493161698559
 21
34.73023530763362
 31
0.0
  0
LINE
  5
8C5
  8
0
  6
CONTINUOUS
 10
-509.5116035300332
 20
35.551290893591073
 30
0.0
 11
-509.5495760592508
 21
34.73023530763362
 31
0.0
  0
LINE
  5
8C6
  8
0
  6
CONTINUOUS
 10
-510.54493161698559
 20
34.73023530763362
 30
0.0
 11
-510.55658691972599
 21
34.478220189911809
 31
0.0
  0
LINE
  5
8C7
  8
0
  6
CONTINUOUS
 10
-509.5495760592508
 20
34.73023530763362
 30
0.0
 11
-509.51567275054441
 21
34.478220189911809
 31
0.0
  0
LINE
  5
8C8
  8
0
  6
CONTINUOUS
 10
-510.55658691972599
 20
34.478220189911809
 30
0.0
 11
-510.39780914552671
 21
33.539535772956221
 31
0.0
  0
LINE
  5
8C9
  8
0
  6
CONTINUOUS
 10
-509.51567275054441
 20
34.478220189911809
 30
0.0
 11
-509.38939259777578
 21
33.539535772956221
 31
0.0
  0
LINE
  5
8CA
  8
0
  6
CONTINUOUS
 10
-510.39780914552671
 20
33.539535772956221
 30
0.0
 11
-510.35196631157879
 21
33.268515763555769
 31
0.0
  0
LINE
  5
8CB
  8
0
  6
CONTINUOUS
 10
-509.38939259777578
 20
33.539535772956221
 30
0.0
 11
-509.28072183540951
 21
33.268515763555769
 31
0.0
  0
LINE
  5
8CC
  8
0
  6
CONTINUOUS
 10
-510.35196631157879
 20
33.268515763555769
 30
0.0
 11
-510.08344048155152
 21
32.598824382050481
 31
0.0
  0
LINE
  5
8CD
  8
0
  6
CONTINUOUS
 10
-509.28072183540951
 20
33.268515763555769
 30
0.0
 11
-509.01219600538229
 21
32.598824382050481
 31
0.0
  0
LINE
  5
8CE
  8
0
  6
CONTINUOUS
 10
-510.08344048155152
 20
32.598824382050481
 30
0.0
 11
-509.89535991026042
 21
32.129759869301573
 31
0.0
  0
LINE
  5
8CF
  8
0
  6
CONTINUOUS
 10
-509.01219600538229
 20
32.598824382050481
 30
0.0
 11
-508.76306725826618
 21
32.129759869301573
 31
0.0
  0
LINE
  5
8D0
  8
0
  6
CONTINUOUS
 10
-419.5
 20
101.82976337348791
 30
0.0
 11
-419.5
 21
30.329763373487559
 31
0.0
  0
LINE
  5
8D1
  8
0
  6
CONTINUOUS
 10
-418.5
 20
101.82976337348791
 30
0.0
 11
-418.5
 21
30.329763373487559
 31
0.0
  0
LINE
  5
8D2
  8
0
  6
CONTINUOUS
 10
-419.5
 20
30.329763373487559
 30
0.0
 11
-419.55962980399408
 21
29.8768300445583
 31
0.0
  0
LINE
  5
8D3
  8
0
  6
CONTINUOUS
 10
-418.5
 20
30.329763373487559
 30
0.0
 11
-418.55962980399408
 21
29.8768300445583
 31
0.0
  0
LINE
  5
8D4
  8
0
  6
CONTINUOUS
 10
-509.89535991026042
 20
32.129759869301573
 30
0.0
 11
-508.66395194822587
 21
29.811240700424719
 31
0.0
  0
LINE
  5
8D5
  8
0
  6
CONTINUOUS
 10
-508.76306725826618
 20
32.129759869301573
 30
0.0
 11
-507.53165929623168
 21
29.811240700424719
 31
0.0
  0
LINE
  5
8D6
  8
0
  6
CONTINUOUS
 10
-419.55962980399408
 20
29.8768300445583
 30
0.0
 11
-419.66683616267602
 21
29.618010999455819
 31
0.0
  0
LINE
  5
8D7
  8
0
  6
CONTINUOUS
 10
-418.55962980399408
 20
29.8768300445583
 30
0.0
 11
-418.59370397770499
 21
29.618010999455819
 31
0.0
  0
LINE
  5
8D8
  8
0
  6
CONTINUOUS
 10
-419.66683616267602
 20
29.618010999455819
 30
0.0
 11
-419.73445554337718
 21
29.454763373487829
 31
0.0
  0
LINE
  5
8D9
  8
0
  6
CONTINUOUS
 10
-418.59370397770499
 20
29.618010999455819
 30
0.0
 11
-418.66132335840609
 21
29.454763373487829
 31
0.0
  0
LINE
  5
8DA
  8
0
  6
CONTINUOUS
 10
-508.66395194822587
 20
29.811240700424719
 30
0.0
 11
-508.33721029220811
 21
29.196045073870259
 31
0.0
  0
LINE
  5
8DB
  8
0
  6
CONTINUOUS
 10
-507.53165929623168
 20
29.811240700424719
 30
0.0
 11
-507.15865424085342
 21
29.196045073870259
 31
0.0
  0
LINE
  5
8DC
  8
0
  6
CONTINUOUS
 10
-419.73445554337718
 20
29.454763373487829
 30
0.0
 11
-420.01256313292339
 21
29.092326506411428
 31
0.0
  0
LINE
  5
8DD
  8
0
  6
CONTINUOUS
 10
-418.66132335840609
 20
29.454763373487829
 30
0.0
 11
-418.81144962425321
 21
29.092326506411428
 31
0.0
  0
LINE
  5
8DE
  8
0
  6
CONTINUOUS
 10
-508.33721029220811
 20
29.196045073870259
 30
0.0
 11
-508.25424477485399
 21
29.03983596342777
 31
0.0
  0
LINE
  5
8DF
  8
0
  6
CONTINUOUS
 10
-507.15865424085342
 20
29.196045073870259
 30
0.0
 11
-506.99357446936358
 21
29.03983596342777
 31
0.0
  0
LINE
  5
8E0
  8
0
  6
CONTINUOUS
 10
-420.01256313292339
 20
29.092326506411428
 30
0.0
 11
-420.19183889811688
 21
28.954763373487872
 31
0.0
  0
LINE
  5
8E1
  8
0
  6
CONTINUOUS
 10
-418.81144962425321
 20
29.092326506411428
 30
0.0
 11
-418.86843013959282
 21
28.954763373487872
 31
0.0
  0
LINE
  5
8E2
  8
0
  6
CONTINUOUS
 10
-508.25424477485399
 20
29.03983596342777
 30
0.0
 11
-508.1838282677117
 21
28.936128698655899
 31
0.0
  0
LINE
  5
8E3
  8
0
  6
CONTINUOUS
 10
-506.99357446936358
 20
29.03983596342777
 30
0.0
 11
-506.88397797065852
 21
28.936128698655899
 31
0.0
  0
LINE
  5
8E4
  8
0
  6
CONTINUOUS
 10
-420.19183889811688
 20
28.954763373487872
 30
0.0
 11
-420.37499999999972
 21
28.814218916865201
 31
0.0
  0
LINE
  5
8E5
  8
0
  6
CONTINUOUS
 10
-418.86843013959282
 20
28.954763373487872
 30
0.0
 11
-418.97627369417012
 21
28.814218916865201
 31
0.0
  0
LINE
  5
8E6
  8
0
  6
CONTINUOUS
 10
-508.1838282677117
 20
28.936128698655899
 30
0.0
 11
-508.05153290348608
 21
28.74128815738754
 31
0.0
  0
LINE
  5
8E7
  8
0
  6
CONTINUOUS
 10
-506.88397797065852
 20
28.936128698655899
 30
0.0
 11
-506.55987808020649
 21
28.74128815738754
 31
0.0
  0
LINE
  5
8E8
  8
0
  6
CONTINUOUS
 10
-420.37499999999972
 20
28.814218916865201
 30
0.0
 11
-420.79706667107018
 21
28.63939317748217
 31
0.0
  0
LINE
  5
8E9
  8
0
  6
CONTINUOUS
 10
-418.97627369417012
 20
28.814218916865201
 30
0.0
 11
-419.11042220219213
 21
28.63939317748217
 31
0.0
  0
LINE
  5
8EA
  8
0
  6
CONTINUOUS
 10
-420.79706667107018
 20
28.63939317748217
 30
0.0
 11
-420.93965142947468
 21
28.620621537920339
 31
0.0
  0
LINE
  5
8EB
  8
0
  6
CONTINUOUS
 10
-419.11042220219213
 20
28.63939317748217
 30
0.0
 11
-419.1248261878365
 21
28.620621537920339
 31
0.0
  0
LINE
  5
8EC
  8
0
  6
CONTINUOUS
 10
-508.05153290348608
 20
28.74128815738754
 30
0.0
 11
-507.96960111317009
 21
28.620621537920339
 31
0.0
  0
LINE
  5
8ED
  8
0
  6
CONTINUOUS
 10
-506.55987808020649
 20
28.74128815738754
 30
0.0
 11
-506.20148842848772
 21
28.620621537920339
 31
0.0
  0
LINE
  5
8EE
  8
0
  6
CONTINUOUS
 10
-419.1248261878365
 20
28.620621537920339
 30
0.0
 11
-419.15617776008457
 21
28.579763373488088
 31
0.0
  0
LINE
  5
8EF
  8
0
  6
CONTINUOUS
 10
-507.96960111317009
 20
28.620621537920339
 30
0.0
 11
-507.9418587054044
 21
28.579763373488088
 31
0.0
  0
LINE
  5
8F0
  8
0
  6
CONTINUOUS
 10
-507.9418587054044
 20
28.579763373488088
 30
0.0
 11
-507.92043150051842
 21
28.548206045517489
 31
0.0
  0
LINE
  5
8F1
  8
0
  6
CONTINUOUS
 10
-419.15617776008457
 20
28.579763373488088
 30
0.0
 11
-419.18039254950497
 21
28.548206045517489
 31
0.0
  0
LINE
  5
8F2
  8
0
  6
CONTINUOUS
 10
-507.92043150051842
 20
28.548206045517489
 30
0.0
 11
-507.74818966114287
 21
28.385219725224971
 31
0.0
  0
LINE
  5
8F3
  8
0
  6
CONTINUOUS
 10
-419.18039254950497
 20
28.548206045517489
 30
0.0
 11
-419.30545635173678
 21
28.385219725224971
 31
0.0
  0
LINE
  5
8F4
  8
0
  6
CONTINUOUS
 10
-507.74818966114287
 20
28.385219725224971
 30
0.0
 11
-507.48879736164059
 21
28.139766027323429
 31
0.0
  0
LINE
  5
8F5
  8
0
  6
CONTINUOUS
 10
-419.30545635173678
 20
28.385219725224971
 30
0.0
 11
-419.62533783869969
 21
28.139766027323429
 31
0.0
  0
LINE
  5
8F6
  8
0
  6
CONTINUOUS
 10
-507.48879736164059
 20
28.139766027323429
 30
0.0
 11
-507.17013354313821
 21
27.948193513080788
 31
0.0
  0
LINE
  5
8F7
  8
0
  6
CONTINUOUS
 10
-419.62533783869969
 20
28.139766027323429
 30
0.0
 11
-419.87499999999972
 21
27.948193513080788
 31
0.0
  0
LINE
  5
8F8
  8
0
  6
CONTINUOUS
 10
-507.17013354313821
 20
27.948193513080788
 30
0.0
 11
-506.97949753378742
 21
27.83358803390167
 31
0.0
  0
LINE
  5
8F9
  8
0
  6
CONTINUOUS
 10
-419.87499999999972
 20
27.948193513080788
 30
0.0
 11
-420.1516821021562
 21
27.83358803390167
 31
0.0
  0
LINE
  5
8FA
  8
0
  6
CONTINUOUS
 10
-506.97949753378742
 20
27.83358803390167
 30
0.0
 11
-506.50392611260861
 21
27.673467351193089
 31
0.0
  0
LINE
  5
8FB
  8
0
  6
CONTINUOUS
 10
-420.1516821021562
 20
27.83358803390167
 30
0.0
 11
-420.5382476259677
 21
27.673467351193089
 31
0.0
  0
LINE
  5
8FC
  8
0
  6
CONTINUOUS
 10
-506.50392611260861
 20
27.673467351193089
 30
0.0
 11
-506.4163137953721
 21
27.643969060453031
 31
0.0
  0
LINE
  5
8FD
  8
0
  6
CONTINUOUS
 10
-420.5382476259677
 20
27.673467351193089
 30
0.0
 11
-420.7623093891749
 21
27.643969060453031
 31
0.0
  0
LINE
  5
8FE
  8
0
  6
CONTINUOUS
 10
-506.4163137953721
 20
27.643969060453031
 30
0.0
 11
-505.82554403644008
 21
27.579763373488049
 31
0.0
  0
LINE
  5
8FF
  8
0
  6
CONTINUOUS
 10
-420.7623093891749
 20
27.643969060453031
 30
0.0
 11
-421.24999999999949
 21
27.579763373488049
 31
0.0
  0
ENDBLK
  5
901
  8
0
  0
BLOCK
  8
0
  2
*X40
 70
     1
 10
0.0
 20
0.0
 30
0.0
  3
*X40
  1

  0
LINE
  5
903
  8
0
  6
CONTINUOUS
 62
     0
 10
-404.19552621700473
 20
-36.499999999999908
 30
0.0
 11
-400.5
 21
-32.804473782995331
 31
0.0
  0
LINE
  5
904
  8
0
  6
CONTINUOUS
 62
     0
 10
-409.8523804664971
 20
-36.49999999999995
 30
0.0
 11
-400.5
 21
-27.147619533502962
 31
0.0
  0
LINE
  5
905
  8
0
  6
CONTINUOUS
 62
     0
 10
-415.50923471598941
 20
-36.499999999999908
 30
0.0
 11
-401.00923471598981
 21
-22.000000000000291
 31
0.0
  0
LINE
  5
906
  8
0
  6
CONTINUOUS
 62
     0
 10
-418.50000000000028
 20
-33.83391103451828
 30
0.0
 11
-406.66608896548229
 21
-22.000000000000309
 31
0.0
  0
LINE
  5
907
  8
0
  6
CONTINUOUS
 62
     0
 10
-406.87157202495757
 20
-16.548628809983342
 30
0.0
 11
-400.50000000000028
 21
-10.17705678502597
 31
0.0
  0
LINE
  5
908
  8
0
  6
CONTINUOUS
 62
     0
 10
-418.50000000000023
 20
-28.177056785025879
 30
0.0
 11
-408.00000000000011
 21
-17.677056785025819
 31
0.0
  0
LINE
  5
909
  8
0
  6
CONTINUOUS
 62
     0
 10
-418.50000000000023
 20
-22.520202535533521
 30
0.0
 11
-400.50000000000028
 21
-4.5202025355335991
 31
0.0
  0
LINE
  5
90A
  8
0
  6
CONTINUOUS
 62
     0
 10
-418.50000000000023
 20
-16.863348286041091
 30
0.0
 11
-400.50000000000028
 21
1.1366517139587979
 31
0.0
  0
LINE
  5
90B
  8
0
  6
CONTINUOUS
 62
     0
 10
-418.50000000000023
 20
-11.206494036548721
 30
0.0
 11
-400.50000000000028
 21
6.7935059634511381
 31
0.0
  0
LINE
  5
90C
  8
0
  6
CONTINUOUS
 62
     0
 10
-418.50000000000023
 20
-5.549639787056349
 30
0.0
 11
-400.50000000000028
 21
12.45036021294351
 31
0.0
  0
LINE
  5
90D
  8
0
  6
CONTINUOUS
 62
     0
 10
-418.50000000000023
 20
0.1072144624360192
 30
0.0
 11
-400.50000000000028
 21
18.107214462435881
 31
0.0
  0
LINE
  5
90E
  8
0
  6
CONTINUOUS
 62
     0
 10
-418.50000000000023
 20
5.7640687119284157
 30
0.0
 11
-400.50000000000028
 21
23.764068711928271
 31
0.0
  0
LINE
  5
90F
  8
0
  6
CONTINUOUS
 62
     0
 10
-418.50000000000023
 20
11.42092296142078
 30
0.0
 11
-400.50000000000028
 21
29.42092296142064
 31
0.0
  0
LINE
  5
910
  8
0
  6
CONTINUOUS
 62
     0
 10
-418.50000000000023
 20
17.07777721091318
 30
0.0
 11
-400.50000000000028
 21
35.077777210913013
 31
0.0
  0
LINE
  5
911
  8
0
  6
CONTINUOUS
 62
     0
 10
-418.50000000000023
 20
22.734631460405549
 30
0.0
 11
-400.50000000000028
 21
40.734631460405403
 31
0.0
  0
LINE
  5
912
  8
0
  6
CONTINUOUS
 62
     0
 10
-418.50000000000011
 20
28.391485709897982
 30
0.0
 11
-400.50000000000028
 21
46.391485709897808
 31
0.0
  0
LINE
  5
913
  8
0
  6
CONTINUOUS
 62
     0
 10
-418.50000000000011
 20
34.048339959390347
 30
0.0
 11
-400.50000000000028
 21
52.048339959390148
 31
0.0
  0
LINE
  5
914
  8
0
  6
CONTINUOUS
 62
     0
 10
-418.50000000000011
 20
39.705194208882752
 30
0.0
 11
-400.50000000000028
 21
57.705194208882517
 31
0.0
  0
LINE
  5
915
  8
0
  6
CONTINUOUS
 62
     0
 10
-418.50000000000011
 20
45.362048458375106
 30
0.0
 11
-400.50000000000028
 21
63.362048458374908
 31
0.0
  0
LINE
  5
916
  8
0
  6
CONTINUOUS
 62
     0
 10
-418.50000000000011
 20
51.018902707867483
 30
0.0
 11
-400.50000000000028
 21
69.018902707867284
 31
0.0
  0
LINE
  5
917
  8
0
  6
CONTINUOUS
 62
     0
 10
-418.50000000000011
 20
56.67575695735988
 30
0.0
 11
-400.50000000000028
 21
74.675756957359681
 31
0.0
  0
LINE
  5
918
  8
0
  6
CONTINUOUS
 62
     0
 10
-418.50000000000011
 20
62.332611206852249
 30
0.0
 11
-400.50000000000028
 21
80.33261120685205
 31
0.0
  0
LINE
  5
919
  8
0
  6
CONTINUOUS
 62
     0
 10
-418.50000000000011
 20
67.989465456344604
 30
0.0
 11
-400.50000000000028
 21
85.989465456344419
 31
0.0
  0
LINE
  5
91A
  8
0
  6
CONTINUOUS
 62
     0
 10
-418.50000000000011
 20
73.646319705837016
 30
0.0
 11
-404.53308550416949
 21
87.613234201667552
 31
0.0
  0
LINE
  5
91B
  8
0
  6
CONTINUOUS
 62
     0
 10
-403.80317395532961
 20
93.999999999999801
 30
0.0
 11
-400.50000000000011
 21
97.303173955329356
 31
0.0
  0
LINE
  5
91C
  8
0
  6
CONTINUOUS
 62
     0
 10
-418.50000000000011
 20
79.303173955329413
 30
0.0
 11
-408.00000000000023
 21
89.803173955329328
 31
0.0
  0
LINE
  5
91D
  8
0
  6
CONTINUOUS
 62
     0
 10
-418.50000000000011
 20
84.960028204821782
 30
0.0
 11
-400.50000000000023
 21
102.9600282048217
 31
0.0
  0
LINE
  5
91E
  8
0
  6
CONTINUOUS
 62
     0
 10
-418.50000000000011
 20
90.616882454314151
 30
0.0
 11
-400.61688245431509
 21
108.4999999999991
 31
0.0
  0
LINE
  5
91F
  8
0
  6
CONTINUOUS
 62
     0
 10
-418.50000000000011
 20
96.27373670380652
 30
0.0
 11
-406.2737367038074
 21
108.4999999999991
 31
0.0
  0
LINE
  5
920
  8
0
  6
CONTINUOUS
 62
     0
 10
-418.50000000000011
 20
101.9305909532989
 30
0.0
 11
-411.93059095329983
 21
108.4999999999991
 31
0.0
  0
ENDBLK
  5
922
  8
0
  0
BLOCK
  8
0
  2
*X41
 70
     1
 10
0.0
 20
0.0
 30
0.0
  3
*X41
  1

  0
LINE
  5
924
  8
0
  6
CONTINUOUS
 62
     0
 10
-65.000000000000199
 20
-239.9995408742864
 30
0.0
 11
-25.000000000000359
 21
-239.9995408742864
 31
0.0
  0
LINE
  5
925
  8
0
  6
CONTINUOUS
 62
     0
 10
-65.000000000000256
 20
-227.9995408742864
 30
0.0
 11
-25.000000000000401
 21
-227.9995408742864
 31
0.0
  0
LINE
  5
926
  8
0
  6
CONTINUOUS
 62
     0
 10
-65.000000000000313
 20
-215.9995408742864
 30
0.0
 11
-25.000000000000441
 21
-215.9995408742864
 31
0.0
  0
LINE
  5
927
  8
0
  6
CONTINUOUS
 62
     0
 10
-65.000000000000355
 20
-203.9995408742864
 30
0.0
 11
-25.000000000000469
 21
-203.9995408742864
 31
0.0
  0
LINE
  5
928
  8
0
  6
CONTINUOUS
 62
     0
 10
-65.000000000000412
 20
-191.9995408742864
 30
0.0
 11
-25.000000000000512
 21
-191.9995408742864
 31
0.0
  0
LINE
  5
929
  8
0
  6
CONTINUOUS
 62
     0
 10
-65.000000000000469
 20
-179.9995408742864
 30
0.0
 11
-25.000000000000551
 21
-179.9995408742864
 31
0.0
  0
LINE
  5
92A
  8
0
  6
CONTINUOUS
 62
     0
 10
-65.000000000000512
 20
-167.9995408742864
 30
0.0
 11
-25.00000000000059
 21
-167.9995408742864
 31
0.0
  0
LINE
  5
92B
  8
0
  6
CONTINUOUS
 62
     0
 10
-65.000000000000554
 20
-155.9995408742864
 30
0.0
 11
-25.000000000000622
 21
-155.9995408742864
 31
0.0
  0
LINE
  5
92C
  8
0
  6
CONTINUOUS
 62
     0
 10
-65.000000000000625
 20
-143.9995408742864
 30
0.0
 11
-25.000000000000661
 21
-143.9995408742864
 31
0.0
  0
LINE
  5
92D
  8
0
  6
CONTINUOUS
 62
     0
 10
-65.000000000000668
 20
-131.9995408742864
 30
0.0
 11
-25.000000000000689
 21
-131.9995408742864
 31
0.0
  0
LINE
  5
92E
  8
0
  6
CONTINUOUS
 62
     0
 10
-65.000000000000725
 20
-119.9995408742864
 30
0.0
 11
-25.000000000000728
 21
-119.9995408742864
 31
0.0
  0
LINE
  5
92F
  8
0
  6
CONTINUOUS
 62
     0
 10
-65.000000000000767
 20
-107.9995408742864
 30
0.0
 11
-25.000000000000771
 21
-107.9995408742864
 31
0.0
  0
LINE
  5
930
  8
0
  6
CONTINUOUS
 62
     0
 10
-65.000000000000824
 20
-95.999540874286424
 30
0.0
 11
-25.000000000000799
 21
-95.999540874286424
 31
0.0
  0
LINE
  5
931
  8
0
  6
CONTINUOUS
 62
     0
 10
-65.000000000000881
 20
-83.999540874286424
 30
0.0
 11
-25.000000000000838
 21
-83.999540874286424
 31
0.0
  0
LINE
  5
932
  8
0
  6
CONTINUOUS
 62
     0
 10
-65.000000000000924
 20
-71.999540874286424
 30
0.0
 11
-25.000000000000881
 21
-71.999540874286424
 31
0.0
  0
LINE
  5
933
  8
0
  6
CONTINUOUS
 62
     0
 10
-65.000000000000981
 20
-59.999540874286417
 30
0.0
 11
-25.000000000000909
 21
-59.999540874286417
 31
0.0
  0
LINE
  5
934
  8
0
  6
CONTINUOUS
 62
     0
 10
-65.000000000001023
 20
-47.999540874286417
 30
0.0
 11
-25.000000000000949
 21
-47.999540874286417
 31
0.0
  0
LINE
  5
935
  8
0
  6
CONTINUOUS
 62
     0
 10
-65.00000000000108
 20
-35.999540874286417
 30
0.0
 11
-25.000000000000991
 21
-35.999540874286417
 31
0.0
  0
LINE
  5
936
  8
0
  6
CONTINUOUS
 62
     0
 10
-65.000000000001137
 20
-23.999540874286431
 30
0.0
 11
-25.00000000000103
 21
-23.999540874286431
 31
0.0
  0
ENDBLK
  5
938
  8
0
  0
ENDSEC
  0
SECTION
  2
ENTITIES
  0
LINE
  5
1AF
  8
0
  6
DASH
 10
-201.16518339091439
 20
60.499999999999638
 30
0.0
 11
-399.99999999999977
 21
60.500000000000291
 31
0.0
1001
REVIT
1002
{
1070
     1
1000
757686
1002
}
1002
{
1070
     2
1000
-2000051
1002
}
1002
{
1070
     3
1000
118704
1002
}
  0
INSERT
  5
21D
  8
0
  6
CONTINUOUS
  2
*U21
 10
0.0
 20
0.0
 30
0.0
  0
INSERT
  5
235
  8
0
  6
CONTINUOUS
  2
*U22
 10
0.0
 20
0.0
 30
0.0
  0
CIRCLE
  5
237
  8
0
 10
-362.2035489329167
 20
157.80165809160931
 30
0.0
 40
1.999999999999968
1001
REVIT
1002
{
1070
     1
1000
757683
1002
}
1002
{
1070
     5
1000
233013
1002
}
1002
{
1070
     2
1000
-2005028
1002
}
  0
INSERT
  5
238
  8
0
  6
CONTINUOUS
  2
*U23
 10
0.0
 20
0.0
 30
0.0
1001
REVIT
1002
{
1070
     1
1000
757683
1002
}
1002
{
1070
     5
1000
233013
1002
}
1002
{
1070
     2
1000
-2005028
1002
}
1001
ACAD
1002
{
1000
R14_HATCH_DATA
1000
238
1011
1.0
1021
0.0
1031
0.0
1021
0.0
1031
0.0
1011
0.0
1021
0.0
1031
0.0
1021
1.0
1031
0.0
1011
0.0
1021
0.0
1031
0.0
1021
0.0
1031
1.0
1040
0.0
1010
0.0
1020
0.0
1030
1.0
1000
SOLID
1070
     1
1070
     0
1071
        1
1071
        0
1071
        1
1070
     2
1040
-362.2035489329167
1040
157.80165809160931
1040
1.999999999999968
1040
0.0
1040
6.2831853071795862
1070
     1
1071
        0
1070
     0
1070
     1
1071
        1
1040
0.0
1040
0.0
1040
0.0
1002
}
  0
LINE
  5
239
  8
0
 10
-410.50724428044362
 20
291.29778388224702
 30
0.0
 11
-661.42922533329033
 21
291.29174181482892
 31
0.0
1001
REVIT
1002
{
1070
     1
1000
757683
1002
}
1002
{
1070
     5
1000
233013
1002
}
1002
{
1070
     2
1000
-2005028
1002
}
  0
LINE
  5
23A
  8
0
 10
-362.2035489329167
 20
157.80165809160931
 30
0.0
 11
-410.50724428044362
 21
291.29778388224702
 31
0.0
1001
REVIT
1002
{
1070
     1
1000
757683
1002
}
1002
{
1070
     5
1000
233013
1002
}
1002
{
1070
     2
1000
-2005028
1002
}
  0
INSERT
  5
23B
  8
0
  6
CONTINUOUS
  2
*U24
 10
0.0
 20
0.0
 30
0.0
  0
CIRCLE
  5
23C
  8
0
 10
-489.30972406980283
 20
26.32590699876657
 30
0.0
 40
1.9999999999999989
1001
REVIT
1002
{
1070
     1
1000
757684
1002
}
1002
{
1070
     5
1000
233011
1002
}
1002
{
1070
     2
1000
-2005028
1002
}
  0
INSERT
  5
23D
  8
0
  6
CONTINUOUS
  2
*U25
 10
0.0
 20
0.0
 30
0.0
1001
REVIT
1002
{
1070
     1
1000
757684
1002
}
1002
{
1070
     5
1000
233011
1002
}
1002
{
1070
     2
1000
-2005028
1002
}
1001
ACAD
1002
{
1000
R14_HATCH_DATA
1000
23D
1011
1.0
1021
0.0
1031
0.0
1021
0.0
1031
0.0
1011
0.0
1021
0.0
1031
0.0
1021
1.0
1031
0.0
1011
0.0
1021
0.0
1031
0.0
1021
0.0
1031
1.0
1040
0.0
1010
0.0
1020
0.0
1030
1.0
1000
SOLID
1070
     1
1070
     0
1071
        1
1071
        0
1071
        1
1070
     2
1040
-489.30972406980283
1040
26.32590699876657
1040
1.9999999999999989
1040
0.0
1040
6.2831853071795862
1070
     1
1071
        0
1070
     0
1070
     1
1071
        1
1040
0.0
1040
0.0
1040
0.0
1002
}
  0
LINE
  5
23E
  8
0
 10
-489.30972406980283
 20
-22.674291045346539
 30
0.0
 11
-565.42922533329022
 21
-22.680333112764771
 31
0.0
1001
REVIT
1002
{
1070
     1
1000
757684
1002
}
1002
{
1070
     5
1000
233011
1002
}
1002
{
1070
     2
1000
-2005028
1002
}
  0
LINE
  5
23F
  8
0
 10
-489.30972406980283
 20
26.32590699876657
 30
0.0
 11
-489.30972406980283
 21
-22.674291045346539
 31
0.0
1001
REVIT
1002
{
1070
     1
1000
757684
1002
}
1002
{
1070
     5
1000
233011
1002
}
1002
{
1070
     2
1000
-2005028
1002
}
  0
INSERT
  5
240
  8
0
  6
CONTINUOUS
  2
*U26
 10
0.0
 20
0.0
 30
0.0
  0
CIRCLE
  5
241
  8
0
 10
-409.36626717916442
 20
-37.624725471943002
 30
0.0
 40
2.0
1001
REVIT
1002
{
1070
     1
1000
757685
1002
}
1002
{
1070
     5
1000
233013
1002
}
1002
{
1070
     2
1000
-2005028
1002
}
  0
INSERT
  5
242
  8
0
  6
CONTINUOUS
  2
*U27
 10
0.0
 20
0.0
 30
0.0
1001
REVIT
1002
{
1070
     1
1000
757685
1002
}
1002
{
1070
     5
1000
233013
1002
}
1002
{
1070
     2
1000
-2005028
1002
}
1001
ACAD
1002
{
1000
R14_HATCH_DATA
1000
242
1011
1.0
1021
0.0
1031
0.0
1021
0.0
1031
0.0
1011
0.0
1021
0.0
1031
0.0
1021
1.0
1031
0.0
1011
0.0
1021
0.0
1031
0.0
1021
0.0
1031
1.0
1040
0.0
1010
0.0
1020
0.0
1030
1.0
1000
SOLID
1070
     1
1070
     0
1071
        1
1071
        0
1071
        1
1070
     2
1040
-409.36626717916442
1040
-37.624725471943002
1040
2.0
1040
0.0
1040
6.2831853071795862
1070
     1
1071
        0
1070
     0
1070
     1
1071
        1
1040
0.0
1040
0.0
1040
0.0
1002
}
  0
LINE
  5
243
  8
0
 10
-409.36626717916442
 20
-126.21694131678029
 30
0.0
 11
-648.92922533329022
 21
-126.2229833841986
 31
0.0
1001
REVIT
1002
{
1070
     1
1000
757685
1002
}
1002
{
1070
     5
1000
233013
1002
}
1002
{
1070
     2
1000
-2005028
1002
}
  0
LINE
  5
244
  8
0
 10
-409.36626717916442
 20
-37.624725471943002
 30
0.0
 11
-409.36626717916442
 21
-126.21694131678029
 31
0.0
1001
REVIT
1002
{
1070
     1
1000
757685
1002
}
1002
{
1070
     5
1000
233013
1002
}
1002
{
1070
     2
1000
-2005028
1002
}
  0
INSERT
  5
245
  8
0
  6
CONTINUOUS
  2
*U28
 10
0.0
 20
0.0
 30
0.0
  0
CIRCLE
  5
246
  8
0
 10
147.7446788065383
 20
347.30330878290738
 30
0.0
 40
2.0
1001
REVIT
1002
{
1070
     1
1000
757694
1002
}
1002
{
1070
     5
1000
233013
1002
}
1002
{
1070
     2
1000
-2005028
1002
}
  0
INSERT
  5
247
  8
0
  6
CONTINUOUS
  2
*U29
 10
0.0
 20
0.0
 30
0.0
1001
REVIT
1002
{
1070
     1
1000
757694
1002
}
1002
{
1070
     5
1000
233013
1002
}
1002
{
1070
     2
1000
-2005028
1002
}
1001
ACAD
1002
{
1000
R14_HATCH_DATA
1000
247
1011
1.0
1021
0.0
1031
0.0
1021
0.0
1031
0.0
1011
0.0
1021
0.0
1031
0.0
1021
1.0
1031
0.0
1011
0.0
1021
0.0
1031
0.0
1021
0.0
1031
1.0
1040
0.0
1010
0.0
1020
0.0
1030
1.0
1000
SOLID
1070
     1
1070
     0
1071
        1
1071
        0
1071
        1
1070
     2
1040
147.7446788065383
1040
347.30330878290738
1040
2.0
1040
0.0
1040
6.2831853071795862
1070
     1
1071
        0
1070
     0
1070
     1
1071
        1
1040
0.0
1040
0.0
1040
0.0
1002
}
  0
LINE
  5
248
  8
0
 10
147.7446788065383
 20
391.1249855058656
 30
0.0
 11
73.570118983164988
 21
391.1249855058656
 31
0.0
1001
REVIT
1002
{
1070
     1
1000
757694
1002
}
1002
{
1070
     5
1000
233013
1002
}
1002
{
1070
     2
1000
-2005028
1002
}
  0
LINE
  5
249
  8
0
 10
147.7446788065383
 20
347.30330878290738
 30
0.0
 11
147.7446788065383
 21
391.1249855058656
 31
0.0
1001
REVIT
1002
{
1070
     1
1000
757694
1002
}
1002
{
1070
     5
1000
233013
1002
}
1002
{
1070
     2
1000
-2005028
1002
}
  0
INSERT
  5
24A
  8
0
  6
CONTINUOUS
  2
*U30
 10
0.0
 20
0.0
 30
0.0
  0
CIRCLE
  5
24B
  8
0
 10
90.332413679843498
 20
260.21190890082471
 30
0.0
 40
2.0
1001
REVIT
1002
{
1070
     1
1000
757695
1002
}
1002
{
1070
     5
1000
233013
1002
}
1002
{
1070
     2
1000
-2005028
1002
}
  0
INSERT
  5
24C
  8
0
  6
CONTINUOUS
  2
*U31
 10
0.0
 20
0.0
 30
0.0
1001
REVIT
1002
{
1070
     1
1000
757695
1002
}
1002
{
1070
     5
1000
233013
1002
}
1002
{
1070
     2
1000
-2005028
1002
}
1001
ACAD
1002
{
1000
R14_HATCH_DATA
1000
24C
1011
1.0
1021
0.0
1031
0.0
1021
0.0
1031
0.0
1011
0.0
1021
0.0
1031
0.0
1021
1.0
1031
0.0
1011
0.0
1021
0.0
1031
0.0
1021
0.0
1031
1.0
1040
0.0
1010
0.0
1020
0.0
1030
1.0
1000
SOLID
1070
     1
1070
     0
1071
        1
1071
        0
1071
        1
1070
     2
1040
90.332413679843498
1040
260.21190890082471
1040
2.0
1040
0.0
1040
6.2831853071795862
1070
     1
1071
        0
1070
     0
1070
     1
1071
        1
1040
0.0
1040
0.0
1040
0.0
1002
}
  0
LINE
  5
24D
  8
0
 10
90.332413679843498
 20
350.62631158080347
 30
0.0
 11
11.370118983164989
 21
350.62631158080347
 31
0.0
1001
REVIT
1002
{
1070
     1
1000
757695
1002
}
1002
{
1070
     5
1000
233013
1002
}
1002
{
1070
     2
1000
-2005028
1002
}
  0
LINE
  5
24E
  8
0
 10
90.332413679843498
 20
260.21190890082471
 30
0.0
 11
90.332413679843498
 21
350.62631158080347
 31
0.0
1001
REVIT
1002
{
1070
     1
1000
757695
1002
}
1002
{
1070
     5
1000
233013
1002
}
1002
{
1070
     2
1000
-2005028
1002
}
  0
INSERT
  5
24F
  8
0
  6
CONTINUOUS
  2
*U32
 10
0.0
 20
0.0
 30
0.0
  0
CIRCLE
  5
250
  8
0
 10
-297.47633949514523
 20
159.3720038482721
 30
0.0
 40
2.000000000000004
1001
REVIT
1002
{
1070
     1
1000
757698
1002
}
1002
{
1070
     5
1000
233013
1002
}
1002
{
1070
     2
1000
-2005028
1002
}
  0
INSERT
  5
251
  8
0
  6
CONTINUOUS
  2
*U33
 10
0.0
 20
0.0
 30
0.0
1001
REVIT
1002
{
1070
     1
1000
757698
1002
}
1002
{
1070
     5
1000
233013
1002
}
1002
{
1070
     2
1000
-2005028
1002
}
1001
ACAD
1002
{
1000
R14_HATCH_DATA
1000
251
1011
1.0
1021
0.0
1031
0.0
1021
0.0
1031
0.0
1011
0.0
1021
0.0
1031
0.0
1021
1.0
1031
0.0
1011
0.0
1021
0.0
1031
0.0
1021
0.0
1031
1.0
1040
0.0
1010
0.0
1020
0.0
1030
1.0
1000
SOLID
1070
     1
1070
     0
1071
        1
1071
        0
1071
        1
1070
     2
1040
-297.47633949514523
1040
159.3720038482721
1040
2.000000000000004
1040
0.0
1040
6.2831853071795862
1070
     1
1071
        0
1070
     0
1070
     1
1071
        1
1040
0.0
1040
0.0
1040
0.0
1002
}
  0
LINE
  5
252
  8
0
 10
-390.95305395402829
 20
335.1253571334102
 30
0.0
 11
-656.66656953731274
 21
335.119315065992
 31
0.0
1001
REVIT
1002
{
1070
     1
1000
757698
1002
}
1002
{
1070
     5
1000
233013
1002
}
1002
{
1070
     2
1000
-2005028
1002
}
  0
LINE
  5
253
  8
0
 10
-297.47633949514523
 20
159.3720038482721
 30
0.0
 11
-390.95305395402829
 21
335.1253571334102
 31
0.0
1001
REVIT
1002
{
1070
     1
1000
757698
1002
}
1002
{
1070
     5
1000
233013
1002
}
1002
{
1070
     2
1000
-2005028
1002
}
  0
INSERT
  5
254
  8
0
  6
CONTINUOUS
  2
*U34
 10
0.0
 20
0.0
 30
0.0
  0
CIRCLE
  5
255
  8
0
 10
-241.57025492641191
 20
189.5820792749042
 30
0.0
 40
1.999999999999996
1001
REVIT
1002
{
1070
     1
1000
757699
1002
}
1002
{
1070
     5
1000
233013
1002
}
1002
{
1070
     2
1000
-2005028
1002
}
  0
INSERT
  5
256
  8
0
  6
CONTINUOUS
  2
*U35
 10
0.0
 20
0.0
 30
0.0
1001
REVIT
1002
{
1070
     1
1000
757699
1002
}
1002
{
1070
     5
1000
233013
1002
}
1002
{
1070
     2
1000
-2005028
1002
}
1001
ACAD
1002
{
1000
R14_HATCH_DATA
1000
256
1011
1.0
1021
0.0
1031
0.0
1021
0.0
1031
0.0
1011
0.0
1021
0.0
1031
0.0
1021
1.0
1031
0.0
1011
0.0
1021
0.0
1031
0.0
1021
0.0
1031
1.0
1040
0.0
1010
0.0
1020
0.0
1030
1.0
1000
SOLID
1070
     1
1070
     0
1071
        1
1071
        0
1071
        1
1070
     2
1040
-241.57025492641191
1040
189.5820792749042
1040
1.999999999999996
1040
0.0
1040
6.2831853071795862
1070
     1
1071
        0
1070
     0
1070
     1
1071
        1
1040
0.0
1040
0.0
1040
0.0
1002
}
  0
LINE
  5
257
  8
0
 10
-371.58100876829229
 20
375.04246532596829
 30
0.0
 11
-660.86656953731256
 21
375.0364232585502
 31
0.0
1001
REVIT
1002
{
1070
     1
1000
757699
1002
}
1002
{
1070
     5
1000
233013
1002
}
1002
{
1070
     2
1000
-2005028
1002
}
  0
LINE
  5
258
  8
0
 10
-241.57025492641191
 20
189.5820792749042
 30
0.0
 11
-371.58100876829229
 21
375.04246532596829
 31
0.0
1001
REVIT
1002
{
1070
     1
1000
757699
1002
}
1002
{
1070
     5
1000
233013
1002
}
1002
{
1070
     2
1000
-2005028
1002
}
  0
INSERT
  5
259
  8
0
  6
CONTINUOUS
  2
*U36
 10
0.0
 20
0.0
 30
0.0
  0
CIRCLE
  5
25A
  8
0
 10
-426.65902097509399
 20
68.89310540188238
 30
0.0
 40
2.000000000000056
1001
REVIT
1002
{
1070
     1
1000
757701
1002
}
1002
{
1070
     5
1000
233013
1002
}
1002
{
1070
     2
1000
-2005028
1002
}
  0
INSERT
  5
25B
  8
0
  6
CONTINUOUS
  2
*U37
 10
0.0
 20
0.0
 30
0.0
1001
REVIT
1002
{
1070
     1
1000
757701
1002
}
1002
{
1070
     5
1000
233013
1002
}
1002
{
1070
     2
1000
-2005028
1002
}
1001
ACAD
1002
{
1000
R14_HATCH_DATA
1000
25B
1011
1.0
1021
0.0
1031
0.0
1021
0.0
1031
0.0
1011
0.0
1021
0.0
1031
0.0
1021
1.0
1031
0.0
1011
0.0
1021
0.0
1031
0.0
1021
0.0
1031
1.0
1040
0.0
1010
0.0
1020
0.0
1030
1.0
1000
SOLID
1070
     1
1070
     0
1071
        1
1071
        0
1071
        1
1070
     2
1040
-426.65902097509399
1040
68.89310540188238
1040
2.000000000000056
1040
0.0
1040
6.2831853071795862
1070
     1
1071
        0
1070
     0
1070
     1
1071
        1
1040
0.0
1040
0.0
1040
0.0
1002
}
  0
LINE
  5
25C
  8
0
 10
-426.65902097509399
 20
-79.425198390295066
 30
0.0
 11
-614.43574984939812
 21
-79.425198390295066
 31
0.0
1001
REVIT
1002
{
1070
     1
1000
757701
1002
}
1002
{
1070
     5
1000
233013
1002
}
1002
{
1070
     2
1000
-2005028
1002
}
  0
LINE
  5
25D
  8
0
 10
-426.65902097509399
 20
68.89310540188238
 30
0.0
 11
-426.65902097509399
 21
-79.425198390295066
 31
0.0
1001
REVIT
1002
{
1070
     1
1000
757701
1002
}
1002
{
1070
     5
1000
233013
1002
}
1002
{
1070
     2
1000
-2005028
1002
}
  0
INSERT
  5
25E
  8
0
  6
CONTINUOUS
  2
*U38
 10
0.0
 20
0.0
 30
0.0
  0
LINE
  5
46A
  8
0
 10
205.04537822804139
 20
432.0763392636045
 30
0.0
 11
205.04537822804161
 21
294.91953377688469
 31
0.0
  0
LINE
  5
46B
  8
0
 10
205.04537822804181
 20
152.07633926360461
 30
0.0
 11
205.04537822804161
 21
289.23314475032453
 31
0.0
  0
LINE
  5
46C
  8
0
 10
205.04537822804139
 20
432.0763392636045
 30
0.0
 11
205.04537822804161
 21
294.91953377688469
 31
0.0
  0
LINE
  5
46D
  8
0
 10
205.04537822804161
 20
294.91953377688469
 30
0.0
 11
196.7992828993369
 21
293.46552468494002
 31
0.0
  0
LINE
  5
46E
  8
0
 10
196.79928289933679
 20
293.46552468494002
 30
0.0
 11
213.2914735567463
 21
290.6871538422692
 31
0.0
  0
LINE
  5
46F
  8
0
 10
213.2914735567463
 20
290.6871538422692
 30
0.0
 11
205.04537822804161
 21
289.23314475032453
 31
0.0
  0
LINE
  5
470
  8
0
 10
205.04537822804161
 20
289.23314475032453
 30
0.0
 11
205.04537822804181
 21
152.07633926360461
 31
0.0
  0
LINE
  5
471
  8
0
 10
115.99999999999859
 20
-228.78154087428589
 30
0.0
 11
22.843194513278689
 21
-228.78154087428589
 31
0.0
  0
LINE
  5
472
  8
0
 10
-76.000000000001393
 20
-228.78154087428589
 30
0.0
 11
17.156805486718518
 21
-228.78154087428589
 31
0.0
  0
LINE
  5
473
  8
0
 10
115.99999999999859
 20
-228.78154087428589
 30
0.0
 11
22.843194513278689
 21
-228.78154087428589
 31
0.0
  0
LINE
  5
474
  8
0
 10
22.843194513278689
 20
-228.78154087428589
 30
0.0
 11
21.389185421334059
 21
-220.5354455455811
 31
0.0
  0
LINE
  5
475
  8
0
 10
21.389185421334059
 20
-220.5354455455811
 30
0.0
 11
18.610814578663149
 21
-237.02763620299061
 31
0.0
  0
LINE
  5
476
  8
0
 10
18.610814578663149
 20
-237.02763620299061
 30
0.0
 11
17.156805486718518
 21
-228.78154087428589
 31
0.0
  0
LINE
  5
477
  8
0
 10
17.156805486718518
 20
-228.78154087428589
 30
0.0
 11
-76.000000000001393
 21
-228.78154087428589
 31
0.0
  0
LINE
  5
478
  8
0
 10
-362.0967098506834
 20
155.681640439479
 30
0.0
 11
-365.85548033382833
 21
154.31355986617561
 31
0.0
1001
REVIT
1002
{
1070
     3
1000
211597
1002
}
  0
LINE
  5
479
  8
0
 10
-355.38327037787582
 20
132.8509104808258
 30
0.0
 11
-363.24973367436752
 21
154.4638407589012
 31
0.0
1001
REVIT
1002
{
1070
     3
1000
211597
1002
}
  0
LINE
  5
47A
  8
0
 10
-355.16907640161833
 20
130.80051516759079
 30
0.0
 11
-355.38327037787582
 21
132.8509104808258
 31
0.0
1001
REVIT
1002
{
1070
     3
1000
211597
1002
}
  0
LINE
  5
47B
  8
0
 10
-356.32296299866158
 20
132.50889033749999
 30
0.0
 11
-355.16907640161833
 21
130.80051516759079
 31
0.0
1001
REVIT
1002
{
1070
     3
1000
211597
1002
}
  0
LINE
  5
47C
  8
0
 10
-364.1894262951534
 20
154.12182061557539
 30
0.0
 11
-356.32296299866158
 21
132.50889033749999
 31
0.0
1001
REVIT
1002
{
1070
     3
1000
211597
1002
}
  0
LINE
  5
47D
  8
0
 10
-365.31692921068583
 20
153.7114431152732
 30
0.0
 11
-364.1894262951534
 21
154.12182061557539
 31
0.0
1001
REVIT
1002
{
1070
     3
1000
211597
1002
}
  0
LINE
  5
47E
  8
0
 10
-363.24973367436752
 20
154.4638407589012
 30
0.0
 11
-362.1222307588356
 21
154.8742182592033
 31
0.0
1001
REVIT
1002
{
1070
     3
1000
211597
1002
}
  0
LINE
  5
47F
  8
0
 10
-362.0967098506834
 20
155.681640439479
 30
0.0
 11
-362.1222307588356
 21
154.8742182592033
 31
0.0
1001
REVIT
1002
{
1070
     3
1000
211597
1002
}
  0
LINE
  5
480
  8
0
 10
-365.85548033382833
 20
154.31355986617561
 30
0.0
 11
-365.31692921068583
 21
153.7114431152732
 31
0.0
1001
REVIT
1002
{
1070
     3
1000
211597
1002
}
  0
LINE
  5
481
  8
0
 10
-45.60305177118439
 20
275.75321934138941
 30
0.0
 11
-49.361822254329219
 21
274.38513876808588
 31
0.0
1001
REVIT
1002
{
1070
     3
1000
211597
1002
}
  0
LINE
  5
482
  8
0
 10
-38.88961229837674
 20
252.9224893827361
 30
0.0
 11
-46.756075594868499
 21
274.5354196608115
 31
0.0
1001
REVIT
1002
{
1070
     3
1000
211597
1002
}
  0
LINE
  5
483
  8
0
 10
-38.675418322119299
 20
250.87209406950109
 30
0.0
 11
-38.88961229837674
 21
252.9224893827361
 31
0.0
1001
REVIT
1002
{
1070
     3
1000
211597
1002
}
  0
LINE
  5
484
  8
0
 10
-39.829304919162617
 20
252.58046923941029
 30
0.0
 11
-38.675418322119299
 21
250.87209406950109
 31
0.0
1001
REVIT
1002
{
1070
     3
1000
211597
1002
}
  0
LINE
  5
485
  8
0
 10
-47.69576821565439
 20
274.19339951748577
 30
0.0
 11
-39.829304919162617
 21
252.58046923941029
 31
0.0
1001
REVIT
1002
{
1070
     3
1000
211597
1002
}
  0
LINE
  5
486
  8
0
 10
-48.823271131186821
 20
273.7830220171835
 30
0.0
 11
-47.69576821565439
 21
274.19339951748577
 31
0.0
1001
REVIT
1002
{
1070
     3
1000
211597
1002
}
  0
LINE
  5
487
  8
0
 10
-46.756075594868499
 20
274.5354196608115
 30
0.0
 11
-45.6285726793365
 21
274.9457971611136
 31
0.0
1001
REVIT
1002
{
1070
     3
1000
211597
1002
}
  0
LINE
  5
488
  8
0
 10
-45.60305177118439
 20
275.75321934138941
 30
0.0
 11
-45.6285726793365
 21
274.9457971611136
 31
0.0
1001
REVIT
1002
{
1070
     3
1000
211597
1002
}
  0
LINE
  5
489
  8
0
 10
-49.361822254329219
 20
274.38513876808588
 30
0.0
 11
-48.823271131186821
 21
273.7830220171835
 31
0.0
1001
REVIT
1002
{
1070
     3
1000
211597
1002
}
  0
LINE
  5
48A
  8
0
 10
-425.28795755206772
 20
121.8369417834555
 30
0.0
 11
-411.19256824027912
 21
126.9672439333406
 31
0.0
1001
REVIT
1002
{
1070
     3
1000
735057
1002
}
  0
LINE
  5
48B
  8
0
 10
-411.19256824027912
 20
126.9672439333406
 30
0.0
 11
-413.92872938688453
 21
134.48478489962801
 31
0.0
1001
REVIT
1002
{
1070
     3
1000
735057
1002
}
  0
LINE
  5
48C
  8
0
 10
-413.92872938688453
 20
134.4847848996279
 30
0.0
 11
-428.02411869867308
 21
129.354482749743
 31
0.0
1001
REVIT
1002
{
1070
     3
1000
735057
1002
}
  0
LINE
  5
48D
  8
0
 10
-425.28795755206772
 20
121.8369417834555
 30
0.0
 11
-425.28795755206778
 21
71.836941783455558
 31
0.0
1001
REVIT
1002
{
1070
     3
1000
735057
1002
}
  0
LINE
  5
48E
  8
0
 10
-425.28795755206778
 20
71.836941783455558
 30
0.0
 11
-430.28795755206778
 21
63.176687745611169
 31
0.0
1001
REVIT
1002
{
1070
     3
1000
735057
1002
}
  0
LINE
  5
48F
  8
0
 10
-428.02411869867308
 20
129.354482749743
 30
0.0
 11
-430.09467105949318
 21
137.0818893600555
 31
0.0
1001
REVIT
1002
{
1070
     3
1000
735057
1002
}
  0
LINE
  5
490
  8
0
 10
-430.09467105949318
 20
137.0818893600555
 30
0.0
 11
-362.33599915308099
 21
149.029571394128
 31
0.0
1001
REVIT
1002
{
1070
     3
1000
735057
1002
}
  0
LINE
  5
491
  8
0
 10
-361.33599915308088
 20
149.20589837483641
 30
0.0
 11
-331.61389575827218
 21
154.44670712674761
 31
0.0
1001
REVIT
1002
{
1070
     3
1000
735057
1002
}
  0
ARC
  5
492
  8
0
 10
98.000000000000384
 20
182.61516235161761
 30
0.0
 40
1.9999999999999969
 50
0.0
 51
90.0
1001
REVIT
1002
{
1070
     3
1000
224526
1002
}
  0
ARC
  5
493
  8
0
 10
2.000000000000433
 20
182.6151623516177
 30
0.0
 40
1.999999999999996
 50
90.0
 51
180.0
1001
REVIT
1002
{
1070
     3
1000
224526
1002
}
  0
ARC
  5
494
  8
0
 10
2.0000000000004401
 20
136.6151623516177
 30
0.0
 40
1.999999999999992
 50
180.0
 51
269.9999999999996
1001
REVIT
1002
{
1070
     3
1000
224526
1002
}
  0
ARC
  5
495
  8
0
 10
98.000000000000426
 20
136.6151623516177
 30
0.0
 40
2.0000000000000071
 50
269.9999999999996
 51
0.0
1001
REVIT
1002
{
1070
     3
1000
224526
1002
}
  0
LINE
  5
496
  8
0
 10
98.000000000000384
 20
184.6151623516177
 30
0.0
 11
2.000000000000433
 21
184.6151623516177
 31
0.0
1001
REVIT
1002
{
1070
     3
1000
224526
1002
}
  0
LINE
  5
497
  8
0
 10
0.0000000000004334
 20
182.6151623516177
 30
0.0
 11
0.0000000000004334
 21
136.6151623516177
 31
0.0
1001
REVIT
1002
{
1070
     3
1000
224526
1002
}
  0
LINE
  5
498
  8
0
 10
2.000000000000433
 20
134.6151623516177
 30
0.0
 11
98.000000000000426
 21
134.6151623516177
 31
0.0
1001
REVIT
1002
{
1070
     3
1000
224526
1002
}
  0
LINE
  5
499
  8
0
 10
100.0000000000004
 20
136.6151623516177
 30
0.0
 11
100.0000000000004
 21
182.61516235161761
 31
0.0
1001
REVIT
1002
{
1070
     3
1000
224526
1002
}
  0
LINE
  5
49A
  8
0
 10
2.00000000000027
 20
182.6151623516179
 30
0.0
 11
98.000000000000455
 21
136.6151623516177
 31
0.0
  0
LINE
  5
49B
  8
0
 10
98.000000000000455
 20
182.6151623516179
 30
0.0
 11
2.0000000000004761
 21
136.6151623516177
 31
0.0
  0
ARC
  5
49C
  8
0
 10
-429.30641026183991
 20
128.35176075830799
 30
0.0
 40
1.9998164687607141
 50
194.2550828609873
 51
284.25386146021162
1001
REVIT
1002
{
1070
     3
1000
773559
1002
}
  0
ARC
  5
49D
  8
0
 10
-431.2748674693396
 20
139.8133534150279
 30
0.0
 40
2.061185854296518
 50
106.5441499783542
 51
174.0067856682837
1001
REVIT
1002
{
1070
     3
1000
773559
1002
}
  0
ARC
  5
49E
  8
0
 10
-65.082244398422404
 20
259.30750903608862
 30
0.0
 40
2.6309694047366432
 50
292.52920943933998
 51
105.1851741764457
1001
REVIT
1002
{
1070
     3
1000
773559
1002
}
  0
ARC
  5
49F
  8
0
 10
-77.368433492292979
 20
261.66375280873177
 30
0.0
 40
3.000041348827275
 50
106.72467685786231
 51
285.05975211205993
1001
REVIT
1002
{
1070
     3
1000
773559
1002
}
  0
LINE
  5
4A0
  8
0
 10
-414.22995615073881
 20
130.1184362339169
 30
0.0
 11
-428.81401822269578
 21
126.41351000349979
 31
0.0
1001
REVIT
1002
{
1070
     3
1000
773559
1002
}
  0
LINE
  5
4A1
  8
0
 10
-431.2446505196574
 20
127.8593274006831
 30
0.0
 11
-433.57559218796331
 21
137.03402060572111
 31
0.0
1001
REVIT
1002
{
1070
     3
1000
773559
1002
}
  0
LINE
  5
4A2
  8
0
 10
-433.57559218796331
 20
137.03402060572111
 30
0.0
 11
-433.61923091906851
 21
137.84794010106671
 31
0.0
1001
REVIT
1002
{
1070
     3
1000
773559
1002
}
  0
LINE
  5
4A3
  8
0
 10
-433.61923091906851
 20
137.84794010106671
 30
0.0
 11
-433.32478743402032
 21
140.02856322975541
 31
0.0
1001
REVIT
1002
{
1070
     3
1000
773559
1002
}
  0
LINE
  5
4A4
  8
0
 10
-431.86179857331331
 20
141.7892074089101
 30
0.0
 11
-71.070006710014894
 21
254.06612249438641
 31
0.0
1001
REVIT
1002
{
1070
     3
1000
773559
1002
}
  0
LINE
  5
4A5
  8
0
 10
-71.070006710022653
 20
254.06612249438399
 30
0.0
 11
-64.074176954658469
 21
256.87732385024702
 31
0.0
1001
REVIT
1002
{
1070
     3
1000
773559
1002
}
  0
LINE
  5
4A6
  8
0
 10
-65.771399110792032
 20
261.8466163183985
 30
0.0
 11
-76.58894402789312
 21
258.76674672148198
 31
0.0
1001
REVIT
1002
{
1070
     3
1000
773559
1002
}
  0
LINE
  5
4A7
  8
0
 10
-78.231764451585505
 20
264.53688833449462
 30
0.0
 11
-47.378311094970847
 21
273.32119324676279
 31
0.0
1001
REVIT
1002
{
1070
     3
1000
773559
1002
}
  0
LINE
  5
4A8
  8
0
 10
-46.414055451542929
 20
273.59572704002551
 30
0.0
 11
-31.987377546009839
 21
277.70315501991848
 31
0.0
1001
REVIT
1002
{
1070
     3
1000
773559
1002
}
  0
ARC
  5
4A9
  8
0
 10
-79.57193272620674
 20
256.8592691394079
 30
0.0
 40
1.999816468760713
 50
193.60334853111249
 51
283.60212713033638
1001
REVIT
1002
{
1070
     3
1000
773559
1002
}
  0
ARC
  5
4AA
  8
0
 10
-81.409890814788298
 20
268.34251084508281
 30
0.0
 40
2.0611858542965171
 50
105.89241564848029
 51
173.355051338409
1001
REVIT
1002
{
1070
     3
1000
773559
1002
}
  0
ARC
  5
4AB
  8
0
 10
286.11824788358598
 20
383.66361769052372
 30
0.0
 40
2.6309694047366419
 50
291.87747510946639
 51
104.5334398465732
1001
REVIT
1002
{
1070
     3
1000
773559
1002
}
  0
ARC
  5
4AC
  8
0
 10
273.8596551100473
 20
386.15946030956269
 30
0.0
 40
3.0000413488272741
 50
106.072942527989
 51
284.40801778218707
1001
REVIT
1002
{
1070
     3
1000
773559
1002
}
  0
LINE
  5
4AD
  8
0
 10
-64.476358624040444
 20
258.45434071343198
 30
0.0
 11
-79.101619493935345
 21
254.91554298269821
 31
0.0
1001
REVIT
1002
{
1070
     3
1000
773559
1002
}
  0
LINE
  5
4AE
  8
0
 10
-81.515648856588797
 20
256.38891447192901
 30
0.0
 11
-83.742080669812623
 21
265.58952781282528
 31
0.0
1001
REVIT
1002
{
1070
     3
1000
773559
1002
}
  0
LINE
  5
4AF
  8
0
 10
-83.742080669812623
 20
265.58952781282528
 30
0.0
 11
-83.776458516493378
 21
266.403891028727
 31
0.0
1001
REVIT
1002
{
1070
     3
1000
773559
1002
}
  0
LINE
  5
4B0
  8
0
 10
-83.776458516493378
 20
266.403891028727
 30
0.0
 11
-83.457230223324103
 21
268.58102388918809
 31
0.0
1001
REVIT
1002
{
1070
     3
1000
773559
1002
}
  0
LINE
  5
4B1
  8
0
 10
-81.974309271585184
 20
270.32491315833278
 30
0.0
 11
280.07125392783649
 21
378.49067902098648
 31
0.0
1001
REVIT
1002
{
1070
     3
1000
773559
1002
}
  0
LINE
  5
4B2
  8
0
 10
280.07125392782882
 20
378.49067902098409
 30
0.0
 11
287.09860757042128
 21
381.22212329301038
 31
0.0
1001
REVIT
1002
{
1070
     3
1000
773559
1002
}
  0
LINE
  5
4B3
  8
0
 10
285.4580192488512
 20
386.21039961258469
 30
0.0
 11
274.60614167386279
 21
383.25377520881352
 31
0.0
1001
REVIT
1002
{
1070
     3
1000
773559
1002
}
  0
LINE
  5
4B4
  8
0
 10
273.02906095571558
 20
389.04223006198202
 30
0.0
 11
319.42021801357811
 21
401.68163058324922
 31
0.0
1001
REVIT
1002
{
1070
     3
1000
773559
1002
}
  0
LINE
  5
4B5
  8
0
  6
DASH
 10
205.6308167664717
 20
351.8407014075126
 30
0.0
 11
-42.077856253986909
 21
261.68211765848582
 31
0.0
1001
REVIT
1002
{
1070
     3
1000
217411
1002
}
  0
LINE
  5
4B6
  8
0
  6
DASH
 10
-43.017548874772672
 20
261.34009751516021
 30
0.0
 11
-238.4771703474523
 21
190.19861329816541
 31
0.0
1001
REVIT
1002
{
1070
     3
1000
217411
1002
}
  0
LINE
  5
4B7
  8
0
 10
210.39787372003039
 20
351.44741269870781
 30
0.0
 11
-41.393815967371829
 21
259.80273241701411
 31
0.0
  0
LINE
  5
4B8
  8
0
 10
-42.33350858815799
 20
259.46071227368878
 30
0.0
 11
-359.45501063109049
 21
144.03792488441499
 31
0.0
  0
LINE
  5
4B9
  8
0
 10
-360.39470325187642
 20
143.69590474108981
 30
0.0
 11
-424.25278278111091
 21
120.4534645750731
 31
0.0
  0
LINE
  5
4BA
  8
0
 10
-424.25278278111091
 20
120.4534645750731
 30
0.0
 11
-419.12248063123138
 21
106.3580752632823
 31
0.0
  0
LINE
  5
4BB
  8
0
 10
-419.12248063123138
 20
106.3580752632823
 30
0.0
 11
215.52817586990989
 21
337.35202338691698
 31
0.0
  0
LINE
  5
4BC
  8
0
 10
-421.68763170617109
 20
113.4057699191773
 30
0.0
 11
-357.8295521769333
 21
136.64821008519499
 31
0.0
1001
REVIT
1002
{
1070
     3
1000
456193
1002
}
  0
LINE
  5
4BD
  8
0
 10
-356.8898595561472
 20
136.99023022852029
 30
0.0
 11
-39.726494607810757
 21
252.42825446928109
 31
0.0
1001
REVIT
1002
{
1070
     3
1000
456193
1002
}
  0
LINE
  5
4BE
  8
0
 10
-38.870527797833063
 20
252.73980090963241
 30
0.0
 11
212.96302479497041
 21
344.39971804281191
 31
0.0
1001
REVIT
1002
{
1070
     3
1000
456193
1002
}
  0
LINE
  5
4BF
  8
0
 10
-422.5426820644845
 20
115.7550014711429
 30
0.0
 11
-358.6846025352479
 21
138.99744163716031
 31
0.0
1001
REVIT
1002
{
1070
     3
1000
456193
1002
}
  0
LINE
  5
4C0
  8
0
 10
-357.7449099144618
 20
139.33946178048561
 30
0.0
 11
-40.623407871529189
 21
254.7622491697594
 31
0.0
1001
REVIT
1002
{
1070
     3
1000
456193
1002
}
  0
LINE
  5
4C1
  8
0
 10
-39.683715250743212
 20
255.1042693130847
 30
0.0
 11
212.1079744366568
 21
346.74894959477763
 31
0.0
1001
REVIT
1002
{
1070
     3
1000
456193
1002
}
  0
LINE
  5
4C2
  8
0
 10
-420.83258134785802
 20
111.05653836721289
 30
0.0
 11
-356.97450181861927
 21
134.29897853323109
 31
0.0
1001
REVIT
1002
{
1070
     3
1000
456193
1002
}
  0
LINE
  5
4C3
  8
0
 10
-356.03480919783323
 20
134.64099867655639
 30
0.0
 11
213.81807515328271
 21
342.05048649084728
 31
0.0
1001
REVIT
1002
{
1070
     3
1000
456193
1002
}
  0
LINE
  5
4C4
  8
0
 10
-419.97753098954479
 20
108.7073068152478
 30
0.0
 11
-355.97966562124668
 21
132.0006248658554
 31
0.0
1001
REVIT
1002
{
1070
     3
1000
456193
1002
}
  0
LINE
  5
4C5
  8
0
 10
-355.31954467857781
 20
132.24088924000239
 30
0.0
 11
214.67312551159591
 21
339.7012549388823
 31
0.0
1001
REVIT
1002
{
1070
     3
1000
456193
1002
}
  0
LINE
  5
4C6
  8
0
 10
-423.39773242279767
 20
118.10423302310799
 30
0.0
 11
-359.53965289356211
 21
141.34667318912511
 31
0.0
1001
REVIT
1002
{
1070
     3
1000
456193
1002
}
  0
LINE
  5
4C7
  8
0
 10
-358.59996027277612
 20
141.6886933324503
 30
0.0
 11
-41.47845822984339
 21
257.11148072172421
 31
0.0
1001
REVIT
1002
{
1070
     3
1000
456193
1002
}
  0
LINE
  5
4C8
  8
0
 10
-40.538765609057513
 20
257.45350086504942
 30
0.0
 11
211.25292407834371
 21
349.09818114674272
 31
0.0
1001
REVIT
1002
{
1070
     3
1000
456193
1002
}
  0
LINE
  5
4C9
  8
0
  6
DASH
 10
-238.4771703474523
 20
190.1986132981653
 30
0.0
 11
-362.9740753363501
 21
153.70647569971379
 31
0.0
1001
REVIT
1002
{
1070
     3
1000
217411
1002
}
  0
LINE
  5
4CA
  8
0
  6
DASH
 10
-363.93566513243439
 20
153.4246175510707
 30
0.0
 11
-392.01718296032999
 21
145.19345218482869
 31
0.0
1001
REVIT
1002
{
1070
     3
1000
217411
1002
}
  0
INSERT
  5
4CB
  8
0
  6
CONTINUOUS
  2
*U39
 10
0.0
 20
0.0
 30
0.0
1001
ACAD
1002
{
1000
R14_HATCH_DATA
1000
4CB
1011
1.0
1021
0.0
1031
0.0
1021
0.0
1031
0.0
1011
0.0
1021
0.0
1031
0.0
1021
1.0
1031
0.0
1011
0.0
1021
0.0
1031
0.0
1021
0.0
1031
1.0
1040
0.0
1010
0.0
1020
0.0
1030
1.0
1000
SOLID
1070
     1
1070
     0
1071
        1
1071
        0
1071
      135
1070
     1
1040
-469.3767542582118
1040
27.579763373488049
1040
-421.24999999999949
1040
27.579763373488049
1070
     1
1040
-421.24999999999949
1040
27.579763373488049
1040
-420.53824762596781
1040
27.673467351193089
1070
     1
1040
-420.5382476259677
1040
27.673467351193089
1040
-419.87499999999972
1040
27.948193513080788
1070
     1
1040
-419.87499999999972
1040
27.948193513080788
1040
-419.30545635173678
1040
28.385219725224971
1070
     1
1040
-419.30545635173678
1040
28.385219725224971
1040
-418.8684301395927
1040
28.954763373487872
1070
     1
1040
-418.86843013959282
1040
28.954763373487872
1040
-418.59370397770499
1040
29.618010999455819
1070
     1
1040
-418.59370397770499
1040
29.618010999455819
1040
-418.5
1040
30.329763373487559
1070
     1
1040
-418.5
1040
30.329763373487559
1040
-418.5
1040
101.82976337348791
1070
     1
1040
-418.5
1040
101.82976337348791
1040
-418.57666689084959
1040
102.4121062249688
1070
     1
1040
-418.57666689084959
1040
102.4121062249688
1040
-418.80144284148508
1040
102.9547633734883
1070
     1
1040
-418.80144284148508
1040
102.9547633734883
1040
-419.1590097423304
1040
103.42075363115821
1070
     1
1040
-419.1590097423304
1040
103.42075363115821
1040
-419.6250000000004
1040
103.7783205320036
1070
     1
1040
-419.6250000000004
1040
103.7783205320036
1040
-420.16765714851999
1040
104.00309648263909
1070
     1
1040
-420.16765714851988
1040
104.00309648263909
1040
-420.75000000000091
1040
104.0797633734888
1070
     1
1040
-420.75000000000091
1040
104.0797633734888
1040
-421.33234285148183
1040
104.00309648263909
1070
     1
1040
-421.33234285148183
1040
104.00309648263909
1040
-421.87500000000131
1040
103.7783205320036
1070
     1
1040
-421.87500000000131
1040
103.7783205320036
1040
-422.34099025767131
1040
103.42075363115821
1070
     1
1040
-422.34099025767131
1040
103.42075363115821
1040
-422.69855715851662
1040
102.9547633734883
1070
     1
1040
-422.69855715851662
1040
102.9547633734883
1040
-422.92333310915211
1040
102.4121062249688
1070
     1
1040
-422.92333310915211
1040
102.4121062249688
1040
-423.00000000000171
1040
101.82976337348791
1070
     1
1040
-423.00000000000171
1040
101.82976337348791
1040
-423.00000000000171
1040
96.829763373487879
1070
     1
1040
-423.00000000000171
1040
96.829763373487879
1040
-422.00000000000182
1040
96.829763373487879
1070
     1
1040
-422.00000000000182
1040
96.829763373487879
1040
-421.95740728286307
1040
102.1532871798662
1070
     1
1040
-421.95740728286307
1040
102.1532871798662
1040
-421.8325317547322
1040
102.4547633734883
1070
     1
1040
-421.8325317547322
1040
102.4547633734883
1040
-421.6338834764847
1040
102.7136468499717
1070
     1
1040
-421.6338834764847
1040
102.7136468499717
1040
-421.37500000000131
1040
102.9122951282191
1070
     1
1040
-421.37500000000131
1040
102.9122951282191
1040
-421.07352380637923
1040
103.0371706563501
1070
     1
1040
-421.07352380637928
1040
103.0371706563501
1040
-420.75000000000091
1040
103.0797633734888
1070
     1
1040
-420.75000000000091
1040
103.0797633734888
1040
-420.42647619362242
1040
103.0371706563501
1070
     1
1040
-420.42647619362242
1040
103.0371706563501
1040
-420.12500000000051
1040
102.9122951282191
1070
     1
1040
-420.12500000000051
1040
102.9122951282191
1040
-419.86611652351701
1040
102.7136468499717
1070
     1
1040
-419.86611652351701
1040
102.7136468499717
1040
-419.6674682452695
1040
102.4547633734883
1070
     1
1040
-419.6674682452695
1040
102.4547633734883
1040
-419.54259271713858
1040
102.1532871798663
1070
     1
1040
-419.54259271713869
1040
102.1532871798663
1040
-419.5
1040
101.82976337348791
1070
     1
1040
-419.5
1040
101.82976337348791
1040
-419.5
1040
30.32976337348757
1070
     1
1040
-419.5
1040
30.329763373487559
1040
-419.55962980399408
1040
29.8768300445583
1070
     1
1040
-419.55962980399408
1040
29.8768300445583
1040
-419.73445554337718
1040
29.454763373487829
1070
     1
1040
-419.73445554337718
1040
29.454763373487829
1040
-420.01256313292339
1040
29.092326506411428
1070
     1
1040
-420.01256313292339
1040
29.092326506411428
1040
-420.37499999999972
1040
28.814218916865201
1070
     1
1040
-420.37499999999972
1040
28.814218916865201
1040
-420.79706667107018
1040
28.63939317748217
1070
     1
1040
-420.79706667107018
1040
28.63939317748217
1040
-421.2499999999996
1040
28.579763373488088
1070
     1
1040
-421.2499999999996
1040
28.579763373488088
1040
-506.20148842848772
1040
28.620621537920339
1070
     1
1040
-506.20148842848772
1040
28.620621537920339
1040
-506.55987808020649
1040
28.74128815738754
1070
     1
1040
-506.55987808020649
1040
28.74128815738754
1040
-506.88397797065852
1040
28.936128698655899
1070
     1
1040
-506.88397797065852
1040
28.936128698655899
1040
-507.15865424085342
1040
29.19604507387027
1070
     1
1040
-507.15865424085342
1040
29.196045073870259
1040
-507.53165929623168
1040
29.811240700424712
1070
     1
1040
-507.53165929623168
1040
29.811240700424719
1040
-509.01219600538229
1040
32.598824382050481
1070
     1
1040
-509.01219600538229
1040
32.598824382050481
1040
-509.38939259777572
1040
33.539535772956221
1070
     1
1040
-509.38939259777578
1040
33.539535772956221
1040
-509.54957605925091
1040
34.73023530763362
1070
     1
1040
-509.5495760592508
1040
34.73023530763362
1040
-509.5116035300332
1040
35.55129089359108
1070
     1
1040
-509.5116035300332
1040
35.551290893591073
1040
-509.03670586989517
1040
38.628797378606109
1070
     1
1040
-509.03670586989517
1040
38.628797378606109
1040
-509.02364036180438
1040
39.21580050329321
1070
     1
1040
-509.02364036180438
1040
39.21580050329321
1040
-509.16289155138168
1040
39.786197279314379
1070
     1
1040
-509.16289155138168
1040
39.786197279314379
1040
-509.4449767867373
1040
40.301145136760589
1070
     1
1040
-509.4449767867373
1040
40.301145136760589
1040
-510.17297513037943
1040
41.295434089374957
1070
     1
1040
-510.17297513037931
1040
41.295434089374972
1040
-511.90093776720801
1040
43.329116958735277
1070
     1
1040
-511.90093776720801
1040
43.32911695873527
1040
-513.32427053601486
1040
44.699923505517241
1070
     1
1040
-513.32427053601486
1040
44.699923505517241
1040
-517.21732634137095
1040
48.040724439539233
1070
     1
1040
-517.21732634137095
1040
48.040724439539233
1040
-521.38544660620175
1040
52.428762137489713
1070
     1
1040
-521.38544660620175
1040
52.428762137489713
1040
-524.57927913876836
1040
57.569533979795793
1070
     1
1040
-524.57927913876836
1040
57.569533979795793
1040
-526.76158993427498
1040
63.621743305421909
1070
     1
1040
-526.76158993427498
1040
63.621743305421909
1040
-532.11421778546571
1040
84.563471362838243
1070
     1
1040
-532.11421778546583
1040
84.563471362838243
1040
-533.45388163464077
1040
88.539297746761619
1070
     1
1040
-533.45388163464077
1040
88.539297746761619
1040
-534.91718226849844
1040
91.651786898314555
1070
     1
1040
-534.91718226849844
1040
91.651786898314555
1040
-536.96755145751047
1040
94.873264710560747
1070
     1
1040
-536.96755145751047
1040
94.873264710560747
1040
-539.40304121386703
1040
97.814407813629188
1070
     1
1040
-539.40304121386703
1040
97.814407813629188
1040
-542.17024696520878
1040
100.40184962631361
1070
     1
1040
-542.17024696520878
1040
100.40184962631361
1040
-545.28697023565599
1040
102.66004567568299
1070
     1
1040
-545.28697023565599
1040
102.66004567568299
1040
-550.72550438932012
1040
106.0894909963006
1070
     1
1040
-550.72550438932012
1040
106.0894909963006
1040
-551.04848381425109
1040
106.3515965396535
1070
     1
1040
-551.04848381425109
1040
106.3515965396535
1040
-551.30048257956332
1040
106.68252197999669
1070
     1
1040
-551.30048257956332
1040
106.68252197999669
1040
-551.4672640901133
1040
107.0635717832033
1070
     1
1040
-551.4672640901133
1040
107.0635717832033
1040
-551.53940607416848
1040
107.4732186542053
1070
     1
1040
-551.53940607416848
1040
107.4732186542053
1040
-551.51283289183993
1040
107.8883197151123
1070
     1
1040
-551.51283289183993
1040
107.8883197151123
1040
-549.42687257387513
1040
119.04639555532491
1070
     1
1040
-549.42687257387513
1040
119.04639555532491
1040
-549.21997576354249
1040
119.32103536810089
1070
     1
1040
-549.21997576354249
1040
119.32103536810089
1040
-548.9122624766519
1040
119.4744819384709
1070
     1
1040
-548.9122624766519
1040
119.4744819384709
1040
-548.74033711720233
1040
119.4944533974017
1070
     1
1040
-548.74033711720233
1040
119.4944533974017
1040
-535.71719249341265
1040
119.46889776711861
1070
     1
1040
-535.71719249341265
1040
119.46889776711861
1040
-535.5363067772397
1040
119.3939724502401
1070
     1
1040
-535.5363067772397
1040
119.3939724502401
1040
-535.38097669134982
1040
119.2747834832917
1070
     1
1040
-535.38097669134982
1040
119.2747834832917
1040
-535.2617877244013
1040
119.1194533974017
1070
     1
1040
-535.2617877244013
1040
119.1194533974017
1040
-535.18686240752288
1040
118.93856768122861
1070
     1
1040
-535.18686240752288
1040
118.93856768122861
1040
-535.16130677723959
1040
118.7444533974017
1070
     1
1040
-535.16130677723959
1040
118.7444533974017
1040
-535.16130677723959
1040
116.0837292962775
1070
     1
1040
-535.16130677723959
1040
116.0837292962775
1040
-534.1613067772397
1040
116.0837292962775
1070
     1
1040
-534.1613067772397
1040
116.0837292962775
1040
-534.1613067772397
1040
118.7444533974017
1070
     1
1040
-534.1613067772397
1040
118.7444533974017
1040
-534.22093658123379
1040
119.1973867263312
1070
     1
1040
-534.22093658123379
1040
119.1973867263312
1040
-534.39576232061677
1040
119.6194533974017
1070
     1
1040
-534.39576232061677
1040
119.6194533974017
1040
-534.67386991016315
1040
119.9818902644781
1070
     1
1040
-534.67386991016315
1040
119.9818902644781
1040
-535.0363067772397
1040
120.2599978540245
1070
     1
1040
-535.0363067772397
1040
120.2599978540245
1040
-535.45837344831034
1040
120.4348235934076
1070
     1
1040
-535.45837344831034
1040
120.4348235934076
1040
-535.9113067772397
1040
120.4944533974017
1070
     1
1040
-535.9113067772397
1040
120.4944533974017
1040
-548.74033711720244
1040
120.49445339739989
1070
     1
1040
-548.74033711720233
1040
120.49445339739989
1040
-549.14149628925065
1040
120.44785332656549
1070
     1
1040
-549.14149628925065
1040
120.44785332656549
1040
-549.52129083748957
1040
120.3105349044645
1070
     1
1040
-549.5212908374898
1040
120.3105349044645
1040
-549.85949395866169
1040
120.0898113290359
1070
     1
1040
-549.85949395866169
1040
120.0898113290359
1040
-550.13809389344874
1040
119.7974377251367
1070
     1
1040
-550.13809389344874
1040
119.7974377251367
1040
-550.34225318277038
1040
119.44898509922599
1070
     1
1040
-550.34225318277049
1040
119.44898509922599
1040
-550.46109886966224
1040
119.0630110707894
1070
     1
1040
-550.46109886966224
1040
119.0630110707894
1040
-552.49612532181629
1040
108.0703526713355
1070
     1
1040
-552.49612532181629
1040
108.0703526713355
1040
-552.53788317976102
1040
107.4180510041962
1070
     1
1040
-552.53788317976102
1040
107.4180510041962
1040
-552.42451720481733
1040
106.7743202069075
1070
     1
1040
-552.42451720481733
1040
106.7743202069075
1040
-552.16243197395295
1040
106.17552765901149
1070
     1
1040
-552.16243197395295
1040
106.17552765901149
1040
-551.76643391417679
1040
105.6555019670439
1070
     1
1040
-551.76643391417679
1040
105.6555019670439
1040
-551.25889481785691
1040
105.24362182748941
1070
     1
1040
-551.25889481785691
1040
105.24362182748941
1040
-545.82036066419266
1040
101.8141765068718
1070
     1
1040
-545.82036066419266
1040
101.8141765068718
1040
-542.8066695679754
1040
99.630631566572575
1070
     1
1040
-542.8066695679754
1040
99.630631566572575
1040
-540.13094169271096
1040
97.128725020423119
1070
     1
1040
-540.13094169271096
1040
97.128725020423119
1040
-537.77596399441575
1040
94.284809788530552
1070
     1
1040
-537.77596399441575
1040
94.284809788530552
1040
-535.79337560504041
1040
91.169827110573507
1070
     1
1040
-535.79337560504041
1040
91.169827110573507
1040
-534.2348156565356
1040
87.854718226230531
1070
     1
1040
-534.2348156565356
1040
87.854718226230517
1040
-533.01201290891106
1040
84.037826551045185
1070
     1
1040
-533.01201290891106
1040
84.037826551045185
1040
-527.6355012576239
1040
63.002655037347871
1070
     1
1040
-527.6355012576239
1040
63.002655037347871
1040
-525.47796880109775
1040
57.130948878792111
1070
     1
1040
-525.47796880109775
1040
57.130948878792111
1040
-522.17678055315071
1040
51.817377982963173
1070
     1
1040
-522.17678055315071
1040
51.817377982963173
1040
-517.86855540546867
1040
47.281843219535219
1070
     1
1040
-517.86855540546867
1040
47.281843219535219
1040
-513.97549960011224
1040
43.941042285513227
1070
     1
1040
-513.97549960011224
1040
43.941042285513227
1040
-512.35064184144483
1040
42.367638086027164
1070
     1
1040
-512.35064184144483
1040
42.367638086027171
1040
-510.979823720681
1040
40.704675803501537
1070
     1
1040
-510.979823720681
1040
40.704675803501537
1040
-510.095111357397
1040
39.424304707861531
1070
     1
1040
-510.095111357397
1040
39.424304707861531
1040
-510.0177495854096
1040
39.107417610072048
1070
     1
1040
-510.0177495854096
1040
39.107417610072048
1040
-510.02500820101562
1040
38.781304763023769
1070
     1
1040
-510.02500820101562
1040
38.781304763023769
1040
-510.49990586115359
1040
35.703798278008598
1070
     1
1040
-510.49990586115359
1040
35.703798278008598
1040
-510.55658691972599
1040
34.478220189911809
1070
     1
1040
-510.55658691972599
1040
34.478220189911809
1040
-510.35196631157879
1040
33.268515763555769
1070
     1
1040
-510.35196631157879
1040
33.268515763555769
1040
-509.89535991026042
1040
32.129759869301573
1070
     1
1040
-509.89535991026042
1040
32.129759869301573
1040
-508.25424477485387
1040
29.03983596342777
1070
     1
1040
-508.25424477485399
1040
29.03983596342777
1040
-507.92043150051842
1040
28.548206045517489
1070
     1
1040
-507.92043150051842
1040
28.548206045517489
1040
-507.48879736164059
1040
28.139766027323429
1070
     1
1040
-507.48879736164059
1040
28.139766027323429
1040
-506.97949753378742
1040
27.83358803390167
1070
     1
1040
-506.97949753378742
1040
27.83358803390167
1040
-506.4163137953721
1040
27.643969060453031
1070
     1
1040
-506.4163137953721
1040
27.643969060453031
1040
-505.82554403644008
1040
27.579763373488049
1070
     1
1040
-505.82554403644008
1040
27.579763373488049
1040
-491.1971065369807
1040
27.579763373488049
1070
     1
1040
-491.1971065369807
1040
27.579763373488049
1040
-469.3767542582118
1040
27.579763373488049
1071
        0
1070
     0
1070
     1
1071
        1
1040
-418.4999999999996
1040
27.579763373488049
1040
0.0
1002
}
  0
LINE
  5
4CC
  8
0
 10
-535.16130677723913
 20
116.0837292962773
 30
0.0
 11
-534.16130677723913
 21
116.0837292962773
 31
0.0
1001
REVIT
1002
{
1070
     3
1000
476644
1002
}
  0
LINE
  5
4CD
  8
0
 10
-534.16130677723913
 20
116.0837292962773
 30
0.0
 11
-534.16130677723913
 21
118.7444533974016
 31
0.0
1001
REVIT
1002
{
1070
     3
1000
476644
1002
}
  0
ARC
  5
4CE
  8
0
 10
-535.91130677723913
 20
118.7444533974016
 30
0.0
 40
1.75
 50
0.0
 51
90.0
1001
REVIT
1002
{
1070
     3
1000
476644
1002
}
  0
LINE
  5
4CF
  8
0
 10
-535.91130677723913
 20
120.4944533974016
 30
0.0
 11
-548.74033711720176
 21
120.4944533974016
 31
0.0
1001
REVIT
1002
{
1070
     3
1000
476644
1002
}
  0
ARC
  5
4D0
  8
0
 10
-548.74033711720176
 20
118.7444533973984
 30
0.0
 40
1.7500000000014491
 50
90.0
 51
169.5118037983689
1001
REVIT
1002
{
1070
     3
1000
476644
1002
}
  0
LINE
  5
4D1
  8
0
 10
-550.46109886966178
 20
119.0630110707892
 30
0.0
 11
-552.49612532181573
 21
108.0703526713354
 31
0.0
1001
REVIT
1002
{
1070
     3
1000
476644
1002
}
  0
ARC
  5
4D2
  8
0
 10
-549.79207113937957
 20
107.5697620417213
 30
0.0
 40
2.7500000000013221
 50
169.5118037983689
 51
237.76518004707859
1001
REVIT
1002
{
1070
     3
1000
476644
1002
}
  0
LINE
  5
4D3
  8
0
 10
-551.25889481785634
 20
105.24362182748931
 30
0.0
 11
-545.82036066419221
 21
101.8141765068717
 31
0.0
1001
REVIT
1002
{
1070
     3
1000
476644
1002
}
  0
ARC
  5
4D4
  8
0
 10
-561.42203069889138
 20
77.072503319141745
 30
0.0
 40
29.250000000001211
 50
14.33762585345529
 51
57.765180047081607
1001
REVIT
1002
{
1070
     3
1000
476644
1002
}
  0
LINE
  5
4D5
  8
0
 10
-533.08307110491728
 20
84.315836055608713
 30
0.0
 11
-527.63550125762345
 21
63.002655037347793
 31
0.0
1001
REVIT
1002
{
1070
     3
1000
476644
1002
}
  0
ARC
  5
4D6
  8
0
 10
-497.84326168447262
 20
70.617440734658857
 30
0.0
 40
30.749999999999812
 50
194.33762585345491
 51
229.3656677408556
1001
REVIT
1002
{
1070
     3
1000
476644
1002
}
  0
LINE
  5
4D7
  8
0
 10
-517.8685554054681
 20
47.281843219535219
 30
0.0
 11
-513.97549960011168
 21
43.941042285513198
 31
0.0
1001
REVIT
1002
{
1070
     3
1000
476644
1002
}
  0
ARC
  5
4D8
  8
0
 10
-526.51165908398605
 20
29.332578800436831
 30
0.0
 40
19.249999999998529
 50
36.210836948253387
 51
49.365667740855713
1001
REVIT
1002
{
1070
     3
1000
476644
1002
}
  0
LINE
  5
4D9
  8
0
 10
-510.9798237206806
 20
40.704675803501573
 30
0.0
 11
-510.25182537703847
 21
39.710386850887012
 31
0.0
1001
REVIT
1002
{
1070
     3
1000
476644
1002
}
  0
ARC
  5
4DA
  8
0
 10
-511.26038611491458
 20
38.971938993545692
 30
0.0
 40
1.2499999999989371
 50
351.2277387767702
 51
36.210836948254382
1001
REVIT
1002
{
1070
     3
1000
476644
1002
}
  0
LINE
  5
4DB
  8
0
 10
-510.02500820101523
 20
38.781304763023769
 30
0.0
 11
-510.49990586115308
 21
35.70379827800862
 31
0.0
1001
REVIT
1002
{
1070
     3
1000
476644
1002
}
  0
ARC
  5
4DC
  8
0
 10
-504.81716745721218
 20
34.826880817607432
 30
0.0
 40
5.7499999999984253
 50
171.22773877677221
 51
207.97358915472461
1001
REVIT
1002
{
1070
     3
1000
476644
1002
}
  0
LINE
  5
4DD
  8
0
 10
-509.89535991025991
 20
32.129759869301509
 30
0.0
 11
-508.25424477485359
 21
29.039835963427741
 31
0.0
1001
REVIT
1002
{
1070
     3
1000
476644
1002
}
  0
ARC
  5
4DE
  8
0
 10
-505.82554403643979
 20
30.329763373486891
 30
0.0
 40
2.74999999999884
 50
207.97358915472421
 51
270.0
1001
REVIT
1002
{
1070
     3
1000
476644
1002
}
  0
LINE
  5
4DF
  8
0
 10
-505.82554403643968
 20
27.579763373488049
 30
0.0
 11
-421.2499999999992
 21
27.579763373488049
 31
0.0
1001
REVIT
1002
{
1070
     3
1000
476644
1002
}
  0
ARC
  5
4E0
  8
0
 10
-421.24999999999909
 20
30.32976337348758
 30
0.0
 40
2.7499999999995191
 50
270.0
 51
0.0
1001
REVIT
1002
{
1070
     3
1000
476644
1002
}
  0
LINE
  5
4E1
  8
0
 10
-418.4999999999996
 20
30.32976337348758
 30
0.0
 11
-418.4999999999996
 21
101.82976337348779
 31
0.0
1001
REVIT
1002
{
1070
     3
1000
476644
1002
}
  0
ARC
  5
4E2
  8
0
 10
-420.7500000000004
 20
101.82976337348779
 30
0.0
 40
2.2500000000009148
 50
0.0000000000002036
 51
179.9999999999996
1001
REVIT
1002
{
1070
     3
1000
476644
1002
}
  0
LINE
  5
4E3
  8
0
 10
-423.00000000000142
 20
101.82976337348779
 30
0.0
 11
-423.00000000000142
 21
96.829763373487779
 31
0.0
1001
REVIT
1002
{
1070
     3
1000
476644
1002
}
  0
LINE
  5
4E4
  8
0
 10
-423.00000000000142
 20
96.829763373487779
 30
0.0
 11
-422.00000000000131
 21
96.829763373487779
 31
0.0
1001
REVIT
1002
{
1070
     3
1000
476644
1002
}
  0
LINE
  5
4E5
  8
0
 10
-422.00000000000131
 20
96.829763373487779
 30
0.0
 11
-422.00000000000131
 21
101.82976337348779
 31
0.0
1001
REVIT
1002
{
1070
     3
1000
476644
1002
}
  0
ARC
  5
4E6
  8
0
 10
-420.7500000000004
 20
101.82976337348779
 30
0.0
 40
1.2500000000009139
 50
0.0000000000014249
 51
180.0
1001
REVIT
1002
{
1070
     3
1000
476644
1002
}
  0
LINE
  5
4E7
  8
0
 10
-419.49999999999949
 20
101.82976337348779
 30
0.0
 11
-419.49999999999949
 21
30.32976337348758
 31
0.0
1001
REVIT
1002
{
1070
     3
1000
476644
1002
}
  0
ARC
  5
4E8
  8
0
 10
-421.24999999999909
 20
30.329763373487609
 30
0.0
 40
1.749999999999555
 50
270.0
 51
359.9999999999992
1001
REVIT
1002
{
1070
     3
1000
476644
1002
}
  0
LINE
  5
4E9
  8
0
 10
-421.2499999999992
 20
28.579763373488039
 30
0.0
 11
-505.82554403644019
 21
28.579763373488039
 31
0.0
1001
REVIT
1002
{
1070
     3
1000
476644
1002
}
  0
ARC
  5
4EA
  8
0
 10
-505.82554403643979
 20
30.32976337348687
 30
0.0
 40
1.7499999999988161
 50
207.97358915472421
 51
270.0
1001
REVIT
1002
{
1070
     3
1000
476644
1002
}
  0
LINE
  5
4EB
  8
0
 10
-507.3710808699754
 20
29.508900476176731
 30
0.0
 11
-509.01219600538178
 21
32.598824382050459
 31
0.0
1001
REVIT
1002
{
1070
     3
1000
476644
1002
}
  0
ARC
  5
4EC
  8
0
 10
-504.81716745721189
 20
34.826880817607467
 30
0.0
 40
4.7499999999986988
 50
171.22773877677321
 51
207.97358915472401
1001
REVIT
1002
{
1070
     3
1000
476644
1002
}
  0
LINE
  5
4ED
  8
0
 10
-509.51160353003269
 20
35.551290893590981
 30
0.0
 11
-509.03670586989477
 21
38.628797378606151
 31
0.0
1001
REVIT
1002
{
1070
     3
1000
476644
1002
}
  0
ARC
  5
4EE
  8
0
 10
-511.26038611491458
 20
38.971938993545692
 30
0.0
 40
2.249999999998916
 50
351.22773877677059
 51
36.210836948253878
1001
REVIT
1002
{
1070
     3
1000
476644
1002
}
  0
LINE
  5
4EF
  8
0
 10
-509.44497678673679
 20
40.301145136760553
 30
0.0
 11
-510.17297513037892
 21
41.295434089375078
 31
0.0
1001
REVIT
1002
{
1070
     3
1000
476644
1002
}
  0
ARC
  5
4F0
  8
0
 10
-526.5116590839865
 20
29.332578800436419
 30
0.0
 40
20.24999999999908
 50
36.210836948253061
 51
49.365667740855443
1001
REVIT
1002
{
1070
     3
1000
476644
1002
}
  0
LINE
  5
4F1
  8
0
 10
-513.32427053601441
 20
44.699923505517198
 30
0.0
 11
-517.21732634137072
 21
48.040724439539268
 31
0.0
1001
REVIT
1002
{
1070
     3
1000
476644
1002
}
  0
ARC
  5
4F2
  8
0
 10
-497.84326168447262
 20
70.617440734658899
 30
0.0
 40
29.749999999999851
 50
194.33762585345551
 51
229.3656677408558
1001
REVIT
1002
{
1070
     3
1000
476644
1002
}
  0
LINE
  5
4F3
  8
0
 10
-526.6666479381712
 20
63.250290344577422
 30
0.0
 11
-532.11421778546526
 21
84.563471362838357
 31
0.0
1001
REVIT
1002
{
1070
     3
1000
476644
1002
}
  0
ARC
  5
4F4
  8
0
 10
-561.42203069889138
 20
77.072503319141759
 30
0.0
 40
30.250000000001151
 50
14.33762585345489
 51
57.765180047078744
1001
REVIT
1002
{
1070
     3
1000
476644
1002
}
  0
LINE
  5
4F5
  8
0
 10
-545.28697023565553
 20
102.66004567568289
 30
0.0
 11
-550.72550438931955
 21
106.0894909963005
 31
0.0
1001
REVIT
1002
{
1070
     3
1000
476644
1002
}
  0
ARC
  5
4F6
  8
0
 10
-549.79207113937957
 20
107.5697620417213
 30
0.0
 40
1.750000000001342
 50
169.5118037983697
 51
237.76518004708171
1001
REVIT
1002
{
1070
     3
1000
476644
1002
}
  0
LINE
  5
4F7
  8
0
 10
-551.51283289183937
 20
107.8883197151122
 30
0.0
 11
-549.47780643968542
 21
118.88097811456601
 31
0.0
1001
REVIT
1002
{
1070
     3
1000
476644
1002
}
  0
ARC
  5
4F8
  8
0
 10
-548.74033711720176
 20
118.7444533973983
 30
0.0
 40
0.7500000000014656
 50
90.000000000003254
 51
169.51180379836609
1001
REVIT
1002
{
1070
     3
1000
476644
1002
}
  0
LINE
  5
4F9
  8
0
 10
-548.74033711720176
 20
119.4944533974016
 30
0.0
 11
-535.91130677723913
 21
119.4944533974016
 31
0.0
1001
REVIT
1002
{
1070
     3
1000
476644
1002
}
  0
ARC
  5
4FA
  8
0
 10
-535.91130677723925
 20
118.7444533974016
 30
0.0
 40
0.750000000000064
 50
0.0000000000026462
 51
89.999999999996746
1001
REVIT
1002
{
1070
     3
1000
476644
1002
}
  0
LINE
  5
4FB
  8
0
 10
-535.16130677723913
 20
118.7444533974016
 30
0.0
 11
-535.16130677723913
 21
116.0837292962773
 31
0.0
1001
REVIT
1002
{
1070
     3
1000
476644
1002
}
  0
INSERT
  5
4FC
  8
0
  6
CONTINUOUS
  2
*X40
 10
0.0
 20
0.0
 30
0.0
1001
ACAD
1000
HATCH
1002
{
1070
    19
1000
FP_2
1040
1.0
1040
3.1415926535897931
1000
R14_HATCH_DATA
1000
4FC
1011
1.0
1021
0.0
1031
0.0
1021
0.0
1031
0.0
1011
0.0
1021
0.0
1031
0.0
1021
1.0
1031
0.0
1011
0.0
1021
0.0
1031
0.0
1021
0.0
1031
1.0
1040
0.0
1010
0.0
1020
0.0
1030
1.0
1000
FP_2
1070
     0
1070
     0
1071
        1
1071
        0
1071
       20
1070
     1
1040
-400.50000000000011
1040
-36.499999999999943
1040
-400.50000000000011
1040
-22.00000000000032
1070
     1
1040
-400.50000000000011
1040
-22.00000000000032
1040
-408.00000000000011
1040
-22.00000000000032
1070
     1
1040
-408.00000000000011
1040
-22.00000000000032
1040
-408.00000000000011
1040
-17.000000000000369
1070
     1
1040
-408.00000000000011
1040
-17.000000000000369
1040
-400.50000000000028
1040
-14.00000000000032
1070
     1
1040
-400.50000000000028
1040
-14.00000000000032
1040
-400.50000000000028
1040
85.999999999999829
1070
     1
1040
-400.50000000000023
1040
85.999999999999829
1040
-408.00000000000023
1040
88.999999999999815
1070
     1
1040
-408.00000000000023
1040
88.999999999999815
1040
-408.00000000000023
1040
93.999999999999773
1070
     1
1040
-408.00000000000023
1040
93.999999999999773
1040
-400.50000000000011
1040
93.999999999999773
1070
     1
1040
-400.50000000000011
1040
93.999999999999773
1040
-400.50000000000011
1040
108.4999999999991
1070
     1
1040
-400.50000000000011
1040
108.4999999999991
1040
-413.23759078292392
1040
108.4999999999992
1070
     1
1040
-413.23759078292392
1040
108.4999999999991
1040
-418.48829615404998
1040
106.5888995360099
1070
     1
1040
-418.48829615404998
1040
106.5888995360099
1040
-418.50000000000011
1040
106.3580752632824
1070
     1
1040
-418.50000000000011
1040
106.3580752632824
1040
-418.50000000000028
1040
-34.499999999999851
1070
     1
1040
-418.50000000000028
1040
-34.499999999999851
1040
-418.4318516525783
1040
-35.017638090204962
1070
     1
1040
-418.4318516525783
1040
-35.017638090204962
1040
-418.23205080756901
1040
-35.499999999999901
1070
     1
1040
-418.23205080756901
1040
-35.499999999999901
1040
-417.91421356237328
1040
-35.9142135623729
1070
     1
1040
-417.91421356237328
1040
-35.9142135623729
1040
-417.50000000000023
1040
-36.232050807568811
1070
     1
1040
-417.50000000000023
1040
-36.232050807568811
1040
-417.0176380902052
1040
-36.431851652578032
1070
     1
1040
-417.0176380902052
1040
-36.431851652578032
1040
-416.50000000000023
1040
-36.499999999999943
1070
     1
1040
-416.50000000000023
1040
-36.499999999999943
1040
-400.50000000000023
1040
-36.499999999999943
1071
        0
1070
     0
1070
     2
1040
3.1415926535897931
1040
1.0
1070
     0
1070
     1
1040
0.785398163397448
1040
0.0000000000001137
1040
0.0000000000000568
1040
-2.828427124746189
1040
2.8284271247461898
1070
     0
1071
        1
1040
-409.49999999999977
1040
53.500000000000107
1040
0.0
1002
}
  0
LINE
  5
4FD
  8
0
 10
-416.49999999999989
 20
-36.499999999999851
 30
0.0
 11
-400.49999999999989
 21
-36.499999999999851
 31
0.0
1001
REVIT
1002
{
1070
     3
1000
224252
1002
}
  0
LINE
  5
4FE
  8
0
 10
-400.49999999999989
 20
-36.499999999999851
 30
0.0
 11
-400.49999999999989
 21
-22.000000000000309
 31
0.0
1001
REVIT
1002
{
1070
     3
1000
224252
1002
}
  0
LINE
  5
4FF
  8
0
 10
-400.49999999999989
 20
-22.000000000000309
 30
0.0
 11
-407.99999999999989
 21
-22.000000000000309
 31
0.0
1001
REVIT
1002
{
1070
     3
1000
224252
1002
}
  0
LINE
  5
500
  8
0
 10
-407.99999999999989
 20
-22.000000000000309
 30
0.0
 11
-407.99999999999989
 21
-17.000000000000298
 31
0.0
1001
REVIT
1002
{
1070
     3
1000
224252
1002
}
  0
LINE
  5
501
  8
0
 10
-407.99999999999989
 20
-17.000000000000298
 30
0.0
 11
-400.49999999999989
 21
-14.000000000000369
 31
0.0
1001
REVIT
1002
{
1070
     3
1000
224252
1002
}
  0
LINE
  5
502
  8
0
 10
-400.49999999999989
 20
-14.000000000000281
 30
0.0
 11
-400.49999999999989
 21
85.999999999999801
 31
0.0
1001
REVIT
1002
{
1070
     3
1000
224252
1002
}
  0
LINE
  5
503
  8
0
 10
-400.49999999999989
 20
85.999999999999801
 30
0.0
 11
-407.99999999999989
 21
88.999999999999815
 31
0.0
1001
REVIT
1002
{
1070
     3
1000
224252
1002
}
  0
LINE
  5
504
  8
0
 10
-407.99999999999989
 20
88.999999999999815
 30
0.0
 11
-407.99999999999989
 21
93.999999999999673
 31
0.0
1001
REVIT
1002
{
1070
     3
1000
224252
1002
}
  0
LINE
  5
505
  8
0
 10
-407.99999999999989
 20
93.999999999999673
 30
0.0
 11
-400.49999999999989
 21
93.999999999999673
 31
0.0
1001
REVIT
1002
{
1070
     3
1000
224252
1002
}
  0
LINE
  5
506
  8
0
 10
-400.49999999999989
 20
93.999999999999673
 30
0.0
 11
-400.49999999999989
 21
108.4999999999991
 31
0.0
1001
REVIT
1002
{
1070
     3
1000
224252
1002
}
  0
LINE
  5
507
  8
0
 10
-400.49999999999989
 20
108.4999999999991
 30
0.0
 11
-413.23759078292358
 21
108.4999999999991
 31
0.0
1001
REVIT
1002
{
1070
     3
1000
224252
1002
}
  0
ARC
  5
508
  8
0
 10
-416.49999999999989
 20
106.4999999999991
 30
0.0
 40
2.0
 50
177.4238892666632
 51
180.0
1001
REVIT
1002
{
1070
     3
1000
224252
1002
}
  0
LINE
  5
509
  8
0
 10
-418.49999999999977
 20
106.4999999999991
 30
0.0
 11
-418.49999999999977
 21
101.82976337348791
 31
0.0
1001
REVIT
1002
{
1070
     3
1000
224252
1002
}
  0
LINE
  5
50A
  8
0
 10
-418.49999999999977
 20
30.32976337348757
 30
0.0
 11
-418.49999999999977
 21
-34.500000000000192
 31
0.0
1001
REVIT
1002
{
1070
     3
1000
224252
1002
}
  0
ARC
  5
50B
  8
0
 10
-416.49999999999989
 20
-34.499999999999822
 30
0.0
 40
2.0000000000000151
 50
180.0000000000004
 51
270.0
1001
REVIT
1002
{
1070
     3
1000
224252
1002
}
  0
LINE
  5
50C
  8
0
 10
-1.999999999999545
 20
-15.49999999999957
 30
0.0
 11
-402.3333333333332
 21
-15.49999999999957
 31
0.0
1001
REVIT
1002
{
1070
     3
1000
211597
1002
}
  0
LINE
  5
50D
  8
0
 10
-402.3333333333332
 20
-21.499999999999741
 30
0.0
 11
-1.999999999999545
 21
-21.499999999999741
 31
0.0
1001
REVIT
1002
{
1070
     3
1000
211597
1002
}
  0
LINE
  5
50E
  8
0
 10
-1.999999999999545
 20
-15.50000000000003
 30
0.0
 11
-1.999999999999545
 21
-21.500000000000028
 31
0.0
1001
REVIT
1002
{
1070
     3
1000
211597
1002
}
  0
LINE
  5
50F
  8
0
 10
-402.3333333333332
 20
-15.499999999999631
 30
0.0
 11
-402.3333333333332
 21
-21.499999999999801
 31
0.0
1001
REVIT
1002
{
1070
     3
1000
211597
1002
}
  0
ARC
  5
510
  8
0
 10
48.999999999999858
 20
-17.000000000000021
 30
0.0
 40
1.9999999999999969
 50
0.0
 51
90.000000000000185
1001
REVIT
1002
{
1070
     3
1000
224526
1002
}
  0
ARC
  5
511
  8
0
 10
2.9999999999999249
 20
-16.99999999999995
 30
0.0
 40
2.0
 50
89.999999999999801
 51
179.9999999999996
1001
REVIT
1002
{
1070
     3
1000
224526
1002
}
  0
ARC
  5
512
  8
0
 10
2.9999999999999361
 20
-87.999999999999986
 30
0.0
 40
1.999999999999994
 50
180.0
 51
269.99999999999977
1001
REVIT
1002
{
1070
     3
1000
224526
1002
}
  0
ARC
  5
513
  8
0
 10
48.999999999999943
 20
-88.0
 30
0.0
 40
1.9999999999999949
 50
269.9999999999996
 51
0.0
1001
REVIT
1002
{
1070
     3
1000
224526
1002
}
  0
LINE
  5
514
  8
0
 10
48.999999999999872
 20
-14.99999999999995
 30
0.0
 11
2.9999999999999361
 21
-14.99999999999995
 31
0.0
1001
REVIT
1002
{
1070
     3
1000
224526
1002
}
  0
LINE
  5
515
  8
0
 10
0.9999999999999253
 20
-16.99999999999994
 30
0.0
 11
0.9999999999999253
 21
-87.999999999999972
 31
0.0
1001
REVIT
1002
{
1070
     3
1000
224526
1002
}
  0
LINE
  5
516
  8
0
 10
2.999999999999921
 20
-90.0
 30
0.0
 11
48.99999999999995
 21
-90.0
 31
0.0
1001
REVIT
1002
{
1070
     3
1000
224526
1002
}
  0
LINE
  5
517
  8
0
 10
50.999999999999943
 20
-88.0
 30
0.0
 11
50.999999999999943
 21
-17.000000000000028
 31
0.0
1001
REVIT
1002
{
1070
     3
1000
224526
1002
}
  0
LINE
  5
518
  8
0
 10
2.9999999999997651
 20
-16.999999999999769
 30
0.0
 11
48.999999999999972
 21
-87.999999999999915
 31
0.0
  0
LINE
  5
519
  8
0
 10
48.99999999999995
 20
-16.999999999999769
 30
0.0
 11
2.999999999999968
 21
-88.0
 31
0.0
  0
ARC
  5
51A
  8
0
 10
-2.9999999999999281
 20
58.499999999999979
 30
0.0
 40
1.9999999999999969
 50
0.0000000000002036
 51
90.000000000000185
1001
REVIT
1002
{
1070
     3
1000
224526
1002
}
  0
ARC
  5
51B
  8
0
 10
-48.999999999999872
 20
58.50000000000005
 30
0.0
 40
2.0
 50
89.999999999999801
 51
179.9999999999998
1001
REVIT
1002
{
1070
     3
1000
224526
1002
}
  0
ARC
  5
51C
  8
0
 10
-48.999999999999858
 20
-12.49999999999998
 30
0.0
 40
1.999999999999994
 50
180.0000000000002
 51
269.99999999999977
1001
REVIT
1002
{
1070
     3
1000
224526
1002
}
  0
ARC
  5
51D
  8
0
 10
-2.9999999999998539
 20
-12.49999999999998
 30
0.0
 40
1.9999999999999949
 50
269.9999999999996
 51
0.0
1001
REVIT
1002
{
1070
     3
1000
224526
1002
}
  0
LINE
  5
51E
  8
0
 10
-2.9999999999999249
 20
60.500000000000057
 30
0.0
 11
-48.999999999999858
 21
60.500000000000057
 31
0.0
1001
REVIT
1002
{
1070
     3
1000
224526
1002
}
  0
LINE
  5
51F
  8
0
 10
-50.999999999999872
 20
58.500000000000057
 30
0.0
 11
-50.999999999999872
 21
-12.49999999999997
 31
0.0
1001
REVIT
1002
{
1070
     3
1000
224526
1002
}
  0
LINE
  5
520
  8
0
 10
-48.999999999999872
 20
-14.49999999999998
 30
0.0
 11
-2.9999999999998499
 21
-14.49999999999998
 31
0.0
1001
REVIT
1002
{
1070
     3
1000
224526
1002
}
  0
LINE
  5
521
  8
0
 10
-0.9999999999998543
 20
-12.49999999999998
 30
0.0
 11
-0.9999999999998543
 21
58.499999999999972
 31
0.0
1001
REVIT
1002
{
1070
     3
1000
224526
1002
}
  0
LINE
  5
522
  8
0
 10
-49.000000000000028
 20
58.500000000000227
 30
0.0
 11
-2.9999999999998219
 21
-12.499999999999909
 31
0.0
  0
LINE
  5
523
  8
0
 10
-2.999999999999829
 20
58.500000000000227
 30
0.0
 11
-48.999999999999822
 21
-12.49999999999998
 31
0.0
  0
LINE
  5
524
  8
0
  6
DASH
 10
-2.000000000000028
 20
-14.49999999999987
 30
0.0
 11
-2.0000000000000302
 21
-15.499999999999639
 31
0.0
1001
REVIT
1002
{
1070
     3
1000
217411
1002
}
  0
LINE
  5
525
  8
0
  6
DASH
 10
-2.0000000000000422
 20
-21.499999999999801
 30
0.0
 11
-2.0000000000004481
 21
-228.78154087428649
 31
0.0
1001
REVIT
1002
{
1070
     3
1000
217411
1002
}
  0
LINE
  5
526
  8
0
 10
-50.999999999999261
 20
60.500000000000597
 30
0.0
 11
-399.99999999999972
 21
60.500000000000597
 31
0.0
1001
REVIT
1002
{
1070
     3
1000
206265
1002
}
  0
LINE
  5
527
  8
0
 10
-399.99999999999972
 20
-14.499999999999559
 30
0.0
 11
-50.999999999999261
 21
-14.499999999999559
 31
0.0
1001
REVIT
1002
{
1070
     3
1000
206265
1002
}
  0
INSERT
  5
528
  8
0
  6
CONTINUOUS
  2
*X41
 10
0.0
 20
0.0
 30
0.0
1001
ACAD
1000
HATCH
1002
{
1070
    19
1000
FP_1
1040
1.0
1040
0.0
1000
R14_HATCH_DATA
1000
528
1011
1.0
1021
0.0
1031
0.0
1021
0.0
1031
0.0
1011
0.0
1021
0.0
1031
0.0
1021
1.0
1031
0.0
1011
0.0
1021
0.0
1031
0.0
1021
0.0
1031
1.0
1040
0.0
1010
0.0
1020
0.0
1030
1.0
1000
FP_1
1070
     0
1070
     0
1071
        1
1071
        0
1071
        4
1070
     1
1040
-65.000000000000199
1040
-243.2815408742868
1040
-25.000000000000352
1040
-243.28154087428649
1070
     1
1040
-25.000000000000352
1040
-243.28154087428661
1040
-25.00000000000103
1040
-23.5
1070
     1
1040
-25.00000000000103
1040
-23.5
1040
-65.000000000001137
1040
-23.500000000000121
1070
     1
1040
-65.000000000001137
1040
-23.500000000000121
1040
-65.000000000000199
1040
-243.2815408742868
1071
        0
1070
     0
1070
     2
1040
0.0
1040
1.0
1070
     0
1070
     1
1040
0.0
1040
0.0
1040
0.0004591257135758
1040
0.0
1040
12.0
1070
     0
1071
        1
1040
-45.0
1040
-243.28154087428649
1040
0.0
1002
}
  0
LINE
  5
529
  8
0
 10
-25.000000000001162
 20
-23.499999999999972
 30
0.0
 11
-65.000000000001151
 21
-23.500000000000082
 31
0.0
1001
REVIT
1002
{
1070
     3
1000
224526
1002
}
  0
LINE
  5
52A
  8
0
 10
-65.000000000001151
 20
-23.500000000000082
 30
0.0
 11
-65.000000000000426
 21
-243.28154087428661
 31
0.0
1001
REVIT
1002
{
1070
     3
1000
224526
1002
}
  0
LINE
  5
52B
  8
0
 10
-25.00000000000043
 20
-243.28154087428649
 30
0.0
 11
-25.000000000001162
 21
-23.499999999999972
 31
0.0
1001
REVIT
1002
{
1070
     3
1000
224526
1002
}
  0
LINE
  5
52C
  8
0
 10
100.0000000000006
 20
-228.78154087428709
 30
0.0
 11
100.00000000000129
 21
134.6151623516177
 31
0.0
1001
REVIT
1002
{
1070
     3
1000
206265
1002
}
  0
LINE
  5
52D
  8
0
 10
0.0000000000012079
 20
134.61516235161781
 30
0.0
 11
0.0000000000004974
 21
-228.78154087428689
 31
0.0
1001
REVIT
1002
{
1070
     3
1000
206265
1002
}
  0
LINE
  5
52E
  8
0
 10
216.06437667600699
 20
333.27691796793351
 30
0.0
 11
-400.00136133997353
 21
109.0473269788767
 31
0.0
1001
REVIT
1002
{
1070
     3
1000
206265
1002
}
  0
LINE
  5
52F
  8
0
 10
-241.00360597300619
 20
60.500000000000668
 30
0.0
 11
0.0000000000003979
 21
148.2181389249952
 31
0.0
1001
REVIT
1002
{
1070
     3
1000
206265
1002
}
  0
LINE
  5
530
  8
0
 10
100.0000000000005
 20
184.6151623516154
 30
0.0
 11
216.0643766760067
 21
226.859140720342
 31
0.0
1001
REVIT
1002
{
1070
     3
1000
206265
1002
}
  0
LINE
  5
531
  8
0
 10
-399.99999999999972
 20
-0.9999999999996732
 30
0.0
 11
-400.49999999999989
 21
-0.9999999999996732
 31
0.0
1001
REVIT
1002
{
1070
     3
1000
211597
1002
}
  0
LINE
  5
532
  8
0
 10
-400.49999999999989
 20
-6.9999999999998357
 30
0.0
 11
-399.99999999999972
 21
-6.9999999999998357
 31
0.0
1001
REVIT
1002
{
1070
     3
1000
211597
1002
}
  0
VIEWPORT
  5
459
 67
     1
  8
0
  6
CONTINUOUS
 10
128.5
 20
97.5
 30
0.0
 40
582.84205479452055
 41
222.18000000000001
 68
     1
 69
     1
1001
ACAD
1000
MVIEW
1002
{
1070
    16
1010
0.0
1020
0.0
1030
0.0
1010
0.0
1020
0.0
1030
1.0
1040
0.0
1040
222.18000000000001
1040
128.5
1040
97.5
1040
50.0
1040
0.0
1040
0.0
1070
     0
1070
   100
1070
     1
1070
     1
1070
     0
1070
     0
1070
     0
1070
     0
1040
0.0
1040
0.0
1040
0.0
1040
10.0
1040
10.0
1040
10.0
1040
10.0
1070
     0
1002
{
1002
}
1002
}
  0
VIEWPORT
  5
45D
 67
     1
  8
0
  6
CONTINUOUS
 10
128.5
 20
97.5
 30
0.0
 40
205.59999999999999
 41
156.0
 68
     2
 69
     2
1001
ACAD
1000
MVIEW
1002
{
1070
    16
1010
0.0
1020
0.0
1030
0.0
1010
0.0
1020
0.0
1030
1.0
1040
0.0
1040
804.60842848578034
1040
-206.11772604920429
1040
94.397399194659016
1040
50.0
1040
0.0
1040
0.0
1070
     0
1070
  1000
1070
     1
1070
     1
1070
     0
1070
     0
1070
     0
1070
     0
1040
0.0
1040
0.0
1040
0.0
1040
1.0
1040
1.0
1040
0.0
1040
0.0
1070
     0
1002
{
1002
}
1002
}
  0
ENDSEC
  0
EOF
