  0
SECTION
  2
HEADER
  9
$ACADVER
  1
AC1009
  9
$INSBASE
 10
0.0
 20
0.0
 30
0.0
  9
$EXTMIN
 10
-368.65058619322059
 20
-284.16467707053681
 30
0.0
  9
$EXTMAX
 10
911.9458738694218
 20
355.65930404191403
 30
0.0
  9
$LIMMIN
 10
0.0
 20
0.0
  9
$LIMMAX
 10
12.0
 20
9.0
  9
$ORTHOMODE
 70
     0
  9
$REGENMODE
 70
     1
  9
$FILLMODE
 70
     1
  9
$QTEXTMODE
 70
     0
  9
$MIRRTEXT
 70
     0
  9
$DRAGMODE
 70
     2
  9
$LTSCALE
 40
1.0
  9
$OSMODE
 70
     0
  9
$ATTMODE
 70
     1
  9
$TEXTSIZE
 40
0.2
  9
$TRACEWID
 40
0.05
  9
$TEXTSTYLE
  7
STANDARD
  9
$CLAYER
  8
0
  9
$CELTYPE
  6
BYLAYER
  9
$CECOLOR
 62
   256
  9
$DIMSCALE
 40
1.0
  9
$DIMASZ
 40
0.18
  9
$DIMEXO
 40
0.0625
  9
$DIMDLI
 40
0.38
  9
$DIMRND
 40
0.0
  9
$DIMDLE
 40
0.0
  9
$DIMEXE
 40
0.18
  9
$DIMTP
 40
0.0
  9
$DIMTM
 40
0.0
  9
$DIMTXT
 40
0.18
  9
$DIMCEN
 40
0.09
  9
$DIMTSZ
 40
0.0
  9
$DIMTOL
 70
     0
  9
$DIMLIM
 70
     0
  9
$DIMTIH
 70
     1
  9
$DIMTOH
 70
     1
  9
$DIMSE1
 70
     0
  9
$DIMSE2
 70
     0
  9
$DIMTAD
 70
     0
  9
$DIMZIN
 70
     0
  9
$DIMBLK
  1

  9
$DIMASO
 70
     1
  9
$DIMSHO
 70
     1
  9
$DIMPOST
  1

  9
$DIMAPOST
  1

  9
$DIMALT
 70
     0
  9
$DIMALTD
 70
     2
  9
$DIMALTF
 40
25.399999999999999
  9
$DIMLFAC
 40
1.0
  9
$DIMTOFL
 70
     0
  9
$DIMTVP
 40
0.0
  9
$DIMTIX
 70
     0
  9
$DIMSOXD
 70
     0
  9
$DIMSAH
 70
     0
  9
$DIMBLK1
  1

  9
$DIMBLK2
  1

  9
$DIMSTYLE
  2
STANDARD
  9
$DIMCLRD
 70
     0
  9
$DIMCLRE
 70
     0
  9
$DIMCLRT
 70
     0
  9
$DIMTFAC
 40
1.0
  9
$DIMGAP
 40
0.09
  9
$LUNITS
 70
     2
  9
$LUPREC
 70
     4
  9
$SKETCHINC
 40
0.1
  9
$FILLETRAD
 40
0.0
  9
$AUNITS
 70
     0
  9
$AUPREC
 70
     0
  9
$MENU
  1
.
  9
$ELEVATION
 40
0.0
  9
$PELEVATION
 40
0.0
  9
$THICKNESS
 40
0.0
  9
$LIMCHECK
 70
     0
  9
$BLIPMODE
 70
     0
  9
$CHAMFERA
 40
0.0
  9
$CHAMFERB
 40
0.0
  9
$SKPOLY
 70
     0
  9
$TDCREATE
 40
2457745.6348784841
  9
$TDUPDATE
 40
2457745.6563263768
  9
$TDINDWG
 40
0.0001355208
  9
$TDUSRTIMER
 40
0.0001355208
  9
$USRTIMER
 70
     1
  9
$ANGBASE
 50
0.0
  9
$ANGDIR
 70
     0
  9
$PDMODE
 70
     0
  9
$PDSIZE
 40
0.0
  9
$PLINEWID
 40
0.0
  9
$COORDS
 70
     2
  9
$SPLFRAME
 70
     0
  9
$SPLINETYPE
 70
     6
  9
$SPLINESEGS
 70
     8
  9
$ATTDIA
 70
     0
  9
$ATTREQ
 70
     0
  9
$HANDLING
 70
     1
  9
$HANDSEED
  5
917
  9
$SURFTAB1
 70
     6
  9
$SURFTAB2
 70
     6
  9
$SURFTYPE
 70
     6
  9
$SURFU
 70
     6
  9
$SURFV
 70
     6
  9
$UCSNAME
  2

  9
$UCSORG
 10
0.0
 20
0.0
 30
0.0
  9
$UCSXDIR
 10
1.0
 20
0.0
 30
0.0
  9
$UCSYDIR
 10
0.0
 20
1.0
 30
0.0
  9
$PUCSNAME
  2

  9
$PUCSORG
 10
0.0
 20
0.0
 30
0.0
  9
$PUCSXDIR
 10
1.0
 20
0.0
 30
0.0
  9
$PUCSYDIR
 10
0.0
 20
1.0
 30
0.0
  9
$USERI1
 70
     0
  9
$USERI2
 70
     0
  9
$USERI3
 70
     0
  9
$USERI4
 70
     0
  9
$USERI5
 70
     0
  9
$USERR1
 40
0.0
  9
$USERR2
 40
0.0
  9
$USERR3
 40
0.0
  9
$USERR4
 40
0.0
  9
$USERR5
 40
0.0
  9
$WORLDVIEW
 70
     1
  9
$SHADEDGE
 70
     3
  9
$SHADEDIF
 70
    70
  9
$TILEMODE
 70
     1
  9
$MAXACTVP
 70
    64
  9
$PLIMCHECK
 70
     0
  9
$PEXTMIN
 10
28.674481201171879
 20
19.966517114639291
 30
0.0
  9
$PEXTMAX
 10
258.07033081054692
 20
179.69865403175351
 30
0.0
  9
$PLIMMIN
 10
-5.069427490234375
 20
-5.1964163780212402
  9
$PLIMMAX
 10
291.89889526367187
 20
204.77691125869751
  9
$UNITMODE
 70
     0
  9
$VISRETAIN
 70
     1
  9
$PLINEGEN
 70
     0
  9
$PSLTSCALE
 70
     1
  0
ENDSEC
  0
SECTION
  2
TABLES
  0
TABLE
  2
VPORT
 70
     1
  0
VPORT
  2
*ACTIVE
 70
     0
 10
0.0
 20
0.0
 11
1.0
 21
1.0
 12
271.64764383810058
 22
141.88990240775669
 13
0.0
 23
0.0
 14
1.0
 24
1.0
 15
0.0
 25
0.0
 16
0.0
 26
0.0
 36
1.0
 17
0.0
 27
0.0
 37
0.0
 40
845.96207811826355
 41
1.5065088757396441
 42
50.0
 43
0.0
 44
0.0
 50
0.0
 51
0.0
 71
     0
 72
  1000
 73
     1
 74
     1
 75
     0
 76
     0
 77
     0
 78
     0
  0
ENDTAB
  0
TABLE
  2
LTYPE
 70
     2
  0
LTYPE
  2
CONTINUOUS
 70
     0
  3
Solid line
 72
    65
 73
     0
 40
0.0
  0
LTYPE
  2
DASH
 70
     0
  3

 72
    65
 73
     2
 40
6.3499999999999996
 49
3.1749999999999998
 49
-3.1749999999999998
  0
ENDTAB
  0
TABLE
  2
LAYER
 70
     8
  0
LAYER
  2
0
 70
     0
 62
     7
  6
CONTINUOUS
  0
ENDTAB
  0
TABLE
  2
STYLE
 70
     8
  0
STYLE
  2
STANDARD
 70
     0
 40
0.0
 41
1.0
 50
0.0
 71
     0
 42
0.2
  3
txt
  4

  0
STYLE
  2
ARIAL
 70
     0
 40
12.2941616766467
 41
1.0
 50
0.0
 71
     0
 42
0.2
  3
txt
  4

  0
ENDTAB
  0
TABLE
  2
VIEW
 70
     1
  0
ENDTAB
  0
TABLE
  2
UCS
 70
     0
  0
ENDTAB
  0
TABLE
  2
APPID
 70
     6
  0
APPID
  2
ACAD
 70
     0
  0
APPID
  2
ACADANNOTATIVE
 70
     0
  0
APPID
  2
REVIT
 70
     0
  0
APPID
  2
ACAD_PSEXT
 70
     0
  0
APPID
  2
ACAD_NAV_VCDISPLAY
 70
     0
  0
APPID
  2
ACAD_MLEADERVER
 70
     0
  0
ENDTAB
  0
TABLE
  2
DIMSTYLE
 70
     2
  0
DIMSTYLE
  2
STANDARD
 70
     0
  3

  4

  5

  6

  7

 40
1.0
 41
0.18
 42
0.0625
 43
0.38
 44
0.18
 45
0.0
 46
0.0
 47
0.0
 48
0.0
140
0.18
141
0.09
142
0.0
143
25.399999999999999
144
1.0
145
0.0
146
1.0
147
0.09
 71
     0
 72
     0
 73
     1
 74
     1
 75
     0
 76
     0
 77
     0
 78
     0
170
     0
171
     2
172
     0
173
     0
174
     0
175
     0
176
     0
177
     0
178
     0
  0
ENDTAB
  0
ENDSEC
  0
SECTION
  2
BLOCKS
  0
BLOCK
  8
0
  2
$MODEL_SPACE
 70
     0
 10
0.0
 20
0.0
 30
0.0
  3
$MODEL_SPACE
  1

  0
ENDBLK
  5
72
  8
0
  0
BLOCK
 67
     1
  8
0
  2
$PAPER_SPACE
 70
     0
 10
0.0
 20
0.0
 30
0.0
  3
$PAPER_SPACE
  1

  0
ENDBLK
  5
76
 67
     1
  8
0
  0
BLOCK
  8
0
  2
*U22
 70
     1
 10
0.0
 20
0.0
 30
0.0
  3
*U22
  1

  0
SOLID
  5
435
  8
0
  6
CONTINUOUS
 10
-156.41654338549449
 20
189.60690435900401
 30
0.0
 11
-157.3732519664072
 21
189.41660319028219
 31
0.0
 12
-155.45983480458179
 22
189.41660319028219
 32
0.0
 13
-155.45983480458179
 23
189.41660319028219
 33
0.0
210
0.0
220
0.0
230
1.0
  0
SOLID
  5
436
  8
0
  6
CONTINUOUS
 10
-157.3732519664072
 20
189.41660319028219
 30
0.0
 11
-158.18431033846079
 21
188.8746713119703
 31
0.0
 12
-154.64877643252811
 22
188.8746713119703
 32
0.0
 13
-154.64877643252811
 23
188.8746713119703
 33
0.0
210
0.0
220
0.0
230
1.0
  0
SOLID
  5
437
  8
0
  6
CONTINUOUS
 10
157.3732519664072
 20
189.41660319028219
 30
0.0
 11
155.45983480458179
 21
189.41660319028219
 31
0.0
 12
154.64877643252811
 22
188.8746713119703
 32
0.0
 13
154.64877643252811
 23
188.8746713119703
 33
0.0
210
0.0
220
0.0
230
-1.0
  0
SOLID
  5
438
  8
0
  6
CONTINUOUS
 10
-158.18431033846079
 20
188.8746713119703
 30
0.0
 11
-158.7262422167727
 21
188.06361293991671
 31
0.0
 12
-154.10684455421631
 22
188.06361293991671
 32
0.0
 13
-154.10684455421631
 23
188.06361293991671
 33
0.0
210
0.0
220
0.0
230
1.0
  0
SOLID
  5
439
  8
0
  6
CONTINUOUS
 10
158.18431033846079
 20
188.8746713119703
 30
0.0
 11
154.64877643252811
 21
188.8746713119703
 31
0.0
 12
154.10684455421631
 22
188.06361293991671
 32
0.0
 13
154.10684455421631
 23
188.06361293991671
 33
0.0
210
0.0
220
0.0
230
-1.0
  0
SOLID
  5
43A
  8
0
  6
CONTINUOUS
 10
-158.7262422167727
 20
188.06361293991671
 30
0.0
 11
-158.91654338549449
 21
187.10690435900401
 31
0.0
 12
-153.91654338549449
 22
187.10690435900401
 32
0.0
 13
-153.91654338549449
 23
187.10690435900401
 33
0.0
210
0.0
220
0.0
230
1.0
  0
SOLID
  5
43B
  8
0
  6
CONTINUOUS
 10
158.7262422167727
 20
188.06361293991671
 30
0.0
 11
154.10684455421631
 21
188.06361293991671
 31
0.0
 12
153.91654338549449
 22
187.10690435900401
 32
0.0
 13
153.91654338549449
 23
187.10690435900401
 33
0.0
210
0.0
220
0.0
230
-1.0
  0
SOLID
  5
43C
  8
0
  6
CONTINUOUS
 10
-158.91654338549449
 20
187.10690435900401
 30
0.0
 11
-158.7262422167727
 21
186.1501957780913
 31
0.0
 12
-154.10684455421631
 22
186.1501957780913
 32
0.0
 13
-154.10684455421631
 23
186.1501957780913
 33
0.0
  0
SOLID
  5
43D
  8
0
  6
CONTINUOUS
 10
158.91654338549449
 20
187.10690435900401
 30
0.0
 11
153.91654338549449
 21
187.10690435900401
 31
0.0
 12
154.10684455421631
 22
186.1501957780913
 32
0.0
 13
154.10684455421631
 23
186.1501957780913
 33
0.0
210
0.0
220
0.0
230
-1.0
  0
SOLID
  5
43E
  8
0
  6
CONTINUOUS
 10
-158.7262422167727
 20
186.1501957780913
 30
0.0
 11
-158.18431033846079
 21
185.33913740603759
 31
0.0
 12
-154.64877643252811
 22
185.33913740603759
 32
0.0
 13
-154.64877643252811
 23
185.33913740603759
 33
0.0
210
0.0
220
0.0
230
1.0
  0
SOLID
  5
43F
  8
0
  6
CONTINUOUS
 10
158.7262422167727
 20
186.1501957780913
 30
0.0
 11
154.10684455421631
 21
186.1501957780913
 31
0.0
 12
154.64877643252811
 22
185.33913740603759
 32
0.0
 13
154.64877643252811
 23
185.33913740603759
 33
0.0
210
0.0
220
0.0
230
-1.0
  0
SOLID
  5
440
  8
0
  6
CONTINUOUS
 10
157.3732519664072
 20
184.79720552772579
 30
0.0
 11
155.45983480458179
 21
184.79720552772579
 31
0.0
 12
156.41654338549449
 22
184.60690435900401
 32
0.0
 13
156.41654338549449
 23
184.60690435900401
 33
0.0
210
0.0
220
0.0
230
-1.0
  0
SOLID
  5
441
  8
0
  6
CONTINUOUS
 10
-158.18431033846079
 20
185.33913740603759
 30
0.0
 11
-157.3732519664072
 21
184.79720552772579
 31
0.0
 12
-155.45983480458179
 22
184.79720552772579
 32
0.0
 13
-155.45983480458179
 23
184.79720552772579
 33
0.0
  0
SOLID
  5
442
  8
0
  6
CONTINUOUS
 10
158.18431033846079
 20
185.33913740603759
 30
0.0
 11
154.64877643252811
 21
185.33913740603759
 31
0.0
 12
155.45983480458179
 22
184.79720552772579
 32
0.0
 13
155.45983480458179
 23
184.79720552772579
 33
0.0
210
0.0
220
0.0
230
-1.0
  0
LINE
  5
443
  8
0
  6
CONTINUOUS
 10
-156.41654338549449
 20
189.60690435900401
 30
0.0
 11
-157.3732519664072
 21
189.41660319028219
 31
0.0
  0
LINE
  5
444
  8
0
  6
CONTINUOUS
 10
-155.45983480458179
 20
189.41660319028219
 30
0.0
 11
-156.41654338549449
 21
189.60690435900401
 31
0.0
  0
LINE
  5
445
  8
0
  6
CONTINUOUS
 10
-157.3732519664072
 20
189.41660319028219
 30
0.0
 11
-158.18431033846079
 21
188.8746713119703
 31
0.0
  0
LINE
  5
446
  8
0
  6
CONTINUOUS
 10
-155.45983480458179
 20
189.41660319028219
 30
0.0
 11
-154.64877643252811
 21
188.8746713119703
 31
0.0
  0
LINE
  5
447
  8
0
  6
CONTINUOUS
 10
-158.18431033846079
 20
188.8746713119703
 30
0.0
 11
-158.7262422167727
 21
188.06361293991671
 31
0.0
  0
LINE
  5
448
  8
0
  6
CONTINUOUS
 10
-154.64877643252811
 20
188.8746713119703
 30
0.0
 11
-154.10684455421631
 21
188.06361293991671
 31
0.0
  0
LINE
  5
449
  8
0
  6
CONTINUOUS
 10
-158.7262422167727
 20
188.06361293991671
 30
0.0
 11
-158.91654338549449
 21
187.10690435900401
 31
0.0
  0
LINE
  5
44A
  8
0
  6
CONTINUOUS
 10
-154.10684455421631
 20
188.06361293991671
 30
0.0
 11
-153.91654338549449
 21
187.10690435900401
 31
0.0
  0
LINE
  5
44B
  8
0
  6
CONTINUOUS
 10
-158.91654338549449
 20
187.10690435900401
 30
0.0
 11
-158.7262422167727
 21
186.1501957780913
 31
0.0
  0
LINE
  5
44C
  8
0
  6
CONTINUOUS
 10
-153.91654338549449
 20
187.10690435900401
 30
0.0
 11
-154.10684455421631
 21
186.1501957780913
 31
0.0
  0
LINE
  5
44D
  8
0
  6
CONTINUOUS
 10
-158.7262422167727
 20
186.1501957780913
 30
0.0
 11
-158.18431033846079
 21
185.33913740603759
 31
0.0
  0
LINE
  5
44E
  8
0
  6
CONTINUOUS
 10
-154.10684455421631
 20
186.1501957780913
 30
0.0
 11
-154.64877643252811
 21
185.33913740603759
 31
0.0
  0
LINE
  5
44F
  8
0
  6
CONTINUOUS
 10
-155.45983480458179
 20
184.79720552772579
 30
0.0
 11
-156.41654338549449
 21
184.60690435900401
 31
0.0
  0
LINE
  5
450
  8
0
  6
CONTINUOUS
 10
-156.41654338549449
 20
184.60690435900401
 30
0.0
 11
-157.3732519664072
 21
184.79720552772579
 31
0.0
  0
LINE
  5
451
  8
0
  6
CONTINUOUS
 10
-158.18431033846079
 20
185.33913740603759
 30
0.0
 11
-157.3732519664072
 21
184.79720552772579
 31
0.0
  0
LINE
  5
452
  8
0
  6
CONTINUOUS
 10
-154.64877643252811
 20
185.33913740603759
 30
0.0
 11
-155.45983480458179
 21
184.79720552772579
 31
0.0
  0
ENDBLK
  5
454
  8
0
  0
BLOCK
  8
0
  2
*U23
 70
     1
 10
0.0
 20
0.0
 30
0.0
  3
*U23
  1

  0
TEXT
  5
456
  8
0
 10
-365.97958312772812
 20
261.98732828949028
 30
0.0
 40
12.2941616766467
  1
Tilcor Antica Tile
  7
ARIAL
  0
ENDBLK
  5
458
  8
0
  0
BLOCK
  8
0
  2
*U24
 70
     1
 10
0.0
 20
0.0
 30
0.0
  3
*U24
  1

  0
TEXT
  5
45A
  8
0
 62
     7
 10
419.03561697870123
 20
-276.99308275915962
 30
0.0
 40
12.294161676646709
  1
* Barge board must project at least to top of tile batten
  7
ARIAL
  0
ENDBLK
  5
45C
  8
0
  0
BLOCK
  8
0
  2
*U25
 70
     1
 10
0.0
 20
0.0
 30
0.0
  3
*U25
  1

  0
SOLID
  5
45E
  8
0
  6
CONTINUOUS
 10
411.76202863496962
 20
209.15460540159771
 30
0.0
 11
410.80532005405689
 21
208.96430423287589
 31
0.0
 12
412.7187372158823
 22
208.96430423287589
 32
0.0
 13
412.7187372158823
 23
208.96430423287589
 33
0.0
  0
SOLID
  5
45F
  8
0
  6
CONTINUOUS
 10
410.80532005405689
 20
208.96430423287589
 30
0.0
 11
409.9942616820033
 21
208.422372354564
 31
0.0
 12
413.52979558793601
 22
208.422372354564
 32
0.0
 13
413.52979558793601
 23
208.422372354564
 33
0.0
210
0.0
220
0.0
230
1.0
  0
SOLID
  5
460
  8
0
  6
CONTINUOUS
 10
-410.80532005405689
 20
208.96430423287589
 30
0.0
 11
-412.7187372158823
 21
208.96430423287589
 31
0.0
 12
-413.52979558793601
 22
208.422372354564
 32
0.0
 13
-413.52979558793601
 23
208.422372354564
 33
0.0
210
0.0
220
0.0
230
-1.0
  0
SOLID
  5
461
  8
0
  6
CONTINUOUS
 10
409.9942616820033
 20
208.422372354564
 30
0.0
 11
409.45232980369138
 21
207.61131398251041
 31
0.0
 12
414.07172746624781
 22
207.61131398251041
 32
0.0
 13
414.07172746624781
 23
207.61131398251041
 33
0.0
210
0.0
220
0.0
230
1.0
  0
SOLID
  5
462
  8
0
  6
CONTINUOUS
 10
-409.9942616820033
 20
208.422372354564
 30
0.0
 11
-413.52979558793601
 21
208.422372354564
 31
0.0
 12
-414.07172746624781
 22
207.61131398251041
 32
0.0
 13
-414.07172746624781
 23
207.61131398251041
 33
0.0
210
0.0
220
0.0
230
-1.0
  0
SOLID
  5
463
  8
0
  6
CONTINUOUS
 10
409.45232980369138
 20
207.61131398251041
 30
0.0
 11
409.26202863496968
 21
206.65460540159771
 31
0.0
 12
414.26202863496951
 22
206.65460540159771
 32
0.0
 13
414.26202863496951
 23
206.65460540159771
 33
0.0
210
0.0
220
0.0
230
1.0
  0
SOLID
  5
464
  8
0
  6
CONTINUOUS
 10
-409.45232980369138
 20
207.61131398251041
 30
0.0
 11
-414.07172746624781
 21
207.61131398251041
 31
0.0
 12
-414.26202863496951
 22
206.65460540159771
 32
0.0
 13
-414.26202863496951
 23
206.65460540159771
 33
0.0
210
0.0
220
0.0
230
-1.0
  0
SOLID
  5
465
  8
0
  6
CONTINUOUS
 10
409.26202863496968
 20
206.65460540159771
 30
0.0
 11
409.45232980369138
 21
205.697896820685
 31
0.0
 12
414.07172746624781
 22
205.697896820685
 32
0.0
 13
414.07172746624781
 23
205.697896820685
 33
0.0
210
0.0
220
0.0
230
1.0
  0
SOLID
  5
466
  8
0
  6
CONTINUOUS
 10
-409.26202863496968
 20
206.65460540159771
 30
0.0
 11
-414.26202863496951
 21
206.65460540159771
 31
0.0
 12
-414.07172746624781
 22
205.697896820685
 32
0.0
 13
-414.07172746624781
 23
205.697896820685
 33
0.0
210
0.0
220
0.0
230
-1.0
  0
SOLID
  5
467
  8
0
  6
CONTINUOUS
 10
409.45232980369138
 20
205.697896820685
 30
0.0
 11
409.9942616820033
 21
204.88683844863141
 31
0.0
 12
413.52979558793601
 22
204.88683844863141
 32
0.0
 13
413.52979558793601
 23
204.88683844863141
 33
0.0
210
0.0
220
0.0
230
1.0
  0
SOLID
  5
468
  8
0
  6
CONTINUOUS
 10
-409.45232980369138
 20
205.697896820685
 30
0.0
 11
-414.07172746624781
 21
205.697896820685
 31
0.0
 12
-413.52979558793601
 22
204.88683844863141
 32
0.0
 13
-413.52979558793601
 23
204.88683844863141
 33
0.0
210
0.0
220
0.0
230
-1.0
  0
SOLID
  5
469
  8
0
  6
CONTINUOUS
 10
-410.80532005405689
 20
204.34490657031961
 30
0.0
 11
-412.7187372158823
 21
204.34490657031961
 31
0.0
 12
-411.76202863496962
 22
204.15460540159779
 32
0.0
 13
-411.76202863496962
 23
204.15460540159779
 33
0.0
210
0.0
220
0.0
230
-1.0
  0
SOLID
  5
46A
  8
0
  6
CONTINUOUS
 10
409.9942616820033
 20
204.88683844863141
 30
0.0
 11
410.80532005405689
 21
204.34490657031961
 31
0.0
 12
412.7187372158823
 22
204.34490657031961
 32
0.0
 13
412.7187372158823
 23
204.34490657031961
 33
0.0
210
0.0
220
0.0
230
1.0
  0
SOLID
  5
46B
  8
0
  6
CONTINUOUS
 10
-409.9942616820033
 20
204.88683844863141
 30
0.0
 11
-413.52979558793601
 21
204.88683844863141
 31
0.0
 12
-412.7187372158823
 22
204.34490657031961
 32
0.0
 13
-412.7187372158823
 23
204.34490657031961
 33
0.0
210
0.0
220
0.0
230
-1.0
  0
LINE
  5
46C
  8
0
  6
CONTINUOUS
 10
411.76202863496962
 20
209.15460540159771
 30
0.0
 11
410.80532005405689
 21
208.96430423287589
 31
0.0
  0
LINE
  5
46D
  8
0
  6
CONTINUOUS
 10
412.7187372158823
 20
208.96430423287589
 30
0.0
 11
411.76202863496962
 21
209.15460540159771
 31
0.0
  0
LINE
  5
46E
  8
0
  6
CONTINUOUS
 10
410.80532005405689
 20
208.96430423287589
 30
0.0
 11
409.9942616820033
 21
208.422372354564
 31
0.0
  0
LINE
  5
46F
  8
0
  6
CONTINUOUS
 10
412.7187372158823
 20
208.96430423287589
 30
0.0
 11
413.52979558793601
 21
208.422372354564
 31
0.0
  0
LINE
  5
470
  8
0
  6
CONTINUOUS
 10
409.9942616820033
 20
208.422372354564
 30
0.0
 11
409.45232980369138
 21
207.61131398251041
 31
0.0
  0
LINE
  5
471
  8
0
  6
CONTINUOUS
 10
413.52979558793601
 20
208.422372354564
 30
0.0
 11
414.07172746624781
 21
207.61131398251041
 31
0.0
  0
LINE
  5
472
  8
0
  6
CONTINUOUS
 10
409.45232980369138
 20
207.61131398251041
 30
0.0
 11
409.26202863496968
 21
206.65460540159771
 31
0.0
  0
LINE
  5
473
  8
0
  6
CONTINUOUS
 10
414.07172746624781
 20
207.61131398251041
 30
0.0
 11
414.26202863496951
 21
206.65460540159771
 31
0.0
  0
LINE
  5
474
  8
0
  6
CONTINUOUS
 10
409.26202863496968
 20
206.65460540159771
 30
0.0
 11
409.45232980369138
 21
205.697896820685
 31
0.0
  0
LINE
  5
475
  8
0
  6
CONTINUOUS
 10
414.26202863496951
 20
206.65460540159771
 30
0.0
 11
414.07172746624781
 21
205.697896820685
 31
0.0
  0
LINE
  5
476
  8
0
  6
CONTINUOUS
 10
409.45232980369138
 20
205.697896820685
 30
0.0
 11
409.9942616820033
 21
204.88683844863141
 31
0.0
  0
LINE
  5
477
  8
0
  6
CONTINUOUS
 10
414.07172746624781
 20
205.697896820685
 30
0.0
 11
413.52979558793601
 21
204.88683844863141
 31
0.0
  0
LINE
  5
478
  8
0
  6
CONTINUOUS
 10
412.7187372158823
 20
204.34490657031961
 30
0.0
 11
411.76202863496962
 21
204.15460540159779
 31
0.0
  0
LINE
  5
479
  8
0
  6
CONTINUOUS
 10
411.76202863496962
 20
204.15460540159779
 30
0.0
 11
410.80532005405689
 21
204.34490657031961
 31
0.0
  0
LINE
  5
47A
  8
0
  6
CONTINUOUS
 10
409.9942616820033
 20
204.88683844863141
 30
0.0
 11
410.80532005405689
 21
204.34490657031961
 31
0.0
  0
LINE
  5
47B
  8
0
  6
CONTINUOUS
 10
413.52979558793601
 20
204.88683844863141
 30
0.0
 11
412.7187372158823
 21
204.34490657031961
 31
0.0
  0
ENDBLK
  5
47D
  8
0
  0
BLOCK
  8
0
  2
*U26
 70
     1
 10
0.0
 20
0.0
 30
0.0
  3
*U26
  1

  0
TEXT
  5
47F
  8
0
 10
603.00395879962628
 20
340.11129875644127
 30
0.0
 40
12.2941616766467
  1
Barrel Trim minimum cover
  7
ARIAL
  0
TEXT
  5
480
  8
0
 10
603.69162677881127
 20
320.88052952567199
 30
0.0
 40
12.2941616766467
  1
over turn up 1" at any point
  7
ARIAL
  0
ENDBLK
  5
482
  8
0
  0
BLOCK
  8
0
  2
*U27
 70
     1
 10
0.0
 20
0.0
 30
0.0
  3
*U27
  1

  0
SOLID
  5
484
  8
0
  6
CONTINUOUS
 10
-149.82284575045739
 20
123.8128967476184
 30
0.0
 11
-150.77955433137021
 21
123.62259557889659
 31
0.0
 12
-148.86613716954469
 22
123.62259557889659
 32
0.0
 13
-148.86613716954469
 23
123.62259557889659
 33
0.0
210
0.0
220
0.0
230
1.0
  0
SOLID
  5
485
  8
0
  6
CONTINUOUS
 10
-150.77955433137021
 20
123.62259557889659
 30
0.0
 11
-151.5906127034238
 21
123.08066370058469
 31
0.0
 12
-148.05507879749109
 22
123.08066370058469
 32
0.0
 13
-148.05507879749109
 23
123.08066370058469
 33
0.0
210
0.0
220
0.0
230
1.0
  0
SOLID
  5
486
  8
0
  6
CONTINUOUS
 10
150.77955433137021
 20
123.62259557889659
 30
0.0
 11
148.86613716954469
 21
123.62259557889659
 31
0.0
 12
148.05507879749109
 22
123.08066370058469
 32
0.0
 13
148.05507879749109
 23
123.08066370058469
 33
0.0
210
0.0
220
0.0
230
-1.0
  0
SOLID
  5
487
  8
0
  6
CONTINUOUS
 10
-151.5906127034238
 20
123.08066370058469
 30
0.0
 11
-152.1325445817356
 21
122.2696053285311
 31
0.0
 12
-147.51314691917921
 22
122.2696053285311
 32
0.0
 13
-147.51314691917921
 23
122.2696053285311
 33
0.0
210
0.0
220
0.0
230
1.0
  0
SOLID
  5
488
  8
0
  6
CONTINUOUS
 10
151.5906127034238
 20
123.08066370058469
 30
0.0
 11
148.05507879749109
 21
123.08066370058469
 31
0.0
 12
147.51314691917921
 22
122.2696053285311
 32
0.0
 13
147.51314691917921
 23
122.2696053285311
 33
0.0
210
0.0
220
0.0
230
-1.0
  0
SOLID
  5
489
  8
0
  6
CONTINUOUS
 10
-152.1325445817356
 20
122.2696053285311
 30
0.0
 11
-152.32284575045739
 21
121.3128967476184
 31
0.0
 12
-147.32284575045739
 22
121.3128967476184
 32
0.0
 13
-147.32284575045739
 23
121.3128967476184
 33
0.0
210
0.0
220
0.0
230
1.0
  0
SOLID
  5
48A
  8
0
  6
CONTINUOUS
 10
152.1325445817356
 20
122.2696053285311
 30
0.0
 11
147.51314691917921
 21
122.2696053285311
 31
0.0
 12
147.32284575045739
 22
121.3128967476184
 32
0.0
 13
147.32284575045739
 23
121.3128967476184
 33
0.0
210
0.0
220
0.0
230
-1.0
  0
SOLID
  5
48B
  8
0
  6
CONTINUOUS
 10
-152.32284575045739
 20
121.3128967476184
 30
0.0
 11
-152.1325445817356
 21
120.35618816670571
 31
0.0
 12
-147.51314691917921
 22
120.35618816670571
 32
0.0
 13
-147.51314691917921
 23
120.35618816670571
 33
0.0
  0
SOLID
  5
48C
  8
0
  6
CONTINUOUS
 10
152.32284575045739
 20
121.3128967476184
 30
0.0
 11
147.32284575045739
 21
121.3128967476184
 31
0.0
 12
147.51314691917921
 22
120.35618816670571
 32
0.0
 13
147.51314691917921
 23
120.35618816670571
 33
0.0
210
0.0
220
0.0
230
-1.0
  0
SOLID
  5
48D
  8
0
  6
CONTINUOUS
 10
-152.1325445817356
 20
120.35618816670571
 30
0.0
 11
-151.5906127034238
 21
119.545129794652
 31
0.0
 12
-148.05507879749109
 22
119.545129794652
 32
0.0
 13
-148.05507879749109
 23
119.545129794652
 33
0.0
210
0.0
220
0.0
230
1.0
  0
SOLID
  5
48E
  8
0
  6
CONTINUOUS
 10
152.1325445817356
 20
120.35618816670571
 30
0.0
 11
147.51314691917921
 21
120.35618816670571
 31
0.0
 12
148.05507879749109
 22
119.545129794652
 32
0.0
 13
148.05507879749109
 23
119.545129794652
 33
0.0
210
0.0
220
0.0
230
-1.0
  0
SOLID
  5
48F
  8
0
  6
CONTINUOUS
 10
150.77955433137021
 20
119.0031979163402
 30
0.0
 11
148.86613716954469
 21
119.0031979163402
 31
0.0
 12
149.82284575045739
 22
118.8128967476184
 32
0.0
 13
149.82284575045739
 23
118.8128967476184
 33
0.0
210
0.0
220
0.0
230
-1.0
  0
SOLID
  5
490
  8
0
  6
CONTINUOUS
 10
-151.5906127034238
 20
119.545129794652
 30
0.0
 11
-150.77955433137021
 21
119.0031979163402
 31
0.0
 12
-148.86613716954469
 22
119.0031979163402
 32
0.0
 13
-148.86613716954469
 23
119.0031979163402
 33
0.0
210
0.0
220
0.0
230
1.0
  0
SOLID
  5
491
  8
0
  6
CONTINUOUS
 10
151.5906127034238
 20
119.545129794652
 30
0.0
 11
148.05507879749109
 21
119.545129794652
 31
0.0
 12
148.86613716954469
 22
119.0031979163402
 32
0.0
 13
148.86613716954469
 23
119.0031979163402
 33
0.0
210
0.0
220
0.0
230
-1.0
  0
LINE
  5
492
  8
0
  6
CONTINUOUS
 10
-149.82284575045739
 20
123.8128967476184
 30
0.0
 11
-150.77955433137021
 21
123.62259557889659
 31
0.0
  0
LINE
  5
493
  8
0
  6
CONTINUOUS
 10
-148.86613716954469
 20
123.62259557889659
 30
0.0
 11
-149.82284575045739
 21
123.8128967476184
 31
0.0
  0
LINE
  5
494
  8
0
  6
CONTINUOUS
 10
-150.77955433137021
 20
123.62259557889659
 30
0.0
 11
-151.5906127034238
 21
123.08066370058469
 31
0.0
  0
LINE
  5
495
  8
0
  6
CONTINUOUS
 10
-148.86613716954469
 20
123.62259557889659
 30
0.0
 11
-148.05507879749109
 21
123.08066370058469
 31
0.0
  0
LINE
  5
496
  8
0
  6
CONTINUOUS
 10
-151.5906127034238
 20
123.08066370058469
 30
0.0
 11
-152.1325445817356
 21
122.2696053285311
 31
0.0
  0
LINE
  5
497
  8
0
  6
CONTINUOUS
 10
-148.05507879749109
 20
123.08066370058469
 30
0.0
 11
-147.51314691917921
 21
122.2696053285311
 31
0.0
  0
LINE
  5
498
  8
0
  6
CONTINUOUS
 10
-152.1325445817356
 20
122.2696053285311
 30
0.0
 11
-152.32284575045739
 21
121.3128967476184
 31
0.0
  0
LINE
  5
499
  8
0
  6
CONTINUOUS
 10
-147.51314691917921
 20
122.2696053285311
 30
0.0
 11
-147.32284575045739
 21
121.3128967476184
 31
0.0
  0
LINE
  5
49A
  8
0
  6
CONTINUOUS
 10
-152.32284575045739
 20
121.3128967476184
 30
0.0
 11
-152.1325445817356
 21
120.35618816670571
 31
0.0
  0
LINE
  5
49B
  8
0
  6
CONTINUOUS
 10
-147.32284575045739
 20
121.3128967476184
 30
0.0
 11
-147.51314691917921
 21
120.35618816670571
 31
0.0
  0
LINE
  5
49C
  8
0
  6
CONTINUOUS
 10
-152.1325445817356
 20
120.35618816670571
 30
0.0
 11
-151.5906127034238
 21
119.545129794652
 31
0.0
  0
LINE
  5
49D
  8
0
  6
CONTINUOUS
 10
-147.51314691917921
 20
120.35618816670571
 30
0.0
 11
-148.05507879749109
 21
119.545129794652
 31
0.0
  0
LINE
  5
49E
  8
0
  6
CONTINUOUS
 10
-148.86613716954469
 20
119.0031979163402
 30
0.0
 11
-149.82284575045739
 21
118.8128967476184
 31
0.0
  0
LINE
  5
49F
  8
0
  6
CONTINUOUS
 10
-149.82284575045739
 20
118.8128967476184
 30
0.0
 11
-150.77955433137021
 21
119.0031979163402
 31
0.0
  0
LINE
  5
4A0
  8
0
  6
CONTINUOUS
 10
-151.5906127034238
 20
119.545129794652
 30
0.0
 11
-150.77955433137021
 21
119.0031979163402
 31
0.0
  0
LINE
  5
4A1
  8
0
  6
CONTINUOUS
 10
-148.05507879749109
 20
119.545129794652
 30
0.0
 11
-148.86613716954469
 21
119.0031979163402
 31
0.0
  0
ENDBLK
  5
4A3
  8
0
  0
BLOCK
  8
0
  2
*U28
 70
     1
 10
0.0
 20
0.0
 30
0.0
  3
*U28
  1

  0
TEXT
  5
4A5
  8
0
 10
-366.92722314782429
 20
73.828185092566827
 30
0.0
 40
12.2941616766467
  1
Underlay
  7
ARIAL
  0
ENDBLK
  5
4A7
  8
0
  0
BLOCK
  8
0
  2
*U29
 70
     1
 10
0.0
 20
0.0
 30
0.0
  3
*U29
  1

  0
SOLID
  5
4A9
  8
0
  6
CONTINUOUS
 10
-96.528263785174957
 20
148.61250000000251
 30
0.0
 11
-97.484972366087675
 21
148.42219883128081
 31
0.0
 12
-95.571555204262211
 22
148.42219883128081
 32
0.0
 13
-95.571555204262211
 23
148.42219883128081
 33
0.0
210
0.0
220
0.0
230
1.0
  0
SOLID
  5
4AA
  8
0
  6
CONTINUOUS
 10
-97.484972366087675
 20
148.42219883128081
 30
0.0
 11
-98.29603073814134
 21
147.8802669529689
 31
0.0
 12
-94.760496832208545
 22
147.8802669529689
 32
0.0
 13
-94.760496832208545
 23
147.8802669529689
 33
0.0
210
0.0
220
0.0
230
1.0
  0
SOLID
  5
4AB
  8
0
  6
CONTINUOUS
 10
97.484972366087675
 20
148.42219883128081
 30
0.0
 11
95.571555204262211
 21
148.42219883128081
 31
0.0
 12
94.760496832208545
 22
147.8802669529689
 32
0.0
 13
94.760496832208545
 23
147.8802669529689
 33
0.0
210
0.0
220
0.0
230
-1.0
  0
SOLID
  5
4AC
  8
0
  6
CONTINUOUS
 10
-98.29603073814134
 20
147.8802669529689
 30
0.0
 11
-98.837962616453169
 21
147.0692085809153
 31
0.0
 12
-94.218564953896717
 22
147.0692085809153
 32
0.0
 13
-94.218564953896717
 23
147.0692085809153
 33
0.0
210
0.0
220
0.0
230
1.0
  0
SOLID
  5
4AD
  8
0
  6
CONTINUOUS
 10
98.29603073814134
 20
147.8802669529689
 30
0.0
 11
94.760496832208545
 21
147.8802669529689
 31
0.0
 12
94.218564953896717
 22
147.0692085809153
 32
0.0
 13
94.218564953896717
 23
147.0692085809153
 33
0.0
210
0.0
220
0.0
230
-1.0
  0
SOLID
  5
4AE
  8
0
  6
CONTINUOUS
 10
-98.837962616453169
 20
147.0692085809153
 30
0.0
 11
-99.028263785174957
 21
146.11250000000251
 31
0.0
 12
-94.028263785174929
 22
146.11250000000251
 32
0.0
 13
-94.028263785174929
 23
146.11250000000251
 33
0.0
210
0.0
220
0.0
230
1.0
  0
SOLID
  5
4AF
  8
0
  6
CONTINUOUS
 10
98.837962616453169
 20
147.0692085809153
 30
0.0
 11
94.218564953896717
 21
147.0692085809153
 31
0.0
 12
94.028263785174929
 22
146.11250000000251
 32
0.0
 13
94.028263785174929
 23
146.11250000000251
 33
0.0
210
0.0
220
0.0
230
-1.0
  0
SOLID
  5
4B0
  8
0
  6
CONTINUOUS
 10
-99.028263785174957
 20
146.11250000000251
 30
0.0
 11
-98.837962616453169
 21
145.15579141908981
 31
0.0
 12
-94.218564953896717
 22
145.15579141908981
 32
0.0
 13
-94.218564953896717
 23
145.15579141908981
 33
0.0
  0
SOLID
  5
4B1
  8
0
  6
CONTINUOUS
 10
99.028263785174957
 20
146.11250000000251
 30
0.0
 11
94.028263785174929
 21
146.11250000000251
 31
0.0
 12
94.218564953896717
 22
145.15579141908981
 32
0.0
 13
94.218564953896717
 23
145.15579141908981
 33
0.0
210
0.0
220
0.0
230
-1.0
  0
SOLID
  5
4B2
  8
0
  6
CONTINUOUS
 10
-98.837962616453169
 20
145.15579141908981
 30
0.0
 11
-98.29603073814134
 21
144.34473304703619
 31
0.0
 12
-94.760496832208545
 22
144.34473304703619
 32
0.0
 13
-94.760496832208545
 23
144.34473304703619
 33
0.0
210
0.0
220
0.0
230
1.0
  0
SOLID
  5
4B3
  8
0
  6
CONTINUOUS
 10
98.837962616453169
 20
145.15579141908981
 30
0.0
 11
94.218564953896717
 21
145.15579141908981
 31
0.0
 12
94.760496832208545
 22
144.34473304703619
 32
0.0
 13
94.760496832208545
 23
144.34473304703619
 33
0.0
210
0.0
220
0.0
230
-1.0
  0
SOLID
  5
4B4
  8
0
  6
CONTINUOUS
 10
97.484972366087675
 20
143.8028011687243
 30
0.0
 11
95.571555204262211
 21
143.8028011687243
 31
0.0
 12
96.528263785174957
 22
143.61250000000251
 32
0.0
 13
96.528263785174957
 23
143.61250000000251
 33
0.0
210
0.0
220
0.0
230
-1.0
  0
SOLID
  5
4B5
  8
0
  6
CONTINUOUS
 10
-98.29603073814134
 20
144.34473304703619
 30
0.0
 11
-97.484972366087675
 21
143.8028011687243
 31
0.0
 12
-95.571555204262211
 22
143.8028011687243
 32
0.0
 13
-95.571555204262211
 23
143.8028011687243
 33
0.0
210
0.0
220
0.0
230
1.0
  0
SOLID
  5
4B6
  8
0
  6
CONTINUOUS
 10
98.29603073814134
 20
144.34473304703619
 30
0.0
 11
94.760496832208545
 21
144.34473304703619
 31
0.0
 12
95.571555204262211
 22
143.8028011687243
 32
0.0
 13
95.571555204262211
 23
143.8028011687243
 33
0.0
210
0.0
220
0.0
230
-1.0
  0
LINE
  5
4B7
  8
0
  6
CONTINUOUS
 10
-96.528263785174957
 20
148.61250000000251
 30
0.0
 11
-97.484972366087675
 21
148.42219883128081
 31
0.0
  0
LINE
  5
4B8
  8
0
  6
CONTINUOUS
 10
-95.571555204262211
 20
148.42219883128081
 30
0.0
 11
-96.528263785174957
 21
148.61250000000251
 31
0.0
  0
LINE
  5
4B9
  8
0
  6
CONTINUOUS
 10
-97.484972366087675
 20
148.42219883128081
 30
0.0
 11
-98.29603073814134
 21
147.8802669529689
 31
0.0
  0
LINE
  5
4BA
  8
0
  6
CONTINUOUS
 10
-95.571555204262211
 20
148.42219883128081
 30
0.0
 11
-94.760496832208545
 21
147.8802669529689
 31
0.0
  0
LINE
  5
4BB
  8
0
  6
CONTINUOUS
 10
-98.29603073814134
 20
147.8802669529689
 30
0.0
 11
-98.837962616453169
 21
147.0692085809153
 31
0.0
  0
LINE
  5
4BC
  8
0
  6
CONTINUOUS
 10
-94.760496832208545
 20
147.8802669529689
 30
0.0
 11
-94.218564953896717
 21
147.0692085809153
 31
0.0
  0
LINE
  5
4BD
  8
0
  6
CONTINUOUS
 10
-98.837962616453169
 20
147.0692085809153
 30
0.0
 11
-99.028263785174957
 21
146.11250000000251
 31
0.0
  0
LINE
  5
4BE
  8
0
  6
CONTINUOUS
 10
-94.218564953896717
 20
147.0692085809153
 30
0.0
 11
-94.028263785174929
 21
146.11250000000251
 31
0.0
  0
LINE
  5
4BF
  8
0
  6
CONTINUOUS
 10
-99.028263785174957
 20
146.11250000000251
 30
0.0
 11
-98.837962616453169
 21
145.15579141908981
 31
0.0
  0
LINE
  5
4C0
  8
0
  6
CONTINUOUS
 10
-94.028263785174929
 20
146.11250000000251
 30
0.0
 11
-94.218564953896717
 21
145.15579141908981
 31
0.0
  0
LINE
  5
4C1
  8
0
  6
CONTINUOUS
 10
-98.837962616453169
 20
145.15579141908981
 30
0.0
 11
-98.29603073814134
 21
144.34473304703619
 31
0.0
  0
LINE
  5
4C2
  8
0
  6
CONTINUOUS
 10
-94.218564953896717
 20
145.15579141908981
 30
0.0
 11
-94.760496832208545
 21
144.34473304703619
 31
0.0
  0
LINE
  5
4C3
  8
0
  6
CONTINUOUS
 10
-95.571555204262211
 20
143.8028011687243
 30
0.0
 11
-96.528263785174957
 21
143.61250000000251
 31
0.0
  0
LINE
  5
4C4
  8
0
  6
CONTINUOUS
 10
-96.528263785174957
 20
143.61250000000251
 30
0.0
 11
-97.484972366087675
 21
143.8028011687243
 31
0.0
  0
LINE
  5
4C5
  8
0
  6
CONTINUOUS
 10
-98.29603073814134
 20
144.34473304703619
 30
0.0
 11
-97.484972366087675
 21
143.8028011687243
 31
0.0
  0
LINE
  5
4C6
  8
0
  6
CONTINUOUS
 10
-94.760496832208545
 20
144.34473304703619
 30
0.0
 11
-95.571555204262211
 21
143.8028011687243
 31
0.0
  0
ENDBLK
  5
4C8
  8
0
  0
BLOCK
  8
0
  2
*U30
 70
     1
 10
0.0
 20
0.0
 30
0.0
  3
*U30
  1

  0
TEXT
  5
4CA
  8
0
 10
-366.83497500427512
 20
140.43942307692561
 30
0.0
 40
12.2941616766467
  1
Batten
  7
ARIAL
  0
ENDBLK
  5
4CC
  8
0
  0
BLOCK
  8
0
  2
*U31
 70
     1
 10
0.0
 20
0.0
 30
0.0
  3
*U31
  1

  0
SOLID
  5
4CE
  8
0
  6
CONTINUOUS
 10
394.68212937990307
 20
-4.4864553579224413
 30
0.0
 11
393.7254207989904
 21
-4.6767565266442244
 31
0.0
 12
395.63883796081592
 22
-4.6767565266442244
 32
0.0
 13
395.63883796081592
 23
-4.6767565266442244
 33
0.0
210
0.0
220
0.0
230
1.0
  0
SOLID
  5
4CF
  8
0
  6
CONTINUOUS
 10
393.7254207989904
 20
-4.6767565266442244
 30
0.0
 11
392.9143624269368
 21
-5.2186884049560716
 31
0.0
 12
396.44989633286951
 22
-5.2186884049560716
 32
0.0
 13
396.44989633286951
 23
-5.2186884049560716
 33
0.0
210
0.0
220
0.0
230
1.0
  0
SOLID
  5
4D0
  8
0
  6
CONTINUOUS
 10
-393.7254207989904
 20
-4.6767565266442244
 30
0.0
 11
-395.63883796081592
 21
-4.6767565266442244
 31
0.0
 12
-396.44989633286951
 22
-5.2186884049560716
 32
0.0
 13
-396.44989633286951
 23
-5.2186884049560716
 33
0.0
210
0.0
220
0.0
230
-1.0
  0
SOLID
  5
4D1
  8
0
  6
CONTINUOUS
 10
392.9143624269368
 20
-5.2186884049560716
 30
0.0
 11
392.37243054862489
 21
-6.0297467770097146
 31
0.0
 12
396.99182821118143
 22
-6.0297467770097146
 32
0.0
 13
396.99182821118143
 23
-6.0297467770097146
 33
0.0
210
0.0
220
0.0
230
1.0
  0
SOLID
  5
4D2
  8
0
  6
CONTINUOUS
 10
-392.9143624269368
 20
-5.2186884049560716
 30
0.0
 11
-396.44989633286951
 21
-5.2186884049560716
 31
0.0
 12
-396.99182821118143
 22
-6.0297467770097146
 32
0.0
 13
-396.99182821118143
 23
-6.0297467770097146
 33
0.0
210
0.0
220
0.0
230
-1.0
  0
SOLID
  5
4D3
  8
0
  6
CONTINUOUS
 10
392.37243054862489
 20
-6.0297467770097146
 30
0.0
 11
392.18212937990307
 21
-6.9864553579224378
 31
0.0
 12
397.18212937990307
 22
-6.9864553579224378
 32
0.0
 13
397.18212937990307
 23
-6.9864553579224378
 33
0.0
210
0.0
220
0.0
230
1.0
  0
SOLID
  5
4D4
  8
0
  6
CONTINUOUS
 10
-392.37243054862489
 20
-6.0297467770097146
 30
0.0
 11
-396.99182821118143
 21
-6.0297467770097146
 31
0.0
 12
-397.18212937990307
 22
-6.9864553579224378
 32
0.0
 13
-397.18212937990307
 23
-6.9864553579224378
 33
0.0
210
0.0
220
0.0
230
-1.0
  0
SOLID
  5
4D5
  8
0
  6
CONTINUOUS
 10
392.18212937990307
 20
-6.9864553579224378
 30
0.0
 11
392.37243054862489
 21
-7.9431639388351609
 31
0.0
 12
396.99182821118143
 22
-7.9431639388351609
 32
0.0
 13
396.99182821118143
 23
-7.9431639388351609
 33
0.0
210
0.0
220
0.0
230
1.0
  0
SOLID
  5
4D6
  8
0
  6
CONTINUOUS
 10
-392.18212937990307
 20
-6.9864553579224378
 30
0.0
 11
-397.18212937990307
 21
-6.9864553579224378
 31
0.0
 12
-396.99182821118143
 22
-7.9431639388351609
 32
0.0
 13
-396.99182821118143
 23
-7.9431639388351609
 33
0.0
210
0.0
220
0.0
230
-1.0
  0
SOLID
  5
4D7
  8
0
  6
CONTINUOUS
 10
392.37243054862489
 20
-7.9431639388351609
 30
0.0
 11
392.9143624269368
 21
-8.7542223108888049
 31
0.0
 12
396.44989633286951
 22
-8.7542223108888049
 32
0.0
 13
396.44989633286951
 23
-8.7542223108888049
 33
0.0
210
0.0
220
0.0
230
1.0
  0
SOLID
  5
4D8
  8
0
  6
CONTINUOUS
 10
-392.37243054862489
 20
-7.9431639388351609
 30
0.0
 11
-396.99182821118143
 21
-7.9431639388351609
 31
0.0
 12
-396.44989633286951
 22
-8.7542223108888049
 32
0.0
 13
-396.44989633286951
 23
-8.7542223108888049
 33
0.0
210
0.0
220
0.0
230
-1.0
  0
SOLID
  5
4D9
  8
0
  6
CONTINUOUS
 10
-393.7254207989904
 20
-9.2961541892006512
 30
0.0
 11
-395.63883796081592
 21
-9.2961541892006512
 31
0.0
 12
-394.68212937990307
 22
-9.4864553579224342
 32
0.0
 13
-394.68212937990307
 23
-9.4864553579224342
 33
0.0
210
0.0
220
0.0
230
-1.0
  0
SOLID
  5
4DA
  8
0
  6
CONTINUOUS
 10
392.9143624269368
 20
-8.7542223108888049
 30
0.0
 11
393.7254207989904
 21
-9.2961541892006512
 31
0.0
 12
395.63883796081592
 22
-9.2961541892006512
 32
0.0
 13
395.63883796081592
 23
-9.2961541892006512
 33
0.0
210
0.0
220
0.0
230
1.0
  0
SOLID
  5
4DB
  8
0
  6
CONTINUOUS
 10
-392.9143624269368
 20
-8.7542223108888049
 30
0.0
 11
-396.44989633286951
 21
-8.7542223108888049
 31
0.0
 12
-395.63883796081592
 22
-9.2961541892006512
 32
0.0
 13
-395.63883796081592
 23
-9.2961541892006512
 33
0.0
210
0.0
220
0.0
230
-1.0
  0
LINE
  5
4DC
  8
0
  6
CONTINUOUS
 10
394.68212937990307
 20
-4.4864553579224413
 30
0.0
 11
393.7254207989904
 21
-4.6767565266442244
 31
0.0
  0
LINE
  5
4DD
  8
0
  6
CONTINUOUS
 10
395.63883796081592
 20
-4.6767565266442244
 30
0.0
 11
394.68212937990307
 21
-4.4864553579224413
 31
0.0
  0
LINE
  5
4DE
  8
0
  6
CONTINUOUS
 10
393.7254207989904
 20
-4.6767565266442244
 30
0.0
 11
392.9143624269368
 21
-5.2186884049560716
 31
0.0
  0
LINE
  5
4DF
  8
0
  6
CONTINUOUS
 10
395.63883796081592
 20
-4.6767565266442244
 30
0.0
 11
396.44989633286951
 21
-5.2186884049560716
 31
0.0
  0
LINE
  5
4E0
  8
0
  6
CONTINUOUS
 10
392.9143624269368
 20
-5.2186884049560716
 30
0.0
 11
392.37243054862489
 21
-6.0297467770097146
 31
0.0
  0
LINE
  5
4E1
  8
0
  6
CONTINUOUS
 10
396.44989633286951
 20
-5.2186884049560716
 30
0.0
 11
396.99182821118143
 21
-6.0297467770097146
 31
0.0
  0
LINE
  5
4E2
  8
0
  6
CONTINUOUS
 10
392.37243054862489
 20
-6.0297467770097146
 30
0.0
 11
392.18212937990307
 21
-6.9864553579224378
 31
0.0
  0
LINE
  5
4E3
  8
0
  6
CONTINUOUS
 10
396.99182821118143
 20
-6.0297467770097146
 30
0.0
 11
397.18212937990307
 21
-6.9864553579224378
 31
0.0
  0
LINE
  5
4E4
  8
0
  6
CONTINUOUS
 10
392.18212937990307
 20
-6.9864553579224378
 30
0.0
 11
392.37243054862489
 21
-7.9431639388351609
 31
0.0
  0
LINE
  5
4E5
  8
0
  6
CONTINUOUS
 10
397.18212937990307
 20
-6.9864553579224378
 30
0.0
 11
396.99182821118143
 21
-7.9431639388351609
 31
0.0
  0
LINE
  5
4E6
  8
0
  6
CONTINUOUS
 10
392.37243054862489
 20
-7.9431639388351609
 30
0.0
 11
392.9143624269368
 21
-8.7542223108888049
 31
0.0
  0
LINE
  5
4E7
  8
0
  6
CONTINUOUS
 10
396.99182821118143
 20
-7.9431639388351609
 30
0.0
 11
396.44989633286951
 21
-8.7542223108888049
 31
0.0
  0
LINE
  5
4E8
  8
0
  6
CONTINUOUS
 10
395.63883796081592
 20
-9.2961541892006512
 30
0.0
 11
394.68212937990307
 21
-9.4864553579224342
 31
0.0
  0
LINE
  5
4E9
  8
0
  6
CONTINUOUS
 10
394.68212937990307
 20
-9.4864553579224342
 30
0.0
 11
393.7254207989904
 21
-9.2961541892006512
 31
0.0
  0
LINE
  5
4EA
  8
0
  6
CONTINUOUS
 10
392.9143624269368
 20
-8.7542223108888049
 30
0.0
 11
393.7254207989904
 21
-9.2961541892006512
 31
0.0
  0
LINE
  5
4EB
  8
0
  6
CONTINUOUS
 10
396.44989633286951
 20
-8.7542223108888049
 30
0.0
 11
395.63883796081592
 21
-9.2961541892006512
 31
0.0
  0
ENDBLK
  5
4ED
  8
0
  0
BLOCK
  8
0
  2
*U32
 70
     1
 10
0.0
 20
0.0
 30
0.0
  3
*U32
  1

  0
TEXT
  5
4EF
  8
0
 10
608.47770956994498
 20
-168.66616171163639
 30
0.0
 40
12.2941616766467
  1
Soffit lining
  7
ARIAL
  0
ENDBLK
  5
4F1
  8
0
  0
BLOCK
  8
0
  2
*U33
 70
     1
 10
0.0
 20
0.0
 30
0.0
  3
*U33
  1

  0
SOLID
  5
4F3
  8
0
  6
CONTINUOUS
 10
474.14739489672093
 20
248.65351470146669
 30
0.0
 11
473.19068631580819
 21
248.4632135327449
 31
0.0
 12
475.10410347763371
 22
248.4632135327449
 32
0.0
 13
475.10410347763371
 23
248.4632135327449
 33
0.0
210
0.0
220
0.0
230
1.0
  0
SOLID
  5
4F4
  8
0
  6
CONTINUOUS
 10
473.19068631580819
 20
248.4632135327449
 30
0.0
 11
472.3796279437546
 21
247.9212816544331
 31
0.0
 12
475.91516184968731
 22
247.9212816544331
 32
0.0
 13
475.91516184968731
 23
247.9212816544331
 33
0.0
210
0.0
220
0.0
230
1.0
  0
SOLID
  5
4F5
  8
0
  6
CONTINUOUS
 10
-473.19068631580819
 20
248.4632135327449
 30
0.0
 11
-475.10410347763371
 21
248.4632135327449
 31
0.0
 12
-475.91516184968731
 22
247.9212816544331
 32
0.0
 13
-475.91516184968731
 23
247.9212816544331
 33
0.0
210
0.0
220
0.0
230
-1.0
  0
SOLID
  5
4F6
  8
0
  6
CONTINUOUS
 10
472.3796279437546
 20
247.9212816544331
 30
0.0
 11
471.83769606544269
 21
247.11022328237939
 31
0.0
 12
476.45709372799922
 22
247.11022328237939
 32
0.0
 13
476.45709372799922
 23
247.11022328237939
 33
0.0
210
0.0
220
0.0
230
1.0
  0
SOLID
  5
4F7
  8
0
  6
CONTINUOUS
 10
-472.3796279437546
 20
247.9212816544331
 30
0.0
 11
-475.91516184968731
 21
247.9212816544331
 31
0.0
 12
-476.45709372799922
 22
247.11022328237939
 32
0.0
 13
-476.45709372799922
 23
247.11022328237939
 33
0.0
210
0.0
220
0.0
230
-1.0
  0
SOLID
  5
4F8
  8
0
  6
CONTINUOUS
 10
471.83769606544269
 20
247.11022328237939
 30
0.0
 11
471.64739489672098
 21
246.15351470146669
 31
0.0
 12
476.64739489672098
 22
246.15351470146669
 32
0.0
 13
476.64739489672098
 23
246.15351470146669
 33
0.0
210
0.0
220
0.0
230
1.0
  0
SOLID
  5
4F9
  8
0
  6
CONTINUOUS
 10
-471.83769606544269
 20
247.11022328237939
 30
0.0
 11
-476.45709372799922
 21
247.11022328237939
 31
0.0
 12
-476.64739489672098
 22
246.15351470146669
 32
0.0
 13
-476.64739489672098
 23
246.15351470146669
 33
0.0
210
0.0
220
0.0
230
-1.0
  0
SOLID
  5
4FA
  8
0
  6
CONTINUOUS
 10
471.64739489672098
 20
246.15351470146669
 30
0.0
 11
471.83769606544269
 21
245.19680612055399
 31
0.0
 12
476.45709372799922
 22
245.19680612055399
 32
0.0
 13
476.45709372799922
 23
245.19680612055399
 33
0.0
210
0.0
220
0.0
230
1.0
  0
SOLID
  5
4FB
  8
0
  6
CONTINUOUS
 10
-471.64739489672098
 20
246.15351470146669
 30
0.0
 11
-476.64739489672098
 21
246.15351470146669
 31
0.0
 12
-476.45709372799922
 22
245.19680612055399
 32
0.0
 13
-476.45709372799922
 23
245.19680612055399
 33
0.0
210
0.0
220
0.0
230
-1.0
  0
SOLID
  5
4FC
  8
0
  6
CONTINUOUS
 10
471.83769606544269
 20
245.19680612055399
 30
0.0
 11
472.3796279437546
 21
244.38574774850031
 31
0.0
 12
475.91516184968731
 22
244.38574774850031
 32
0.0
 13
475.91516184968731
 23
244.38574774850031
 33
0.0
210
0.0
220
0.0
230
1.0
  0
SOLID
  5
4FD
  8
0
  6
CONTINUOUS
 10
-471.83769606544269
 20
245.19680612055399
 30
0.0
 11
-476.45709372799922
 21
245.19680612055399
 31
0.0
 12
-475.91516184968731
 22
244.38574774850031
 32
0.0
 13
-475.91516184968731
 23
244.38574774850031
 33
0.0
210
0.0
220
0.0
230
-1.0
  0
SOLID
  5
4FE
  8
0
  6
CONTINUOUS
 10
-473.19068631580819
 20
243.84381587018851
 30
0.0
 11
-475.10410347763371
 21
243.84381587018851
 31
0.0
 12
-474.14739489672093
 22
243.65351470146669
 32
0.0
 13
-474.14739489672093
 23
243.65351470146669
 33
0.0
210
0.0
220
0.0
230
-1.0
  0
SOLID
  5
4FF
  8
0
  6
CONTINUOUS
 10
472.3796279437546
 20
244.38574774850031
 30
0.0
 11
473.19068631580819
 21
243.84381587018851
 31
0.0
 12
475.10410347763371
 22
243.84381587018851
 32
0.0
 13
475.10410347763371
 23
243.84381587018851
 33
0.0
210
0.0
220
0.0
230
1.0
  0
SOLID
  5
500
  8
0
  6
CONTINUOUS
 10
-472.3796279437546
 20
244.38574774850031
 30
0.0
 11
-475.91516184968731
 21
244.38574774850031
 31
0.0
 12
-475.10410347763371
 22
243.84381587018851
 32
0.0
 13
-475.10410347763371
 23
243.84381587018851
 33
0.0
210
0.0
220
0.0
230
-1.0
  0
LINE
  5
501
  8
0
  6
CONTINUOUS
 10
474.14739489672093
 20
248.65351470146669
 30
0.0
 11
473.19068631580819
 21
248.4632135327449
 31
0.0
  0
LINE
  5
502
  8
0
  6
CONTINUOUS
 10
475.10410347763371
 20
248.4632135327449
 30
0.0
 11
474.14739489672093
 21
248.65351470146669
 31
0.0
  0
LINE
  5
503
  8
0
  6
CONTINUOUS
 10
473.19068631580819
 20
248.4632135327449
 30
0.0
 11
472.3796279437546
 21
247.9212816544331
 31
0.0
  0
LINE
  5
504
  8
0
  6
CONTINUOUS
 10
475.10410347763371
 20
248.4632135327449
 30
0.0
 11
475.91516184968731
 21
247.9212816544331
 31
0.0
  0
LINE
  5
505
  8
0
  6
CONTINUOUS
 10
472.3796279437546
 20
247.9212816544331
 30
0.0
 11
471.83769606544269
 21
247.11022328237939
 31
0.0
  0
LINE
  5
506
  8
0
  6
CONTINUOUS
 10
475.91516184968731
 20
247.9212816544331
 30
0.0
 11
476.45709372799922
 21
247.11022328237939
 31
0.0
  0
LINE
  5
507
  8
0
  6
CONTINUOUS
 10
471.83769606544269
 20
247.11022328237939
 30
0.0
 11
471.64739489672098
 21
246.15351470146669
 31
0.0
  0
LINE
  5
508
  8
0
  6
CONTINUOUS
 10
476.45709372799922
 20
247.11022328237939
 30
0.0
 11
476.64739489672098
 21
246.15351470146669
 31
0.0
  0
LINE
  5
509
  8
0
  6
CONTINUOUS
 10
471.64739489672098
 20
246.15351470146669
 30
0.0
 11
471.83769606544269
 21
245.19680612055399
 31
0.0
  0
LINE
  5
50A
  8
0
  6
CONTINUOUS
 10
476.64739489672098
 20
246.15351470146669
 30
0.0
 11
476.45709372799922
 21
245.19680612055399
 31
0.0
  0
LINE
  5
50B
  8
0
  6
CONTINUOUS
 10
471.83769606544269
 20
245.19680612055399
 30
0.0
 11
472.3796279437546
 21
244.38574774850031
 31
0.0
  0
LINE
  5
50C
  8
0
  6
CONTINUOUS
 10
476.45709372799922
 20
245.19680612055399
 30
0.0
 11
475.91516184968731
 21
244.38574774850031
 31
0.0
  0
LINE
  5
50D
  8
0
  6
CONTINUOUS
 10
475.10410347763371
 20
243.84381587018851
 30
0.0
 11
474.14739489672093
 21
243.65351470146669
 31
0.0
  0
LINE
  5
50E
  8
0
  6
CONTINUOUS
 10
474.14739489672093
 20
243.65351470146669
 30
0.0
 11
473.19068631580819
 21
243.84381587018851
 31
0.0
  0
LINE
  5
50F
  8
0
  6
CONTINUOUS
 10
472.3796279437546
 20
244.38574774850031
 30
0.0
 11
473.19068631580819
 21
243.84381587018851
 31
0.0
  0
LINE
  5
510
  8
0
  6
CONTINUOUS
 10
475.91516184968731
 20
244.38574774850031
 30
0.0
 11
475.10410347763371
 21
243.84381587018851
 31
0.0
  0
ENDBLK
  5
512
  8
0
  0
BLOCK
  8
0
  2
*U34
 70
     1
 10
0.0
 20
0.0
 30
0.0
  3
*U34
  1

  0
TEXT
  5
514
  8
0
 10
603.40649615329539
 20
263.95575503837938
 30
0.0
 40
12.2941616766467
  1
Climateseal nail
  7
ARIAL
  0
ENDBLK
  5
516
  8
0
  0
BLOCK
  8
0
  2
*U35
 70
     1
 10
0.0
 20
0.0
 30
0.0
  3
*U35
  1

  0
SOLID
  5
518
  8
0
  6
CONTINUOUS
 10
-138.3228457504575
 20
37.91466094986594
 30
0.0
 11
-139.27955433137021
 21
37.724359781144159
 31
0.0
 12
-137.36613716954469
 22
37.724359781144159
 32
0.0
 13
-137.36613716954469
 23
37.724359781144159
 33
0.0
  0
SOLID
  5
519
  8
0
  6
CONTINUOUS
 10
-139.27955433137021
 20
37.724359781144159
 30
0.0
 11
-140.0906127034238
 21
37.182427902832309
 31
0.0
 12
-136.55507879749109
 22
37.182427902832309
 32
0.0
 13
-136.55507879749109
 23
37.182427902832309
 33
0.0
210
0.0
220
0.0
230
1.0
  0
SOLID
  5
51A
  8
0
  6
CONTINUOUS
 10
139.27955433137021
 20
37.724359781144159
 30
0.0
 11
137.36613716954469
 21
37.724359781144159
 31
0.0
 12
136.55507879749109
 22
37.182427902832309
 32
0.0
 13
136.55507879749109
 23
37.182427902832309
 33
0.0
210
0.0
220
0.0
230
-1.0
  0
SOLID
  5
51B
  8
0
  6
CONTINUOUS
 10
-140.0906127034238
 20
37.182427902832309
 30
0.0
 11
-140.63254458173569
 21
36.371369530778672
 31
0.0
 12
-136.01314691917921
 22
36.371369530778672
 32
0.0
 13
-136.01314691917921
 23
36.371369530778672
 33
0.0
210
0.0
220
0.0
230
1.0
  0
SOLID
  5
51C
  8
0
  6
CONTINUOUS
 10
140.0906127034238
 20
37.182427902832309
 30
0.0
 11
136.55507879749109
 21
37.182427902832309
 31
0.0
 12
136.01314691917921
 22
36.371369530778672
 32
0.0
 13
136.01314691917921
 23
36.371369530778672
 33
0.0
210
0.0
220
0.0
230
-1.0
  0
SOLID
  5
51D
  8
0
  6
CONTINUOUS
 10
-140.63254458173569
 20
36.371369530778672
 30
0.0
 11
-140.82284575045739
 21
35.41466094986594
 31
0.0
 12
-135.8228457504575
 22
35.41466094986594
 32
0.0
 13
-135.8228457504575
 23
35.41466094986594
 33
0.0
210
0.0
220
0.0
230
1.0
  0
SOLID
  5
51E
  8
0
  6
CONTINUOUS
 10
140.63254458173569
 20
36.371369530778672
 30
0.0
 11
136.01314691917921
 21
36.371369530778672
 31
0.0
 12
135.8228457504575
 22
35.41466094986594
 32
0.0
 13
135.8228457504575
 23
35.41466094986594
 33
0.0
210
0.0
220
0.0
230
-1.0
  0
SOLID
  5
51F
  8
0
  6
CONTINUOUS
 10
-140.82284575045739
 20
35.41466094986594
 30
0.0
 11
-140.63254458173569
 21
34.457952368953208
 31
0.0
 12
-136.01314691917921
 22
34.457952368953208
 32
0.0
 13
-136.01314691917921
 23
34.457952368953208
 33
0.0
  0
SOLID
  5
520
  8
0
  6
CONTINUOUS
 10
140.82284575045739
 20
35.41466094986594
 30
0.0
 11
135.8228457504575
 21
35.41466094986594
 31
0.0
 12
136.01314691917921
 22
34.457952368953208
 32
0.0
 13
136.01314691917921
 23
34.457952368953208
 33
0.0
210
0.0
220
0.0
230
-1.0
  0
SOLID
  5
521
  8
0
  6
CONTINUOUS
 10
-140.63254458173569
 20
34.457952368953208
 30
0.0
 11
-140.0906127034238
 21
33.646893996899571
 31
0.0
 12
-136.55507879749109
 22
33.646893996899571
 32
0.0
 13
-136.55507879749109
 23
33.646893996899571
 33
0.0
210
0.0
220
0.0
230
1.0
  0
SOLID
  5
522
  8
0
  6
CONTINUOUS
 10
140.63254458173569
 20
34.457952368953208
 30
0.0
 11
136.01314691917921
 21
34.457952368953208
 31
0.0
 12
136.55507879749109
 22
33.646893996899571
 32
0.0
 13
136.55507879749109
 23
33.646893996899571
 33
0.0
210
0.0
220
0.0
230
-1.0
  0
SOLID
  5
523
  8
0
  6
CONTINUOUS
 10
139.27955433137021
 20
33.104962118587721
 30
0.0
 11
137.36613716954469
 21
33.104962118587721
 31
0.0
 12
138.3228457504575
 22
32.91466094986594
 32
0.0
 13
138.3228457504575
 23
32.91466094986594
 33
0.0
210
0.0
220
0.0
230
-1.0
  0
SOLID
  5
524
  8
0
  6
CONTINUOUS
 10
-140.0906127034238
 20
33.646893996899571
 30
0.0
 11
-139.27955433137021
 21
33.104962118587721
 31
0.0
 12
-137.36613716954469
 22
33.104962118587721
 32
0.0
 13
-137.36613716954469
 23
33.104962118587721
 33
0.0
210
0.0
220
0.0
230
1.0
  0
SOLID
  5
525
  8
0
  6
CONTINUOUS
 10
140.0906127034238
 20
33.646893996899571
 30
0.0
 11
136.55507879749109
 21
33.646893996899571
 31
0.0
 12
137.36613716954469
 22
33.104962118587721
 32
0.0
 13
137.36613716954469
 23
33.104962118587721
 33
0.0
210
0.0
220
0.0
230
-1.0
  0
LINE
  5
526
  8
0
  6
CONTINUOUS
 10
-138.3228457504575
 20
37.91466094986594
 30
0.0
 11
-139.27955433137021
 21
37.724359781144159
 31
0.0
  0
LINE
  5
527
  8
0
  6
CONTINUOUS
 10
-137.36613716954469
 20
37.724359781144159
 30
0.0
 11
-138.3228457504575
 21
37.91466094986594
 31
0.0
  0
LINE
  5
528
  8
0
  6
CONTINUOUS
 10
-139.27955433137021
 20
37.724359781144159
 30
0.0
 11
-140.0906127034238
 21
37.182427902832309
 31
0.0
  0
LINE
  5
529
  8
0
  6
CONTINUOUS
 10
-137.36613716954469
 20
37.724359781144159
 30
0.0
 11
-136.55507879749109
 21
37.182427902832309
 31
0.0
  0
LINE
  5
52A
  8
0
  6
CONTINUOUS
 10
-140.0906127034238
 20
37.182427902832309
 30
0.0
 11
-140.63254458173569
 21
36.371369530778672
 31
0.0
  0
LINE
  5
52B
  8
0
  6
CONTINUOUS
 10
-136.55507879749109
 20
37.182427902832309
 30
0.0
 11
-136.01314691917921
 21
36.371369530778672
 31
0.0
  0
LINE
  5
52C
  8
0
  6
CONTINUOUS
 10
-140.63254458173569
 20
36.371369530778672
 30
0.0
 11
-140.82284575045739
 21
35.41466094986594
 31
0.0
  0
LINE
  5
52D
  8
0
  6
CONTINUOUS
 10
-136.01314691917921
 20
36.371369530778672
 30
0.0
 11
-135.8228457504575
 21
35.41466094986594
 31
0.0
  0
LINE
  5
52E
  8
0
  6
CONTINUOUS
 10
-140.82284575045739
 20
35.41466094986594
 30
0.0
 11
-140.63254458173569
 21
34.457952368953208
 31
0.0
  0
LINE
  5
52F
  8
0
  6
CONTINUOUS
 10
-135.8228457504575
 20
35.41466094986594
 30
0.0
 11
-136.01314691917921
 21
34.457952368953208
 31
0.0
  0
LINE
  5
530
  8
0
  6
CONTINUOUS
 10
-140.63254458173569
 20
34.457952368953208
 30
0.0
 11
-140.0906127034238
 21
33.646893996899571
 31
0.0
  0
LINE
  5
531
  8
0
  6
CONTINUOUS
 10
-136.01314691917921
 20
34.457952368953208
 30
0.0
 11
-136.55507879749109
 21
33.646893996899571
 31
0.0
  0
LINE
  5
532
  8
0
  6
CONTINUOUS
 10
-137.36613716954469
 20
33.104962118587721
 30
0.0
 11
-138.3228457504575
 21
32.91466094986594
 31
0.0
  0
LINE
  5
533
  8
0
  6
CONTINUOUS
 10
-138.3228457504575
 20
32.91466094986594
 30
0.0
 11
-139.27955433137021
 21
33.104962118587721
 31
0.0
  0
LINE
  5
534
  8
0
  6
CONTINUOUS
 10
-140.0906127034238
 20
33.646893996899571
 30
0.0
 11
-139.27955433137021
 21
33.104962118587721
 31
0.0
  0
LINE
  5
535
  8
0
  6
CONTINUOUS
 10
-136.55507879749109
 20
33.646893996899571
 30
0.0
 11
-137.36613716954469
 21
33.104962118587721
 31
0.0
  0
ENDBLK
  5
537
  8
0
  0
BLOCK
  8
0
  2
*U36
 70
     1
 10
0.0
 20
0.0
 30
0.0
  3
*U36
  1

  0
TEXT
  5
539
  8
0
 10
-366.90206456321999
 20
29.741584026789031
 30
0.0
 40
12.2941616766467
  1
Purlin
  7
ARIAL
  0
ENDBLK
  5
53B
  8
0
  0
BLOCK
  8
0
  2
*U37
 70
     1
 10
0.0
 20
0.0
 30
0.0
  3
*U37
  1

  0
SOLID
  5
53D
  8
0
  6
CONTINUOUS
 10
486.92870474013603
 20
-4.4864553579224111
 30
0.0
 11
485.97199615922329
 21
-4.676756526644188
 31
0.0
 12
487.8854133210487
 22
-4.676756526644188
 32
0.0
 13
487.8854133210487
 23
-4.676756526644188
 33
0.0
210
0.0
220
0.0
230
1.0
  0
SOLID
  5
53E
  8
0
  6
CONTINUOUS
 10
485.97199615922329
 20
-4.676756526644188
 30
0.0
 11
485.1609377871697
 21
-5.2186884049560254
 31
0.0
 12
488.6964716931023
 22
-5.2186884049560254
 32
0.0
 13
488.6964716931023
 23
-5.2186884049560254
 33
0.0
210
0.0
220
0.0
230
1.0
  0
SOLID
  5
53F
  8
0
  6
CONTINUOUS
 10
-485.97199615922329
 20
-4.676756526644188
 30
0.0
 11
-487.8854133210487
 21
-4.676756526644188
 31
0.0
 12
-488.6964716931023
 22
-5.2186884049560254
 32
0.0
 13
-488.6964716931023
 23
-5.2186884049560254
 33
0.0
210
0.0
220
0.0
230
-1.0
  0
SOLID
  5
540
  8
0
  6
CONTINUOUS
 10
485.1609377871697
 20
-5.2186884049560254
 30
0.0
 11
484.61900590885779
 21
-6.0297467770096498
 31
0.0
 12
489.23840357141421
 22
-6.0297467770096498
 32
0.0
 13
489.23840357141421
 23
-6.0297467770096498
 33
0.0
210
0.0
220
0.0
230
1.0
  0
SOLID
  5
541
  8
0
  6
CONTINUOUS
 10
-485.1609377871697
 20
-5.2186884049560254
 30
0.0
 11
-488.6964716931023
 21
-5.2186884049560254
 31
0.0
 12
-489.23840357141421
 22
-6.0297467770096498
 32
0.0
 13
-489.23840357141421
 23
-6.0297467770096498
 33
0.0
210
0.0
220
0.0
230
-1.0
  0
SOLID
  5
542
  8
0
  6
CONTINUOUS
 10
484.61900590885779
 20
-6.0297467770096498
 30
0.0
 11
484.42870474013603
 21
-6.9864553579223534
 31
0.0
 12
489.42870474013591
 22
-6.9864553579223534
 32
0.0
 13
489.42870474013591
 23
-6.9864553579223534
 33
0.0
210
0.0
220
0.0
230
1.0
  0
SOLID
  5
543
  8
0
  6
CONTINUOUS
 10
-484.61900590885779
 20
-6.0297467770096498
 30
0.0
 11
-489.23840357141421
 21
-6.0297467770096498
 31
0.0
 12
-489.42870474013591
 22
-6.9864553579223534
 32
0.0
 13
-489.42870474013591
 23
-6.9864553579223534
 33
0.0
210
0.0
220
0.0
230
-1.0
  0
SOLID
  5
544
  8
0
  6
CONTINUOUS
 10
484.42870474013603
 20
-6.9864553579223534
 30
0.0
 11
484.61900590885779
 21
-7.9431639388350561
 31
0.0
 12
489.23840357141421
 22
-7.9431639388350561
 32
0.0
 13
489.23840357141421
 23
-7.9431639388350561
 33
0.0
210
0.0
220
0.0
230
1.0
  0
SOLID
  5
545
  8
0
  6
CONTINUOUS
 10
-484.42870474013603
 20
-6.9864553579223534
 30
0.0
 11
-489.42870474013591
 21
-6.9864553579223534
 31
0.0
 12
-489.23840357141421
 22
-7.9431639388350561
 32
0.0
 13
-489.23840357141421
 23
-7.9431639388350561
 33
0.0
210
0.0
220
0.0
230
-1.0
  0
SOLID
  5
546
  8
0
  6
CONTINUOUS
 10
484.61900590885779
 20
-7.9431639388350561
 30
0.0
 11
485.1609377871697
 21
-8.7542223108886823
 31
0.0
 12
488.6964716931023
 22
-8.7542223108886823
 32
0.0
 13
488.6964716931023
 23
-8.7542223108886823
 33
0.0
210
0.0
220
0.0
230
1.0
  0
SOLID
  5
547
  8
0
  6
CONTINUOUS
 10
-484.61900590885779
 20
-7.9431639388350561
 30
0.0
 11
-489.23840357141421
 21
-7.9431639388350561
 31
0.0
 12
-488.6964716931023
 22
-8.7542223108886823
 32
0.0
 13
-488.6964716931023
 23
-8.7542223108886823
 33
0.0
210
0.0
220
0.0
230
-1.0
  0
SOLID
  5
548
  8
0
  6
CONTINUOUS
 10
-485.97199615922329
 20
-9.2961541892005162
 30
0.0
 11
-487.8854133210487
 21
-9.2961541892005162
 31
0.0
 12
-486.92870474013603
 22
-9.4864553579222957
 32
0.0
 13
-486.92870474013603
 23
-9.4864553579222957
 33
0.0
210
0.0
220
0.0
230
-1.0
  0
SOLID
  5
549
  8
0
  6
CONTINUOUS
 10
485.1609377871697
 20
-8.7542223108886823
 30
0.0
 11
485.97199615922329
 21
-9.2961541892005162
 31
0.0
 12
487.8854133210487
 22
-9.2961541892005162
 32
0.0
 13
487.8854133210487
 23
-9.2961541892005162
 33
0.0
  0
SOLID
  5
54A
  8
0
  6
CONTINUOUS
 10
-485.1609377871697
 20
-8.7542223108886823
 30
0.0
 11
-488.6964716931023
 21
-8.7542223108886823
 31
0.0
 12
-487.8854133210487
 22
-9.2961541892005162
 32
0.0
 13
-487.8854133210487
 23
-9.2961541892005162
 33
0.0
210
0.0
220
0.0
230
-1.0
  0
LINE
  5
54B
  8
0
  6
CONTINUOUS
 10
486.92870474013603
 20
-4.4864553579224111
 30
0.0
 11
485.97199615922329
 21
-4.676756526644188
 31
0.0
  0
LINE
  5
54C
  8
0
  6
CONTINUOUS
 10
487.8854133210487
 20
-4.676756526644188
 30
0.0
 11
486.92870474013603
 21
-4.4864553579224111
 31
0.0
  0
LINE
  5
54D
  8
0
  6
CONTINUOUS
 10
485.97199615922329
 20
-4.676756526644188
 30
0.0
 11
485.1609377871697
 21
-5.2186884049560254
 31
0.0
  0
LINE
  5
54E
  8
0
  6
CONTINUOUS
 10
487.8854133210487
 20
-4.676756526644188
 30
0.0
 11
488.6964716931023
 21
-5.2186884049560254
 31
0.0
  0
LINE
  5
54F
  8
0
  6
CONTINUOUS
 10
485.1609377871697
 20
-5.2186884049560254
 30
0.0
 11
484.61900590885779
 21
-6.0297467770096498
 31
0.0
  0
LINE
  5
550
  8
0
  6
CONTINUOUS
 10
488.6964716931023
 20
-5.2186884049560254
 30
0.0
 11
489.23840357141421
 21
-6.0297467770096498
 31
0.0
  0
LINE
  5
551
  8
0
  6
CONTINUOUS
 10
484.61900590885779
 20
-6.0297467770096498
 30
0.0
 11
484.42870474013603
 21
-6.9864553579223534
 31
0.0
  0
LINE
  5
552
  8
0
  6
CONTINUOUS
 10
489.23840357141421
 20
-6.0297467770096498
 30
0.0
 11
489.42870474013591
 21
-6.9864553579223534
 31
0.0
  0
LINE
  5
553
  8
0
  6
CONTINUOUS
 10
484.42870474013603
 20
-6.9864553579223534
 30
0.0
 11
484.61900590885779
 21
-7.9431639388350561
 31
0.0
  0
LINE
  5
554
  8
0
  6
CONTINUOUS
 10
489.42870474013591
 20
-6.9864553579223534
 30
0.0
 11
489.23840357141421
 21
-7.9431639388350561
 31
0.0
  0
LINE
  5
555
  8
0
  6
CONTINUOUS
 10
484.61900590885779
 20
-7.9431639388350561
 30
0.0
 11
485.1609377871697
 21
-8.7542223108886823
 31
0.0
  0
LINE
  5
556
  8
0
  6
CONTINUOUS
 10
489.23840357141421
 20
-7.9431639388350561
 30
0.0
 11
488.6964716931023
 21
-8.7542223108886823
 31
0.0
  0
LINE
  5
557
  8
0
  6
CONTINUOUS
 10
487.8854133210487
 20
-9.2961541892005162
 30
0.0
 11
486.92870474013603
 21
-9.4864553579222957
 31
0.0
  0
LINE
  5
558
  8
0
  6
CONTINUOUS
 10
486.92870474013603
 20
-9.4864553579222957
 30
0.0
 11
485.97199615922329
 21
-9.2961541892005162
 31
0.0
  0
LINE
  5
559
  8
0
  6
CONTINUOUS
 10
485.1609377871697
 20
-8.7542223108886823
 30
0.0
 11
485.97199615922329
 21
-9.2961541892005162
 31
0.0
  0
LINE
  5
55A
  8
0
  6
CONTINUOUS
 10
488.6964716931023
 20
-8.7542223108886823
 30
0.0
 11
487.8854133210487
 21
-9.2961541892005162
 31
0.0
  0
ENDBLK
  5
55C
  8
0
  0
BLOCK
  8
0
  2
*U38
 70
     1
 10
0.0
 20
0.0
 30
0.0
  3
*U38
  1

  0
TEXT
  5
55E
  8
0
 10
608.52802673915346
 20
-124.015569498368
 30
0.0
 40
12.2941616766467
  1
3"x3/4"Fascia
  7
ARIAL
  0
ENDBLK
  5
560
  8
0
  0
BLOCK
  8
0
  2
*U39
 70
     1
 10
0.0
 20
0.0
 30
0.0
  3
*U39
  1

  0
SOLID
  5
562
  8
0
  6
CONTINUOUS
 10
-110.88824945980789
 20
112.0412044374014
 30
0.0
 11
-111.8449580407206
 21
111.8509032686796
 31
0.0
 12
-109.93154087889511
 22
111.8509032686796
 32
0.0
 13
-109.93154087889511
 23
111.8509032686796
 33
0.0
210
0.0
220
0.0
230
1.0
  0
SOLID
  5
563
  8
0
  6
CONTINUOUS
 10
-111.8449580407206
 20
111.8509032686796
 30
0.0
 11
-112.65601641277421
 21
111.3089713903678
 31
0.0
 12
-109.1204825068415
 22
111.3089713903678
 32
0.0
 13
-109.1204825068415
 23
111.3089713903678
 33
0.0
210
0.0
220
0.0
230
1.0
  0
SOLID
  5
564
  8
0
  6
CONTINUOUS
 10
111.8449580407206
 20
111.8509032686796
 30
0.0
 11
109.93154087889511
 21
111.8509032686796
 31
0.0
 12
109.1204825068415
 22
111.3089713903678
 32
0.0
 13
109.1204825068415
 23
111.3089713903678
 33
0.0
210
0.0
220
0.0
230
-1.0
  0
SOLID
  5
565
  8
0
  6
CONTINUOUS
 10
-112.65601641277421
 20
111.3089713903678
 30
0.0
 11
-113.19794829108611
 21
110.49791301831409
 31
0.0
 12
-108.5785506285297
 22
110.49791301831409
 32
0.0
 13
-108.5785506285297
 23
110.49791301831409
 33
0.0
210
0.0
220
0.0
230
1.0
  0
SOLID
  5
566
  8
0
  6
CONTINUOUS
 10
112.65601641277421
 20
111.3089713903678
 30
0.0
 11
109.1204825068415
 21
111.3089713903678
 31
0.0
 12
108.5785506285297
 22
110.49791301831409
 32
0.0
 13
108.5785506285297
 23
110.49791301831409
 33
0.0
210
0.0
220
0.0
230
-1.0
  0
SOLID
  5
567
  8
0
  6
CONTINUOUS
 10
-113.19794829108611
 20
110.49791301831409
 30
0.0
 11
-113.3882494598078
 21
109.5412044374014
 31
0.0
 12
-108.3882494598078
 22
109.5412044374014
 32
0.0
 13
-108.3882494598078
 23
109.5412044374014
 33
0.0
210
0.0
220
0.0
230
1.0
  0
SOLID
  5
568
  8
0
  6
CONTINUOUS
 10
113.19794829108611
 20
110.49791301831409
 30
0.0
 11
108.5785506285297
 21
110.49791301831409
 31
0.0
 12
108.3882494598078
 22
109.5412044374014
 32
0.0
 13
108.3882494598078
 23
109.5412044374014
 33
0.0
210
0.0
220
0.0
230
-1.0
  0
SOLID
  5
569
  8
0
  6
CONTINUOUS
 10
-113.3882494598078
 20
109.5412044374014
 30
0.0
 11
-113.19794829108611
 21
108.5844958564887
 31
0.0
 12
-108.5785506285297
 22
108.5844958564887
 32
0.0
 13
-108.5785506285297
 23
108.5844958564887
 33
0.0
  0
SOLID
  5
56A
  8
0
  6
CONTINUOUS
 10
113.3882494598078
 20
109.5412044374014
 30
0.0
 11
108.3882494598078
 21
109.5412044374014
 31
0.0
 12
108.5785506285297
 22
108.5844958564887
 32
0.0
 13
108.5785506285297
 23
108.5844958564887
 33
0.0
210
0.0
220
0.0
230
-1.0
  0
SOLID
  5
56B
  8
0
  6
CONTINUOUS
 10
-113.19794829108611
 20
108.5844958564887
 30
0.0
 11
-112.65601641277421
 21
107.77343748443499
 31
0.0
 12
-109.1204825068415
 22
107.77343748443499
 32
0.0
 13
-109.1204825068415
 23
107.77343748443499
 33
0.0
210
0.0
220
0.0
230
1.0
  0
SOLID
  5
56C
  8
0
  6
CONTINUOUS
 10
113.19794829108611
 20
108.5844958564887
 30
0.0
 11
108.5785506285297
 21
108.5844958564887
 31
0.0
 12
109.1204825068415
 22
107.77343748443499
 32
0.0
 13
109.1204825068415
 23
107.77343748443499
 33
0.0
210
0.0
220
0.0
230
-1.0
  0
SOLID
  5
56D
  8
0
  6
CONTINUOUS
 10
111.8449580407206
 20
107.23150560612321
 30
0.0
 11
109.93154087889511
 21
107.23150560612321
 31
0.0
 12
110.88824945980789
 22
107.0412044374014
 32
0.0
 13
110.88824945980789
 23
107.0412044374014
 33
0.0
210
0.0
220
0.0
230
-1.0
  0
SOLID
  5
56E
  8
0
  6
CONTINUOUS
 10
-112.65601641277421
 20
107.77343748443499
 30
0.0
 11
-111.8449580407206
 21
107.23150560612321
 31
0.0
 12
-109.93154087889511
 22
107.23150560612321
 32
0.0
 13
-109.93154087889511
 23
107.23150560612321
 33
0.0
210
0.0
220
0.0
230
1.0
  0
SOLID
  5
56F
  8
0
  6
CONTINUOUS
 10
112.65601641277421
 20
107.77343748443499
 30
0.0
 11
109.1204825068415
 21
107.77343748443499
 31
0.0
 12
109.93154087889511
 22
107.23150560612321
 32
0.0
 13
109.93154087889511
 23
107.23150560612321
 33
0.0
210
0.0
220
0.0
230
-1.0
  0
LINE
  5
570
  8
0
  6
CONTINUOUS
 10
-110.88824945980789
 20
112.0412044374014
 30
0.0
 11
-111.8449580407206
 21
111.8509032686796
 31
0.0
  0
LINE
  5
571
  8
0
  6
CONTINUOUS
 10
-109.93154087889511
 20
111.8509032686796
 30
0.0
 11
-110.88824945980789
 21
112.0412044374014
 31
0.0
  0
LINE
  5
572
  8
0
  6
CONTINUOUS
 10
-111.8449580407206
 20
111.8509032686796
 30
0.0
 11
-112.65601641277421
 21
111.3089713903678
 31
0.0
  0
LINE
  5
573
  8
0
  6
CONTINUOUS
 10
-109.93154087889511
 20
111.8509032686796
 30
0.0
 11
-109.1204825068415
 21
111.3089713903678
 31
0.0
  0
LINE
  5
574
  8
0
  6
CONTINUOUS
 10
-112.65601641277421
 20
111.3089713903678
 30
0.0
 11
-113.19794829108611
 21
110.49791301831409
 31
0.0
  0
LINE
  5
575
  8
0
  6
CONTINUOUS
 10
-109.1204825068415
 20
111.3089713903678
 30
0.0
 11
-108.5785506285297
 21
110.49791301831409
 31
0.0
  0
LINE
  5
576
  8
0
  6
CONTINUOUS
 10
-113.19794829108611
 20
110.49791301831409
 30
0.0
 11
-113.3882494598078
 21
109.5412044374014
 31
0.0
  0
LINE
  5
577
  8
0
  6
CONTINUOUS
 10
-108.5785506285297
 20
110.49791301831409
 30
0.0
 11
-108.3882494598078
 21
109.5412044374014
 31
0.0
  0
LINE
  5
578
  8
0
  6
CONTINUOUS
 10
-113.3882494598078
 20
109.5412044374014
 30
0.0
 11
-113.19794829108611
 21
108.5844958564887
 31
0.0
  0
LINE
  5
579
  8
0
  6
CONTINUOUS
 10
-108.3882494598078
 20
109.5412044374014
 30
0.0
 11
-108.5785506285297
 21
108.5844958564887
 31
0.0
  0
LINE
  5
57A
  8
0
  6
CONTINUOUS
 10
-113.19794829108611
 20
108.5844958564887
 30
0.0
 11
-112.65601641277421
 21
107.77343748443499
 31
0.0
  0
LINE
  5
57B
  8
0
  6
CONTINUOUS
 10
-108.5785506285297
 20
108.5844958564887
 30
0.0
 11
-109.1204825068415
 21
107.77343748443499
 31
0.0
  0
LINE
  5
57C
  8
0
  6
CONTINUOUS
 10
-109.93154087889511
 20
107.23150560612321
 30
0.0
 11
-110.88824945980789
 21
107.0412044374014
 31
0.0
  0
LINE
  5
57D
  8
0
  6
CONTINUOUS
 10
-110.88824945980789
 20
107.0412044374014
 30
0.0
 11
-111.8449580407206
 21
107.23150560612321
 31
0.0
  0
LINE
  5
57E
  8
0
  6
CONTINUOUS
 10
-112.65601641277421
 20
107.77343748443499
 30
0.0
 11
-111.8449580407206
 21
107.23150560612321
 31
0.0
  0
LINE
  5
57F
  8
0
  6
CONTINUOUS
 10
-109.1204825068415
 20
107.77343748443499
 30
0.0
 11
-109.93154087889511
 21
107.23150560612321
 31
0.0
  0
ENDBLK
  5
581
  8
0
  0
BLOCK
  8
0
  2
*U40
 70
     1
 10
0.0
 20
0.0
 30
0.0
  3
*U40
  1

  0
TEXT
  5
583
  8
0
 10
-366.39050667626537
 20
-84.202531086187705
 30
0.0
 40
12.2941616766467
  1
7/16 OSB or counter batten
  7
ARIAL
  0
TEXT
  5
584
  8
0
 10
-366.14730702509019
 20
-103.4333003169569
 30
0.0
 40
12.2941616766467
  1
over spaced sheathing
  7
ARIAL
  0
ENDBLK
  5
586
  8
0
  0
BLOCK
  8
0
  2
*U41
 70
     1
 10
0.0
 20
0.0
 30
0.0
  3
*U41
  1

  0
SOLID
  5
588
  8
0
  6
CONTINUOUS
 10
341.68087520199077
 20
128.66068060231939
 30
0.0
 11
340.7241666210781
 21
128.4703794335976
 31
0.0
 12
342.63758378290362
 22
128.4703794335976
 32
0.0
 13
342.63758378290362
 23
128.4703794335976
 33
0.0
210
0.0
220
0.0
230
1.0
  0
SOLID
  5
589
  8
0
  6
CONTINUOUS
 10
340.7241666210781
 20
128.4703794335976
 30
0.0
 11
339.91310824902439
 21
127.9284475552858
 31
0.0
 12
343.44864215495721
 22
127.9284475552858
 32
0.0
 13
343.44864215495721
 23
127.9284475552858
 33
0.0
210
0.0
220
0.0
230
1.0
  0
SOLID
  5
58A
  8
0
  6
CONTINUOUS
 10
-340.7241666210781
 20
128.4703794335976
 30
0.0
 11
-342.63758378290362
 21
128.4703794335976
 31
0.0
 12
-343.44864215495721
 22
127.9284475552858
 32
0.0
 13
-343.44864215495721
 23
127.9284475552858
 33
0.0
210
0.0
220
0.0
230
-1.0
  0
SOLID
  5
58B
  8
0
  6
CONTINUOUS
 10
339.91310824902439
 20
127.9284475552858
 30
0.0
 11
339.37117637071259
 21
127.11738918323211
 31
0.0
 12
343.99057403326913
 22
127.11738918323211
 32
0.0
 13
343.99057403326913
 23
127.11738918323211
 33
0.0
210
0.0
220
0.0
230
1.0
  0
SOLID
  5
58C
  8
0
  6
CONTINUOUS
 10
-339.91310824902439
 20
127.9284475552858
 30
0.0
 11
-343.44864215495721
 21
127.9284475552858
 31
0.0
 12
-343.99057403326913
 22
127.11738918323211
 32
0.0
 13
-343.99057403326913
 23
127.11738918323211
 33
0.0
210
0.0
220
0.0
230
-1.0
  0
SOLID
  5
58D
  8
0
  6
CONTINUOUS
 10
339.37117637071259
 20
127.11738918323211
 30
0.0
 11
339.18087520199077
 21
126.1606806023194
 31
0.0
 12
344.18087520199077
 22
126.1606806023194
 32
0.0
 13
344.18087520199077
 23
126.1606806023194
 33
0.0
210
0.0
220
0.0
230
1.0
  0
SOLID
  5
58E
  8
0
  6
CONTINUOUS
 10
-339.37117637071259
 20
127.11738918323211
 30
0.0
 11
-343.99057403326913
 21
127.11738918323211
 31
0.0
 12
-344.18087520199077
 22
126.1606806023194
 32
0.0
 13
-344.18087520199077
 23
126.1606806023194
 33
0.0
210
0.0
220
0.0
230
-1.0
  0
SOLID
  5
58F
  8
0
  6
CONTINUOUS
 10
339.18087520199077
 20
126.1606806023194
 30
0.0
 11
339.37117637071259
 21
125.2039720214067
 31
0.0
 12
343.99057403326913
 22
125.2039720214067
 32
0.0
 13
343.99057403326913
 23
125.2039720214067
 33
0.0
210
0.0
220
0.0
230
1.0
  0
SOLID
  5
590
  8
0
  6
CONTINUOUS
 10
-339.18087520199077
 20
126.1606806023194
 30
0.0
 11
-344.18087520199077
 21
126.1606806023194
 31
0.0
 12
-343.99057403326913
 22
125.2039720214067
 32
0.0
 13
-343.99057403326913
 23
125.2039720214067
 33
0.0
210
0.0
220
0.0
230
-1.0
  0
SOLID
  5
591
  8
0
  6
CONTINUOUS
 10
339.37117637071259
 20
125.2039720214067
 30
0.0
 11
339.91310824902439
 21
124.39291364935301
 31
0.0
 12
343.44864215495721
 22
124.39291364935301
 32
0.0
 13
343.44864215495721
 23
124.39291364935301
 33
0.0
210
0.0
220
0.0
230
1.0
  0
SOLID
  5
592
  8
0
  6
CONTINUOUS
 10
-339.37117637071259
 20
125.2039720214067
 30
0.0
 11
-343.99057403326913
 21
125.2039720214067
 31
0.0
 12
-343.44864215495721
 22
124.39291364935301
 32
0.0
 13
-343.44864215495721
 23
124.39291364935301
 33
0.0
210
0.0
220
0.0
230
-1.0
  0
SOLID
  5
593
  8
0
  6
CONTINUOUS
 10
-340.7241666210781
 20
123.85098177104121
 30
0.0
 11
-342.63758378290362
 21
123.85098177104121
 31
0.0
 12
-341.68087520199077
 22
123.6606806023194
 32
0.0
 13
-341.68087520199077
 23
123.6606806023194
 33
0.0
210
0.0
220
0.0
230
-1.0
  0
SOLID
  5
594
  8
0
  6
CONTINUOUS
 10
339.91310824902439
 20
124.39291364935301
 30
0.0
 11
340.7241666210781
 21
123.85098177104121
 31
0.0
 12
342.63758378290362
 22
123.85098177104121
 32
0.0
 13
342.63758378290362
 23
123.85098177104121
 33
0.0
  0
SOLID
  5
595
  8
0
  6
CONTINUOUS
 10
-339.91310824902439
 20
124.39291364935301
 30
0.0
 11
-343.44864215495721
 21
124.39291364935301
 31
0.0
 12
-342.63758378290362
 22
123.85098177104121
 32
0.0
 13
-342.63758378290362
 23
123.85098177104121
 33
0.0
210
0.0
220
0.0
230
-1.0
  0
LINE
  5
596
  8
0
  6
CONTINUOUS
 10
341.68087520199077
 20
128.66068060231939
 30
0.0
 11
340.7241666210781
 21
128.4703794335976
 31
0.0
  0
LINE
  5
597
  8
0
  6
CONTINUOUS
 10
342.63758378290362
 20
128.4703794335976
 30
0.0
 11
341.68087520199077
 21
128.66068060231939
 31
0.0
  0
LINE
  5
598
  8
0
  6
CONTINUOUS
 10
340.7241666210781
 20
128.4703794335976
 30
0.0
 11
339.91310824902439
 21
127.9284475552858
 31
0.0
  0
LINE
  5
599
  8
0
  6
CONTINUOUS
 10
342.63758378290362
 20
128.4703794335976
 30
0.0
 11
343.44864215495721
 21
127.9284475552858
 31
0.0
  0
LINE
  5
59A
  8
0
  6
CONTINUOUS
 10
339.91310824902439
 20
127.9284475552858
 30
0.0
 11
339.37117637071259
 21
127.11738918323211
 31
0.0
  0
LINE
  5
59B
  8
0
  6
CONTINUOUS
 10
343.44864215495721
 20
127.9284475552858
 30
0.0
 11
343.99057403326913
 21
127.11738918323211
 31
0.0
  0
LINE
  5
59C
  8
0
  6
CONTINUOUS
 10
339.37117637071259
 20
127.11738918323211
 30
0.0
 11
339.18087520199077
 21
126.1606806023194
 31
0.0
  0
LINE
  5
59D
  8
0
  6
CONTINUOUS
 10
343.99057403326913
 20
127.11738918323211
 30
0.0
 11
344.18087520199077
 21
126.1606806023194
 31
0.0
  0
LINE
  5
59E
  8
0
  6
CONTINUOUS
 10
339.18087520199077
 20
126.1606806023194
 30
0.0
 11
339.37117637071259
 21
125.2039720214067
 31
0.0
  0
LINE
  5
59F
  8
0
  6
CONTINUOUS
 10
344.18087520199077
 20
126.1606806023194
 30
0.0
 11
343.99057403326913
 21
125.2039720214067
 31
0.0
  0
LINE
  5
5A0
  8
0
  6
CONTINUOUS
 10
339.37117637071259
 20
125.2039720214067
 30
0.0
 11
339.91310824902439
 21
124.39291364935301
 31
0.0
  0
LINE
  5
5A1
  8
0
  6
CONTINUOUS
 10
343.99057403326913
 20
125.2039720214067
 30
0.0
 11
343.44864215495721
 21
124.39291364935301
 31
0.0
  0
LINE
  5
5A2
  8
0
  6
CONTINUOUS
 10
342.63758378290362
 20
123.85098177104121
 30
0.0
 11
341.68087520199077
 21
123.6606806023194
 31
0.0
  0
LINE
  5
5A3
  8
0
  6
CONTINUOUS
 10
341.68087520199077
 20
123.6606806023194
 30
0.0
 11
340.7241666210781
 21
123.85098177104121
 31
0.0
  0
LINE
  5
5A4
  8
0
  6
CONTINUOUS
 10
339.91310824902439
 20
124.39291364935301
 30
0.0
 11
340.7241666210781
 21
123.85098177104121
 31
0.0
  0
LINE
  5
5A5
  8
0
  6
CONTINUOUS
 10
343.44864215495721
 20
124.39291364935301
 30
0.0
 11
342.63758378290362
 21
123.85098177104121
 31
0.0
  0
ENDBLK
  5
5A7
  8
0
  0
BLOCK
  8
0
  2
*U42
 70
     1
 10
0.0
 20
0.0
 30
0.0
  3
*U42
  1

  0
TEXT
  5
5A9
  8
0
 10
607.8990621240456
 20
-216.1868845888113
 30
0.0
 40
12.2941616766467
  1
Universal Channel
  7
ARIAL
  0
ENDBLK
  5
5AB
  8
0
  0
BLOCK
  8
0
  2
*U43
 70
     1
 10
0.0
 20
0.0
 30
0.0
  3
*U43
  1

  0
SOLID
  5
5AD
  8
0
  6
CONTINUOUS
 10
529.87447955717244
 20
199.03024298918669
 30
0.0
 11
528.91777097625959
 21
198.8399418204649
 31
0.0
 12
530.83118813808505
 22
198.8399418204649
 32
0.0
 13
530.83118813808505
 23
198.8399418204649
 33
0.0
210
0.0
220
0.0
230
1.0
  0
SOLID
  5
5AE
  8
0
  6
CONTINUOUS
 10
528.91777097625959
 20
198.8399418204649
 30
0.0
 11
528.10671260420611
 21
198.2980099421531
 31
0.0
 12
531.64224651013865
 22
198.2980099421531
 32
0.0
 13
531.64224651013865
 23
198.2980099421531
 33
0.0
210
0.0
220
0.0
230
1.0
  0
SOLID
  5
5AF
  8
0
  6
CONTINUOUS
 10
-528.91777097625959
 20
198.8399418204649
 30
0.0
 11
-530.83118813808505
 21
198.8399418204649
 31
0.0
 12
-531.64224651013865
 22
198.2980099421531
 32
0.0
 13
-531.64224651013865
 23
198.2980099421531
 33
0.0
210
0.0
220
0.0
230
-1.0
  0
SOLID
  5
5B0
  8
0
  6
CONTINUOUS
 10
528.10671260420611
 20
198.2980099421531
 30
0.0
 11
527.56478072589425
 21
197.48695157009939
 31
0.0
 12
532.18417838845062
 22
197.48695157009939
 32
0.0
 13
532.18417838845062
 23
197.48695157009939
 33
0.0
  0
SOLID
  5
5B1
  8
0
  6
CONTINUOUS
 10
-528.10671260420611
 20
198.2980099421531
 30
0.0
 11
-531.64224651013865
 21
198.2980099421531
 31
0.0
 12
-532.18417838845062
 22
197.48695157009939
 32
0.0
 13
-532.18417838845062
 23
197.48695157009939
 33
0.0
210
0.0
220
0.0
230
-1.0
  0
SOLID
  5
5B2
  8
0
  6
CONTINUOUS
 10
527.56478072589425
 20
197.48695157009939
 30
0.0
 11
527.37447955717244
 21
196.53024298918669
 31
0.0
 12
532.37447955717244
 22
196.53024298918669
 32
0.0
 13
532.37447955717244
 23
196.53024298918669
 33
0.0
210
0.0
220
0.0
230
1.0
  0
SOLID
  5
5B3
  8
0
  6
CONTINUOUS
 10
-527.56478072589425
 20
197.48695157009939
 30
0.0
 11
-532.18417838845062
 21
197.48695157009939
 31
0.0
 12
-532.37447955717244
 22
196.53024298918669
 32
0.0
 13
-532.37447955717244
 23
196.53024298918669
 33
0.0
210
0.0
220
0.0
230
-1.0
  0
SOLID
  5
5B4
  8
0
  6
CONTINUOUS
 10
527.37447955717244
 20
196.53024298918669
 30
0.0
 11
527.56478072589425
 21
195.57353440827401
 31
0.0
 12
532.18417838845062
 22
195.57353440827401
 32
0.0
 13
532.18417838845062
 23
195.57353440827401
 33
0.0
210
0.0
220
0.0
230
1.0
  0
SOLID
  5
5B5
  8
0
  6
CONTINUOUS
 10
-527.37447955717244
 20
196.53024298918669
 30
0.0
 11
-532.37447955717244
 21
196.53024298918669
 31
0.0
 12
-532.18417838845062
 22
195.57353440827401
 32
0.0
 13
-532.18417838845062
 23
195.57353440827401
 33
0.0
210
0.0
220
0.0
230
-1.0
  0
SOLID
  5
5B6
  8
0
  6
CONTINUOUS
 10
527.56478072589425
 20
195.57353440827401
 30
0.0
 11
528.10671260420611
 21
194.76247603622031
 31
0.0
 12
531.64224651013865
 22
194.76247603622031
 32
0.0
 13
531.64224651013865
 23
194.76247603622031
 33
0.0
210
0.0
220
0.0
230
1.0
  0
SOLID
  5
5B7
  8
0
  6
CONTINUOUS
 10
-527.56478072589425
 20
195.57353440827401
 30
0.0
 11
-532.18417838845062
 21
195.57353440827401
 31
0.0
 12
-531.64224651013865
 22
194.76247603622031
 32
0.0
 13
-531.64224651013865
 23
194.76247603622031
 33
0.0
210
0.0
220
0.0
230
-1.0
  0
SOLID
  5
5B8
  8
0
  6
CONTINUOUS
 10
-528.91777097625959
 20
194.22054415790851
 30
0.0
 11
-530.83118813808505
 21
194.22054415790851
 31
0.0
 12
-529.87447955717244
 22
194.03024298918669
 32
0.0
 13
-529.87447955717244
 23
194.03024298918669
 33
0.0
210
0.0
220
0.0
230
-1.0
  0
SOLID
  5
5B9
  8
0
  6
CONTINUOUS
 10
528.10671260420611
 20
194.76247603622031
 30
0.0
 11
528.91777097625959
 21
194.22054415790851
 31
0.0
 12
530.83118813808505
 22
194.22054415790851
 32
0.0
 13
530.83118813808505
 23
194.22054415790851
 33
0.0
  0
SOLID
  5
5BA
  8
0
  6
CONTINUOUS
 10
-528.10671260420611
 20
194.76247603622031
 30
0.0
 11
-531.64224651013865
 21
194.76247603622031
 31
0.0
 12
-530.83118813808505
 22
194.22054415790851
 32
0.0
 13
-530.83118813808505
 23
194.22054415790851
 33
0.0
210
0.0
220
0.0
230
-1.0
  0
LINE
  5
5BB
  8
0
  6
CONTINUOUS
 10
529.87447955717244
 20
199.03024298918669
 30
0.0
 11
528.91777097625959
 21
198.8399418204649
 31
0.0
  0
LINE
  5
5BC
  8
0
  6
CONTINUOUS
 10
530.83118813808505
 20
198.8399418204649
 30
0.0
 11
529.87447955717244
 21
199.03024298918669
 31
0.0
  0
LINE
  5
5BD
  8
0
  6
CONTINUOUS
 10
528.91777097625959
 20
198.8399418204649
 30
0.0
 11
528.10671260420611
 21
198.2980099421531
 31
0.0
  0
LINE
  5
5BE
  8
0
  6
CONTINUOUS
 10
530.83118813808505
 20
198.8399418204649
 30
0.0
 11
531.64224651013865
 21
198.2980099421531
 31
0.0
  0
LINE
  5
5BF
  8
0
  6
CONTINUOUS
 10
528.10671260420611
 20
198.2980099421531
 30
0.0
 11
527.56478072589425
 21
197.48695157009939
 31
0.0
  0
LINE
  5
5C0
  8
0
  6
CONTINUOUS
 10
531.64224651013865
 20
198.2980099421531
 30
0.0
 11
532.18417838845062
 21
197.48695157009939
 31
0.0
  0
LINE
  5
5C1
  8
0
  6
CONTINUOUS
 10
527.56478072589425
 20
197.48695157009939
 30
0.0
 11
527.37447955717244
 21
196.53024298918669
 31
0.0
  0
LINE
  5
5C2
  8
0
  6
CONTINUOUS
 10
532.18417838845062
 20
197.48695157009939
 30
0.0
 11
532.37447955717244
 21
196.53024298918669
 31
0.0
  0
LINE
  5
5C3
  8
0
  6
CONTINUOUS
 10
527.37447955717244
 20
196.53024298918669
 30
0.0
 11
527.56478072589425
 21
195.57353440827401
 31
0.0
  0
LINE
  5
5C4
  8
0
  6
CONTINUOUS
 10
532.37447955717244
 20
196.53024298918669
 30
0.0
 11
532.18417838845062
 21
195.57353440827401
 31
0.0
  0
LINE
  5
5C5
  8
0
  6
CONTINUOUS
 10
527.56478072589425
 20
195.57353440827401
 30
0.0
 11
528.10671260420611
 21
194.76247603622031
 31
0.0
  0
LINE
  5
5C6
  8
0
  6
CONTINUOUS
 10
532.18417838845062
 20
195.57353440827401
 30
0.0
 11
531.64224651013865
 21
194.76247603622031
 31
0.0
  0
LINE
  5
5C7
  8
0
  6
CONTINUOUS
 10
530.83118813808505
 20
194.22054415790851
 30
0.0
 11
529.87447955717244
 21
194.03024298918669
 31
0.0
  0
LINE
  5
5C8
  8
0
  6
CONTINUOUS
 10
529.87447955717244
 20
194.03024298918669
 30
0.0
 11
528.91777097625959
 21
194.22054415790851
 31
0.0
  0
LINE
  5
5C9
  8
0
  6
CONTINUOUS
 10
528.10671260420611
 20
194.76247603622031
 30
0.0
 11
528.91777097625959
 21
194.22054415790851
 31
0.0
  0
LINE
  5
5CA
  8
0
  6
CONTINUOUS
 10
531.64224651013865
 20
194.76247603622031
 30
0.0
 11
530.83118813808505
 21
194.22054415790851
 31
0.0
  0
ENDBLK
  5
5CC
  8
0
  0
BLOCK
  8
0
  2
*U44
 70
     1
 10
0.0
 20
0.0
 30
0.0
  3
*U44
  1

  0
TEXT
  5
5CE
  8
0
 10
598.94161804222256
 20
190.8571660661097
 30
0.0
 40
12.2941616766467
  1
100 Barrel Trim
  7
ARIAL
  0
ENDBLK
  5
5D0
  8
0
  0
BLOCK
  8
0
  2
*U45
 70
     1
 10
0.0
 20
0.0
 30
0.0
  3
*U45
  1

  0
SOLID
  5
5DC
  8
0
  6
CONTINUOUS
 10
473.30325198361032
 20
252.36966406764421
 30
0.0
 11
468.18470846799511
 21
252.36786976955659
 31
0.0
 12
473.32367690955471
 22
252.36786976955659
 32
0.0
 13
473.32367690955471
 23
252.36786976955659
 33
0.0
210
0.0
220
0.0
230
1.0
  0
SOLID
  5
5DD
  8
0
  6
CONTINUOUS
 10
468.18470846799511
 20
252.36786976955659
 30
0.0
 11
463.04695460015409
 21
251.92611884863831
 31
0.0
 12
478.35223370727817
 22
251.92611884863831
 32
0.0
 13
478.35223370727817
 23
251.92611884863831
 33
0.0
210
0.0
220
0.0
230
1.0
  0
SOLID
  5
5DE
  8
0
  6
CONTINUOUS
 10
-468.18470846799511
 20
252.36786976955659
 30
0.0
 11
-473.32367690955471
 21
252.36786976955659
 31
0.0
 12
-478.35223370727817
 22
251.92611884863831
 32
0.0
 13
-478.35223370727817
 23
251.92611884863831
 33
0.0
210
0.0
220
0.0
230
-1.0
  0
SOLID
  5
5DF
  8
0
  6
CONTINUOUS
 10
463.04695460015409
 20
251.92611884863831
 30
0.0
 11
463.02158576226458
 21
251.921733023863
 31
0.0
 12
478.40215860373689
 22
251.921733023863
 32
0.0
 13
478.40215860373689
 23
251.921733023863
 33
0.0
210
0.0
220
0.0
230
1.0
  0
SOLID
  5
5E0
  8
0
  6
CONTINUOUS
 10
-463.04695460015409
 20
251.92611884863831
 30
0.0
 11
-478.35223370727817
 21
251.92611884863831
 31
0.0
 12
-478.40215860373689
 22
251.921733023863
 32
0.0
 13
-478.40215860373689
 23
251.921733023863
 33
0.0
210
0.0
220
0.0
230
-1.0
  0
SOLID
  5
5E1
  8
0
  6
CONTINUOUS
 10
463.02158576226458
 20
251.921733023863
 30
0.0
 11
459.828787287534
 21
251.36975446205659
 31
0.0
 12
481.56008448310899
 22
251.36975446205659
 32
0.0
 13
481.56008448310899
 23
251.36975446205659
 33
0.0
210
0.0
220
0.0
230
1.0
  0
SOLID
  5
5E2
  8
0
  6
CONTINUOUS
 10
-463.02158576226458
 20
251.921733023863
 30
0.0
 11
-478.40215860373689
 21
251.921733023863
 31
0.0
 12
-481.56008448310899
 22
251.36975446205659
 32
0.0
 13
-481.56008448310899
 23
251.36975446205659
 33
0.0
210
0.0
220
0.0
230
-1.0
  0
SOLID
  5
5E3
  8
0
  6
CONTINUOUS
 10
468.24856691923338
 20
251.36975446205659
 30
0.0
 11
473.282148923786
 21
251.36962834178851
 31
0.0
 12
481.5608060300782
 22
251.36962834178851
 32
0.0
 13
481.5608060300782
 23
251.36962834178851
 33
0.0
210
0.0
220
0.0
230
1.0
  0
SOLID
  5
5E4
  8
0
  6
CONTINUOUS
 10
-468.24856691923338
 20
251.36975446205659
 30
0.0
 11
-481.56008448310899
 21
251.36975446205659
 31
0.0
 12
-481.5608060300782
 22
251.36962834178851
 32
0.0
 13
-481.5608060300782
 23
251.36962834178851
 33
0.0
210
0.0
220
0.0
230
-1.0
  0
SOLID
  5
5E5
  8
0
  6
CONTINUOUS
 10
459.828787287534
 20
251.36975446205659
 30
0.0
 11
458.0032300404572
 21
251.05414780172021
 31
0.0
 12
464.56247325088412
 22
251.05414780172021
 32
0.0
 13
464.56247325088412
 23
251.05414780172021
 33
0.0
210
0.0
220
0.0
230
1.0
  0
SOLID
  5
5E6
  8
0
  6
CONTINUOUS
 10
-459.828787287534
 20
251.36975446205659
 30
0.0
 11
-468.24856691923338
 21
251.36975446205659
 31
0.0
 12
-464.56247325088412
 22
251.05414780172021
 32
0.0
 13
-464.56247325088412
 23
251.05414780172021
 33
0.0
210
0.0
220
0.0
230
-1.0
  0
SOLID
  5
5E7
  8
0
  6
CONTINUOUS
 10
473.282148923786
 20
251.36962834178851
 30
0.0
 11
477.0872040944742
 21
251.0338453572509
 31
0.0
 12
483.48185487163789
 22
251.0338453572509
 32
0.0
 13
483.48185487163789
 23
251.0338453572509
 33
0.0
210
0.0
220
0.0
230
1.0
  0
SOLID
  5
5E8
  8
0
  6
CONTINUOUS
 10
-473.282148923786
 20
251.36962834178851
 30
0.0
 11
-481.5608060300782
 21
251.36962834178851
 31
0.0
 12
-483.48185487163789
 22
251.0338453572509
 32
0.0
 13
-483.48185487163789
 23
251.0338453572509
 33
0.0
210
0.0
220
0.0
230
-1.0
  0
SOLID
  5
5E9
  8
0
  6
CONTINUOUS
 10
458.0032300404572
 20
251.05414780172021
 30
0.0
 11
457.56191193768518
 21
250.9371425118205
 31
0.0
 12
463.19592269139019
 22
250.9371425118205
 32
0.0
 13
463.19592269139019
 23
250.9371425118205
 33
0.0
210
0.0
220
0.0
230
1.0
  0
SOLID
  5
5EA
  8
0
  6
CONTINUOUS
 10
-458.0032300404572
 20
251.05414780172021
 30
0.0
 11
-464.56247325088412
 21
251.05414780172021
 31
0.0
 12
-463.19592269139019
 22
250.9371425118205
 32
0.0
 13
-463.19592269139019
 23
250.9371425118205
 33
0.0
210
0.0
220
0.0
230
-1.0
  0
SOLID
  5
5EB
  8
0
  6
CONTINUOUS
 10
477.0872040944742
 20
251.0338453572509
 30
0.0
 11
478.29624527176162
 21
250.9271516467193
 31
0.0
 12
483.88542196418479
 22
250.9271516467193
 32
0.0
 13
483.88542196418479
 23
250.9271516467193
 33
0.0
210
0.0
220
0.0
230
1.0
  0
SOLID
  5
5EC
  8
0
  6
CONTINUOUS
 10
-477.0872040944742
 20
251.0338453572509
 30
0.0
 11
-483.48185487163789
 21
251.0338453572509
 31
0.0
 12
-483.88542196418479
 22
250.9271516467193
 32
0.0
 13
-483.88542196418479
 23
250.9271516467193
 33
0.0
210
0.0
220
0.0
230
-1.0
  0
SOLID
  5
5ED
  8
0
  6
CONTINUOUS
 10
457.56191193768518
 20
250.9371425118205
 30
0.0
 11
454.33398211736147
 21
250.0813315626873
 31
0.0
 12
458.23562678975219
 22
250.0813315626873
 32
0.0
 13
458.23562678975219
 23
250.0813315626873
 33
0.0
210
0.0
220
0.0
230
1.0
  0
SOLID
  5
5EE
  8
0
  6
CONTINUOUS
 10
-457.56191193768518
 20
250.9371425118205
 30
0.0
 11
-463.19592269139019
 21
250.9371425118205
 31
0.0
 12
-458.23562678975219
 22
250.0813315626873
 32
0.0
 13
-458.23562678975219
 23
250.0813315626873
 33
0.0
210
0.0
220
0.0
230
-1.0
  0
SOLID
  5
5EF
  8
0
  6
CONTINUOUS
 10
478.29624527176162
 20
250.9271516467193
 30
0.0
 11
483.29127939644661
 21
250.05193688114591
 31
0.0
 12
487.19590649543329
 22
250.05193688114591
 32
0.0
 13
487.19590649543329
 23
250.05193688114591
 33
0.0
210
0.0
220
0.0
230
1.0
  0
SOLID
  5
5F0
  8
0
  6
CONTINUOUS
 10
-478.29624527176162
 20
250.9271516467193
 30
0.0
 11
-483.88542196418479
 21
250.9271516467193
 31
0.0
 12
-487.19590649543329
 22
250.05193688114591
 32
0.0
 13
-487.19590649543329
 23
250.05193688114591
 33
0.0
210
0.0
220
0.0
230
-1.0
  0
SOLID
  5
5F1
  8
0
  6
CONTINUOUS
 10
454.33398211736147
 20
250.0813315626873
 30
0.0
 11
453.05562259903138
 21
249.7424040972179
 31
0.0
 12
456.95561098854409
 22
249.7424040972179
 32
0.0
 13
456.95561098854409
 23
249.7424040972179
 33
0.0
210
0.0
220
0.0
230
1.0
  0
SOLID
  5
5F2
  8
0
  6
CONTINUOUS
 10
-454.33398211736147
 20
250.0813315626873
 30
0.0
 11
-458.23562678975219
 21
250.0813315626873
 31
0.0
 12
-456.95561098854409
 22
249.7424040972179
 32
0.0
 13
-456.95561098854409
 23
249.7424040972179
 33
0.0
210
0.0
220
0.0
230
-1.0
  0
SOLID
  5
5F3
  8
0
  6
CONTINUOUS
 10
483.29127939644661
 20
250.05193688114591
 30
0.0
 11
484.52360573934322
 21
249.7255707280917
 31
0.0
 12
488.43038075673252
 22
249.7255707280917
 32
0.0
 13
488.43038075673252
 23
249.7255707280917
 33
0.0
210
0.0
220
0.0
230
1.0
  0
SOLID
  5
5F4
  8
0
  6
CONTINUOUS
 10
-483.29127939644661
 20
250.05193688114591
 30
0.0
 11
-487.19590649543329
 21
250.05193688114591
 31
0.0
 12
-488.43038075673252
 22
249.7255707280917
 32
0.0
 13
-488.43038075673252
 23
249.7255707280917
 33
0.0
210
0.0
220
0.0
230
-1.0
  0
SOLID
  5
5F5
  8
0
  6
CONTINUOUS
 10
453.05562259903138
 20
249.7424040972179
 30
0.0
 11
450.41010820926908
 21
248.7929210038196
 31
0.0
 12
453.36973056765089
 22
248.7929210038196
 32
0.0
 13
453.36973056765089
 23
248.7929210038196
 33
0.0
210
0.0
220
0.0
230
1.0
  0
SOLID
  5
5F6
  8
0
  6
CONTINUOUS
 10
-453.05562259903138
 20
249.7424040972179
 30
0.0
 11
-456.95561098854409
 21
249.7424040972179
 31
0.0
 12
-453.36973056765089
 22
248.7929210038196
 32
0.0
 13
-453.36973056765089
 23
248.7929210038196
 33
0.0
210
0.0
220
0.0
230
-1.0
  0
SOLID
  5
5F7
  8
0
  6
CONTINUOUS
 10
484.52360573934322
 20
249.7255707280917
 30
0.0
 11
488.15711104820389
 21
248.7632824863523
 31
0.0
 12
491.096026977002
 22
248.7632824863523
 32
0.0
 13
491.096026977002
 23
248.7632824863523
 33
0.0
210
0.0
220
0.0
230
1.0
  0
SOLID
  5
5F8
  8
0
  6
CONTINUOUS
 10
-484.52360573934322
 20
249.7255707280917
 30
0.0
 11
-488.43038075673252
 21
249.7255707280917
 31
0.0
 12
-491.096026977002
 22
248.7632824863523
 32
0.0
 13
-491.096026977002
 23
248.7632824863523
 33
0.0
210
0.0
220
0.0
230
-1.0
  0
SOLID
  5
5F9
  8
0
  6
CONTINUOUS
 10
450.41010820926908
 20
248.7929210038196
 30
0.0
 11
448.20204446574968
 21
248.0004402667158
 31
0.0
 12
451.1595625196997
 22
248.0004402667158
 32
0.0
 13
451.1595625196997
 23
248.0004402667158
 33
0.0
210
0.0
220
0.0
230
1.0
  0
SOLID
  5
5FA
  8
0
  6
CONTINUOUS
 10
-450.41010820926908
 20
248.7929210038196
 30
0.0
 11
-453.36973056765089
 21
248.7929210038196
 31
0.0
 12
-451.1595625196997
 22
248.0004402667158
 32
0.0
 13
-451.1595625196997
 23
248.0004402667158
 33
0.0
210
0.0
220
0.0
230
-1.0
  0
SOLID
  5
5FB
  8
0
  6
CONTINUOUS
 10
488.15711104820389
 20
248.7632824863523
 30
0.0
 11
490.30288341756562
 21
247.9875749386226
 31
0.0
 12
493.2448237750412
 22
247.9875749386226
 32
0.0
 13
493.2448237750412
 23
247.9875749386226
 33
0.0
210
0.0
220
0.0
230
1.0
  0
SOLID
  5
5FC
  8
0
  6
CONTINUOUS
 10
-488.15711104820389
 20
248.7632824863523
 30
0.0
 11
-491.096026977002
 21
248.7632824863523
 31
0.0
 12
-493.2448237750412
 22
247.9875749386226
 32
0.0
 13
-493.2448237750412
 23
247.9875749386226
 33
0.0
210
0.0
220
0.0
230
-1.0
  0
SOLID
  5
5FD
  8
0
  6
CONTINUOUS
 10
448.20204446574968
 20
248.0004402667158
 30
0.0
 11
446.1979513576473
 21
247.0813114460548
 31
0.0
 12
448.596182671755
 22
247.0813114460548
 32
0.0
 13
448.596182671755
 23
247.0813114460548
 33
0.0
210
0.0
220
0.0
230
1.0
  0
SOLID
  5
5FE
  8
0
  6
CONTINUOUS
 10
-448.20204446574968
 20
248.0004402667158
 30
0.0
 11
-451.1595625196997
 21
248.0004402667158
 31
0.0
 12
-448.596182671755
 22
247.0813114460548
 32
0.0
 13
-448.596182671755
 23
247.0813114460548
 33
0.0
210
0.0
220
0.0
230
-1.0
  0
SOLID
  5
5FF
  8
0
  6
CONTINUOUS
 10
490.30288341756562
 20
247.9875749386226
 30
0.0
 11
492.89087022457471
 21
247.05200463848911
 31
0.0
 12
495.27483016807338
 22
247.05200463848911
 32
0.0
 13
495.27483016807338
 23
247.05200463848911
 33
0.0
210
0.0
220
0.0
230
1.0
  0
SOLID
  5
600
  8
0
  6
CONTINUOUS
 10
-490.30288341756562
 20
247.9875749386226
 30
0.0
 11
-493.2448237750412
 21
247.9875749386226
 31
0.0
 12
-495.27483016807338
 22
247.05200463848911
 32
0.0
 13
-495.27483016807338
 23
247.05200463848911
 33
0.0
210
0.0
220
0.0
230
-1.0
  0
SOLID
  5
601
  8
0
  6
CONTINUOUS
 10
446.1979513576473
 20
247.0813114460548
 30
0.0
 11
443.54947187060083
 21
245.86665040179889
 31
0.0
 12
445.9457103355391
 22
245.86665040179889
 32
0.0
 13
445.9457103355391
 23
245.86665040179889
 33
0.0
210
0.0
220
0.0
230
1.0
  0
SOLID
  5
602
  8
0
  6
CONTINUOUS
 10
-446.1979513576473
 20
247.0813114460548
 30
0.0
 11
-448.596182671755
 21
247.0813114460548
 31
0.0
 12
-445.9457103355391
 22
245.86665040179889
 32
0.0
 13
-445.9457103355391
 23
245.86665040179889
 33
0.0
210
0.0
220
0.0
230
-1.0
  0
SOLID
  5
603
  8
0
  6
CONTINUOUS
 10
492.89087022457471
 20
247.05200463848911
 30
0.0
 11
495.54087397006072
 21
245.82919218660629
 31
0.0
 12
497.92809641054339
 22
245.82919218660629
 32
0.0
 13
497.92809641054339
 23
245.82919218660629
 33
0.0
210
0.0
220
0.0
230
1.0
  0
SOLID
  5
604
  8
0
  6
CONTINUOUS
 10
-492.89087022457471
 20
247.05200463848911
 30
0.0
 11
-495.27483016807338
 21
247.05200463848911
 31
0.0
 12
-497.92809641054339
 22
245.82919218660629
 32
0.0
 13
-497.92809641054339
 23
245.82919218660629
 33
0.0
210
0.0
220
0.0
230
-1.0
  0
SOLID
  5
605
  8
0
  6
CONTINUOUS
 10
443.54947187060083
 20
245.86665040179889
 30
0.0
 11
442.00106432112068
 21
244.98424379351241
 31
0.0
 12
444.02023959156679
 22
244.98424379351241
 32
0.0
 13
444.02023959156679
 23
244.98424379351241
 33
0.0
210
0.0
220
0.0
230
1.0
  0
SOLID
  5
606
  8
0
  6
CONTINUOUS
 10
-443.54947187060083
 20
245.86665040179889
 30
0.0
 11
-445.9457103355391
 21
245.86665040179889
 31
0.0
 12
-444.02023959156679
 22
244.98424379351241
 32
0.0
 13
-444.02023959156679
 23
244.98424379351241
 33
0.0
210
0.0
220
0.0
230
-1.0
  0
SOLID
  5
607
  8
0
  6
CONTINUOUS
 10
495.54087397006072
 20
245.82919218660629
 30
0.0
 11
497.49542692801759
 21
244.9272871614057
 31
0.0
 12
499.51330143558692
 22
244.9272871614057
 32
0.0
 13
499.51330143558692
 23
244.9272871614057
 33
0.0
210
0.0
220
0.0
230
1.0
  0
SOLID
  5
608
  8
0
  6
CONTINUOUS
 10
-495.54087397006072
 20
245.82919218660629
 30
0.0
 11
-497.92809641054339
 21
245.82919218660629
 31
0.0
 12
-499.51330143558692
 22
244.9272871614057
 32
0.0
 13
-499.51330143558692
 23
244.9272871614057
 33
0.0
210
0.0
220
0.0
230
-1.0
  0
SOLID
  5
609
  8
0
  6
CONTINUOUS
 10
442.00106432112068
 20
244.98424379351241
 30
0.0
 11
439.10236790500142
 21
243.33233446650149
 31
0.0
 12
441.11975320619359
 22
243.33233446650149
 32
0.0
 13
441.11975320619359
 23
243.33233446650149
 33
0.0
210
0.0
220
0.0
230
1.0
  0
SOLID
  5
60A
  8
0
  6
CONTINUOUS
 10
-442.00106432112068
 20
244.98424379351241
 30
0.0
 11
-444.02023959156679
 21
244.98424379351241
 31
0.0
 12
-441.11975320619359
 22
243.33233446650149
 32
0.0
 13
-441.11975320619359
 23
243.33233446650149
 33
0.0
210
0.0
220
0.0
230
-1.0
  0
SOLID
  5
60B
  8
0
  6
CONTINUOUS
 10
497.49542692801759
 20
244.9272871614057
 30
0.0
 11
500.35586836945077
 21
243.29799472561371
 31
0.0
 12
502.3769760845982
 22
243.29799472561371
 32
0.0
 13
502.3769760845982
 23
243.29799472561371
 33
0.0
210
0.0
220
0.0
230
1.0
  0
SOLID
  5
60C
  8
0
  6
CONTINUOUS
 10
-497.49542692801759
 20
244.9272871614057
 30
0.0
 11
-499.51330143558692
 21
244.9272871614057
 31
0.0
 12
-502.3769760845982
 22
243.29799472561371
 32
0.0
 13
-502.3769760845982
 23
243.29799472561371
 33
0.0
210
0.0
220
0.0
230
-1.0
  0
SOLID
  5
60D
  8
0
  6
CONTINUOUS
 10
439.10236790500142
 20
243.33233446650149
 30
0.0
 11
437.88464322568262
 21
242.49315578221581
 31
0.0
 12
439.6462907655702
 22
242.49315578221581
 32
0.0
 13
439.6462907655702
 23
242.49315578221581
 33
0.0
210
0.0
220
0.0
230
1.0
  0
SOLID
  5
60E
  8
0
  6
CONTINUOUS
 10
-439.10236790500142
 20
243.33233446650149
 30
0.0
 11
-441.11975320619359
 21
243.33233446650149
 31
0.0
 12
-439.6462907655702
 22
242.49315578221581
 32
0.0
 13
-439.6462907655702
 23
242.49315578221581
 33
0.0
210
0.0
220
0.0
230
-1.0
  0
SOLID
  5
60F
  8
0
  6
CONTINUOUS
 10
500.35586836945077
 20
243.29799472561371
 30
0.0
 11
501.8692509162708
 21
242.43597996793409
 31
0.0
 12
503.62289024618212
 22
242.43597996793409
 32
0.0
 13
503.62289024618212
 23
242.43597996793409
 33
0.0
210
0.0
220
0.0
230
1.0
  0
SOLID
  5
610
  8
0
  6
CONTINUOUS
 10
-500.35586836945077
 20
243.29799472561371
 30
0.0
 11
-502.3769760845982
 21
243.29799472561371
 31
0.0
 12
-503.62289024618212
 22
242.43597996793409
 32
0.0
 13
-503.62289024618212
 23
242.43597996793409
 33
0.0
210
0.0
220
0.0
230
-1.0
  0
SOLID
  5
611
  8
0
  6
CONTINUOUS
 10
437.88464322568262
 20
242.49315578221581
 30
0.0
 11
434.85626947753451
 21
240.4061924967892
 31
0.0
 12
436.61631095805728
 22
240.4061924967892
 32
0.0
 13
436.61631095805728
 23
240.4061924967892
 33
0.0
210
0.0
220
0.0
230
1.0
  0
SOLID
  5
612
  8
0
  6
CONTINUOUS
 10
-437.88464322568262
 20
242.49315578221581
 30
0.0
 11
-439.6462907655702
 21
242.49315578221581
 31
0.0
 12
-436.61631095805728
 22
240.4061924967892
 32
0.0
 13
-436.61631095805728
 23
240.4061924967892
 33
0.0
210
0.0
220
0.0
230
-1.0
  0
SOLID
  5
613
  8
0
  6
CONTINUOUS
 10
501.8692509162708
 20
242.43597996793409
 30
0.0
 11
504.82942221780149
 21
240.3857046437866
 31
0.0
 12
506.58625837734661
 22
240.3857046437866
 32
0.0
 13
506.58625837734661
 23
240.3857046437866
 33
0.0
210
0.0
220
0.0
230
1.0
  0
SOLID
  5
614
  8
0
  6
CONTINUOUS
 10
-501.8692509162708
 20
242.43597996793409
 30
0.0
 11
-503.62289024618212
 21
242.43597996793409
 31
0.0
 12
-506.58625837734661
 22
240.3857046437866
 32
0.0
 13
-506.58625837734661
 23
240.3857046437866
 33
0.0
210
0.0
220
0.0
230
-1.0
  0
SOLID
  5
615
  8
0
  6
CONTINUOUS
 10
434.85626947753451
 20
240.4061924967892
 30
0.0
 11
433.8972818267352
 21
239.61660967614179
 31
0.0
 12
435.46994675528128
 22
239.61660967614179
 32
0.0
 13
435.46994675528128
 23
239.61660967614179
 33
0.0
210
0.0
220
0.0
230
1.0
  0
SOLID
  5
616
  8
0
  6
CONTINUOUS
 10
-434.85626947753451
 20
240.4061924967892
 30
0.0
 11
-436.61631095805728
 21
240.4061924967892
 31
0.0
 12
-435.46994675528128
 22
239.61660967614179
 32
0.0
 13
-435.46994675528128
 23
239.61660967614179
 33
0.0
210
0.0
220
0.0
230
-1.0
  0
SOLID
  5
617
  8
0
  6
CONTINUOUS
 10
504.82942221780149
 20
240.3857046437866
 30
0.0
 11
506.00721687365842
 21
239.56993992146539
 31
0.0
 12
507.57331197170481
 22
239.56993992146539
 32
0.0
 13
507.57331197170481
 23
239.56993992146539
 33
0.0
210
0.0
220
0.0
230
1.0
  0
SOLID
  5
618
  8
0
  6
CONTINUOUS
 10
-504.82942221780149
 20
240.3857046437866
 30
0.0
 11
-506.58625837734661
 21
240.3857046437866
 31
0.0
 12
-507.57331197170481
 22
239.56993992146539
 32
0.0
 13
-507.57331197170481
 23
239.56993992146539
 33
0.0
210
0.0
220
0.0
230
-1.0
  0
SOLID
  5
619
  8
0
  6
CONTINUOUS
 10
433.8972818267352
 20
239.61660967614179
 30
0.0
 11
430.90476354393883
 21
237.15271869214439
 31
0.0
 12
432.47602605554181
 22
237.15271869214439
 32
0.0
 13
432.47602605554181
 23
237.15271869214439
 33
0.0
210
0.0
220
0.0
230
1.0
  0
SOLID
  5
61A
  8
0
  6
CONTINUOUS
 10
-433.8972818267352
 20
239.61660967614179
 30
0.0
 11
-435.46994675528128
 21
239.61660967614179
 31
0.0
 12
-432.47602605554181
 22
237.15271869214439
 32
0.0
 13
-432.47602605554181
 23
237.15271869214439
 33
0.0
210
0.0
220
0.0
230
-1.0
  0
SOLID
  5
61B
  8
0
  6
CONTINUOUS
 10
506.00721687365842
 20
239.56993992146539
 30
0.0
 11
508.99187280695588
 21
237.10059985298309
 31
0.0
 12
510.56114770864713
 22
237.10059985298309
 32
0.0
 13
510.56114770864713
 23
237.10059985298309
 33
0.0
210
0.0
220
0.0
230
1.0
  0
SOLID
  5
61C
  8
0
  6
CONTINUOUS
 10
-506.00721687365842
 20
239.56993992146539
 30
0.0
 11
-507.57331197170481
 21
239.56993992146539
 31
0.0
 12
-510.56114770864713
 22
237.10059985298309
 32
0.0
 13
-510.56114770864713
 23
237.10059985298309
 33
0.0
210
0.0
220
0.0
230
-1.0
  0
SOLID
  5
61D
  8
0
  6
CONTINUOUS
 10
430.90476354393883
 20
237.15271869214439
 30
0.0
 11
430.16542567803572
 21
236.41803317133929
 31
0.0
 12
431.583295734751
 22
236.41803317133929
 32
0.0
 13
431.583295734751
 23
236.41803317133929
 33
0.0
210
0.0
220
0.0
230
1.0
  0
SOLID
  5
61E
  8
0
  6
CONTINUOUS
 10
-430.90476354393883
 20
237.15271869214439
 30
0.0
 11
-432.47602605554181
 21
237.15271869214439
 31
0.0
 12
-431.583295734751
 22
236.41803317133929
 32
0.0
 13
-431.583295734751
 23
236.41803317133929
 33
0.0
210
0.0
220
0.0
230
-1.0
  0
SOLID
  5
61F
  8
0
  6
CONTINUOUS
 10
508.99187280695588
 20
237.10059985298309
 30
0.0
 11
509.91445011585631
 21
236.3373101586084
 31
0.0
 12
511.3387799870676
 22
236.3373101586084
 32
0.0
 13
511.3387799870676
 23
236.3373101586084
 33
0.0
210
0.0
220
0.0
230
1.0
  0
SOLID
  5
620
  8
0
  6
CONTINUOUS
 10
-508.99187280695588
 20
237.10059985298309
 30
0.0
 11
-510.56114770864713
 21
237.10059985298309
 31
0.0
 12
-511.3387799870676
 22
236.3373101586084
 32
0.0
 13
-511.3387799870676
 23
236.3373101586084
 33
0.0
210
0.0
220
0.0
230
-1.0
  0
SOLID
  5
621
  8
0
  6
CONTINUOUS
 10
509.91445011585631
 20
236.3373101586084
 30
0.0
 11
512.78659652259432
 21
233.51508634234941
 31
0.0
 12
514.21403475943555
 22
233.51508634234941
 32
0.0
 13
514.21403475943555
 23
233.51508634234941
 33
0.0
210
0.0
220
0.0
230
1.0
  0
SOLID
  5
622
  8
0
  6
CONTINUOUS
 10
-509.91445011585631
 20
236.3373101586084
 30
0.0
 11
-511.3387799870676
 21
236.3373101586084
 31
0.0
 12
-514.21403475943555
 22
233.51508634234941
 32
0.0
 13
-514.21403475943555
 23
233.51508634234941
 33
0.0
210
0.0
220
0.0
230
-1.0
  0
SOLID
  5
623
  8
0
  6
CONTINUOUS
 10
430.16542567803572
 20
236.41803317133929
 30
0.0
 11
427.02713446719321
 21
233.29948991931789
 31
0.0
 12
428.40927012519768
 22
233.29948991931789
 32
0.0
 13
428.40927012519768
 23
233.29948991931789
 33
0.0
210
0.0
220
0.0
230
1.0
  0
SOLID
  5
624
  8
0
  6
CONTINUOUS
 10
-430.16542567803572
 20
236.41803317133929
 30
0.0
 11
-431.583295734751
 21
236.41803317133929
 31
0.0
 12
-428.40927012519768
 22
233.29948991931789
 32
0.0
 13
-428.40927012519768
 23
233.29948991931789
 33
0.0
210
0.0
220
0.0
230
-1.0
  0
SOLID
  5
625
  8
0
  6
CONTINUOUS
 10
427.02713446719321
 20
233.29948991931789
 30
0.0
 11
426.67640652524659
 21
232.8902729369544
 31
0.0
 12
427.99277271697878
 22
232.8902729369544
 32
0.0
 13
427.99277271697878
 23
232.8902729369544
 33
0.0
210
0.0
220
0.0
230
1.0
  0
SOLID
  5
626
  8
0
  6
CONTINUOUS
 10
-427.02713446719321
 20
233.29948991931789
 30
0.0
 11
-428.40927012519768
 21
233.29948991931789
 31
0.0
 12
-427.99277271697878
 22
232.8902729369544
 32
0.0
 13
-427.99277271697878
 23
232.8902729369544
 33
0.0
210
0.0
220
0.0
230
-1.0
  0
SOLID
  5
627
  8
0
  6
CONTINUOUS
 10
512.78659652259432
 20
233.51508634234941
 30
0.0
 11
513.50479634762962
 21
232.80937000202209
 31
0.0
 12
514.81661881916796
 22
232.80937000202209
 32
0.0
 13
514.81661881916796
 23
232.80937000202209
 33
0.0
210
0.0
220
0.0
230
1.0
  0
SOLID
  5
628
  8
0
  6
CONTINUOUS
 10
-512.78659652259432
 20
233.51508634234941
 30
0.0
 11
-514.21403475943555
 21
233.51508634234941
 31
0.0
 12
-514.81661881916796
 22
232.80937000202209
 32
0.0
 13
-514.81661881916796
 23
232.80937000202209
 33
0.0
210
0.0
220
0.0
230
-1.0
  0
SOLID
  5
629
  8
0
  6
CONTINUOUS
 10
426.67640652524659
 20
232.8902729369544
 30
0.0
 11
423.89861131761802
 21
229.64923954172249
 31
0.0
 12
425.2138942344036
 22
229.64923954172249
 32
0.0
 13
425.2138942344036
 23
229.64923954172249
 33
0.0
210
0.0
220
0.0
230
1.0
  0
SOLID
  5
62A
  8
0
  6
CONTINUOUS
 10
-426.67640652524659
 20
232.8902729369544
 30
0.0
 11
-427.99277271697878
 21
232.8902729369544
 31
0.0
 12
-425.2138942344036
 22
229.64923954172249
 32
0.0
 13
-425.2138942344036
 23
229.64923954172249
 33
0.0
210
0.0
220
0.0
230
-1.0
  0
SOLID
  5
62B
  8
0
  6
CONTINUOUS
 10
513.50479634762962
 20
232.80937000202209
 30
0.0
 11
516.22286209690083
 21
229.62249388980359
 31
0.0
 12
517.53776984802744
 22
229.62249388980359
 32
0.0
 13
517.53776984802744
 23
229.62249388980359
 33
0.0
210
0.0
220
0.0
230
1.0
  0
SOLID
  5
62C
  8
0
  6
CONTINUOUS
 10
-513.50479634762962
 20
232.80937000202209
 30
0.0
 11
-514.81661881916796
 21
232.80937000202209
 31
0.0
 12
-517.53776984802744
 22
229.62249388980359
 32
0.0
 13
-517.53776984802744
 23
229.62249388980359
 33
0.0
210
0.0
220
0.0
230
-1.0
  0
SOLID
  5
62D
  8
0
  6
CONTINUOUS
 10
423.89861131761802
 20
229.64923954172249
 30
0.0
 11
423.46109882453271
 21
229.0404823038412
 31
0.0
 12
424.69194268896479
 22
229.0404823038412
 32
0.0
 13
424.69194268896479
 23
229.0404823038412
 33
0.0
210
0.0
220
0.0
230
1.0
  0
SOLID
  5
62E
  8
0
  6
CONTINUOUS
 10
-423.89861131761802
 20
229.64923954172249
 30
0.0
 11
-425.2138942344036
 21
229.64923954172249
 31
0.0
 12
-424.69194268896479
 22
229.0404823038412
 32
0.0
 13
-424.69194268896479
 23
229.0404823038412
 33
0.0
210
0.0
220
0.0
230
-1.0
  0
SOLID
  5
62F
  8
0
  6
CONTINUOUS
 10
516.22286209690083
 20
229.62249388980359
 30
0.0
 11
516.77121648931995
 21
228.97955965809891
 31
0.0
 12
517.99804083231891
 22
228.97955965809891
 32
0.0
 13
517.99804083231891
 23
228.97955965809891
 33
0.0
210
0.0
220
0.0
230
1.0
  0
SOLID
  5
630
  8
0
  6
CONTINUOUS
 10
-516.22286209690083
 20
229.62249388980359
 30
0.0
 11
-517.53776984802744
 21
229.62249388980359
 31
0.0
 12
-517.99804083231891
 22
228.97955965809891
 32
0.0
 13
-517.99804083231891
 23
228.97955965809891
 33
0.0
210
0.0
220
0.0
230
-1.0
  0
SOLID
  5
631
  8
0
  6
CONTINUOUS
 10
423.46109882453271
 20
229.0404823038412
 30
0.0
 11
420.91138766211401
 21
225.49280046809821
 31
0.0
 12
422.14129067340389
 22
225.49280046809821
 32
0.0
 13
422.14129067340389
 23
225.49280046809821
 33
0.0
210
0.0
220
0.0
230
1.0
  0
SOLID
  5
632
  8
0
  6
CONTINUOUS
 10
-423.46109882453271
 20
229.0404823038412
 30
0.0
 11
-424.69194268896479
 21
229.0404823038412
 31
0.0
 12
-422.14129067340389
 22
225.49280046809821
 32
0.0
 13
-422.14129067340389
 23
225.49280046809821
 33
0.0
210
0.0
220
0.0
230
-1.0
  0
SOLID
  5
633
  8
0
  6
CONTINUOUS
 10
516.77121648931995
 20
228.97955965809891
 30
0.0
 11
519.30957614608019
 21
225.42949271742759
 31
0.0
 12
520.53950265610695
 22
225.42949271742759
 32
0.0
 13
520.53950265610695
 23
225.42949271742759
 33
0.0
210
0.0
220
0.0
230
1.0
  0
SOLID
  5
634
  8
0
  6
CONTINUOUS
 10
-516.77121648931995
 20
228.97955965809891
 30
0.0
 11
-517.99804083231891
 21
228.97955965809891
 31
0.0
 12
-520.53950265610695
 22
225.42949271742759
 32
0.0
 13
-520.53950265610695
 23
225.42949271742759
 33
0.0
210
0.0
220
0.0
230
-1.0
  0
SOLID
  5
635
  8
0
  6
CONTINUOUS
 10
420.91138766211401
 20
225.49280046809821
 30
0.0
 11
420.59165938933012
 21
224.95354896061141
 31
0.0
 12
421.75358878576338
 22
224.95354896061141
 32
0.0
 13
421.75358878576338
 23
224.95354896061141
 33
0.0
210
0.0
220
0.0
230
1.0
  0
SOLID
  5
636
  8
0
  6
CONTINUOUS
 10
-420.91138766211401
 20
225.49280046809821
 30
0.0
 11
-422.14129067340389
 21
225.49280046809821
 31
0.0
 12
-421.75358878576338
 22
224.95354896061141
 32
0.0
 13
-421.75358878576338
 23
224.95354896061141
 33
0.0
210
0.0
220
0.0
230
-1.0
  0
SOLID
  5
637
  8
0
  6
CONTINUOUS
 10
519.30957614608019
 20
225.42949271742759
 30
0.0
 11
519.72074962058593
 21
224.8544389204464
 31
0.0
 12
520.88100363488843
 22
224.8544389204464
 32
0.0
 13
520.88100363488843
 23
224.8544389204464
 33
0.0
210
0.0
220
0.0
230
1.0
  0
SOLID
  5
638
  8
0
  6
CONTINUOUS
 10
-519.30957614608019
 20
225.42949271742759
 30
0.0
 11
-520.53950265610695
 21
225.42949271742759
 31
0.0
 12
-520.88100363488843
 22
224.8544389204464
 32
0.0
 13
-520.88100363488843
 23
224.8544389204464
 33
0.0
210
0.0
220
0.0
230
-1.0
  0
SOLID
  5
639
  8
0
  6
CONTINUOUS
 10
420.59165938933012
 20
224.95354896061141
 30
0.0
 11
418.3009035742474
 21
221.08997594652701
 31
0.0
 12
419.46202131791068
 22
221.08997594652701
 32
0.0
 13
419.46202131791068
 23
221.08997594652701
 33
0.0
210
0.0
220
0.0
230
1.0
  0
SOLID
  5
63A
  8
0
  6
CONTINUOUS
 10
-420.59165938933012
 20
224.95354896061141
 30
0.0
 11
-421.75358878576338
 21
224.95354896061141
 31
0.0
 12
-419.46202131791068
 22
221.08997594652701
 32
0.0
 13
-419.46202131791068
 23
221.08997594652701
 33
0.0
210
0.0
220
0.0
230
-1.0
  0
SOLID
  5
63B
  8
0
  6
CONTINUOUS
 10
519.72074962058593
 20
224.8544389204464
 30
0.0
 11
521.9897366507256
 21
221.0284994806126
 31
0.0
 12
523.15307290966075
 22
221.0284994806126
 32
0.0
 13
523.15307290966075
 23
221.0284994806126
 33
0.0
210
0.0
220
0.0
230
1.0
  0
SOLID
  5
63C
  8
0
  6
CONTINUOUS
 10
-519.72074962058593
 20
224.8544389204464
 30
0.0
 11
-520.88100363488843
 21
224.8544389204464
 31
0.0
 12
-523.15307290966075
 22
221.0284994806126
 32
0.0
 13
-523.15307290966075
 23
221.0284994806126
 33
0.0
210
0.0
220
0.0
230
-1.0
  0
SOLID
  5
63D
  8
0
  6
CONTINUOUS
 10
418.3009035742474
 20
221.08997594652701
 30
0.0
 11
418.0760421795265
 21
220.62420520498671
 31
0.0
 12
419.18576276788451
 22
220.62420520498671
 32
0.0
 13
419.18576276788451
 23
220.62420520498671
 33
0.0
210
0.0
220
0.0
230
1.0
  0
SOLID
  5
63E
  8
0
  6
CONTINUOUS
 10
-418.3009035742474
 20
221.08997594652701
 30
0.0
 11
-419.46202131791068
 21
221.08997594652701
 31
0.0
 12
-419.18576276788451
 22
220.62420520498671
 32
0.0
 13
-419.18576276788451
 23
220.62420520498671
 33
0.0
210
0.0
220
0.0
230
-1.0
  0
SOLID
  5
63F
  8
0
  6
CONTINUOUS
 10
521.9897366507256
 20
221.0284994806126
 30
0.0
 11
522.28835868516626
 21
220.52496649254641
 31
0.0
 12
523.39501532785141
 22
220.52496649254641
 32
0.0
 13
523.39501532785141
 23
220.52496649254641
 33
0.0
210
0.0
220
0.0
230
1.0
  0
SOLID
  5
640
  8
0
  6
CONTINUOUS
 10
-521.9897366507256
 20
221.0284994806126
 30
0.0
 11
-523.15307290966075
 21
221.0284994806126
 31
0.0
 12
-523.39501532785141
 22
220.52496649254641
 32
0.0
 13
-523.39501532785141
 23
220.52496649254641
 33
0.0
210
0.0
220
0.0
230
-1.0
  0
SOLID
  5
641
  8
0
  6
CONTINUOUS
 10
418.0760421795265
 20
220.62420520498671
 30
0.0
 11
416.05897569710191
 21
216.44611784400871
 31
0.0
 12
417.16798726720549
 22
216.44611784400871
 32
0.0
 13
417.16798726720549
 23
216.44611784400871
 33
0.0
210
0.0
220
0.0
230
1.0
  0
SOLID
  5
642
  8
0
  6
CONTINUOUS
 10
-418.0760421795265
 20
220.62420520498671
 30
0.0
 11
-419.18576276788451
 21
220.62420520498671
 31
0.0
 12
-417.16798726720549
 22
216.44611784400871
 32
0.0
 13
-417.16798726720549
 23
216.44611784400871
 33
0.0
210
0.0
220
0.0
230
-1.0
  0
SOLID
  5
643
  8
0
  6
CONTINUOUS
 10
522.28835868516626
 20
220.52496649254641
 30
0.0
 11
524.26009382450513
 21
216.41489596034771
 31
0.0
 12
525.36986191598305
 22
216.41489596034771
 32
0.0
 13
525.36986191598305
 23
216.41489596034771
 33
0.0
  0
SOLID
  5
644
  8
0
  6
CONTINUOUS
 10
-522.28835868516626
 20
220.52496649254641
 30
0.0
 11
-523.39501532785141
 21
220.52496649254641
 31
0.0
 12
-525.36986191598305
 22
216.41489596034771
 32
0.0
 13
-525.36986191598305
 23
216.41489596034771
 33
0.0
210
0.0
220
0.0
230
-1.0
  0
SOLID
  5
645
  8
0
  6
CONTINUOUS
 10
416.05897569710191
 20
216.44611784400871
 30
0.0
 11
415.91084855464612
 21
216.0577187392455
 31
0.0
 12
416.98041287481811
 22
216.0577187392455
 32
0.0
 13
416.98041287481811
 23
216.0577187392455
 33
0.0
210
0.0
220
0.0
230
1.0
  0
SOLID
  5
646
  8
0
  6
CONTINUOUS
 10
-416.05897569710191
 20
216.44611784400871
 30
0.0
 11
-417.16798726720549
 21
216.44611784400871
 31
0.0
 12
-416.98041287481811
 22
216.0577187392455
 32
0.0
 13
-416.98041287481811
 23
216.0577187392455
 33
0.0
210
0.0
220
0.0
230
-1.0
  0
SOLID
  5
647
  8
0
  6
CONTINUOUS
 10
524.26009382450513
 20
216.41489596034771
 30
0.0
 11
524.46555992121489
 21
215.98660306613269
 31
0.0
 12
525.53229522290815
 22
215.98660306613269
 32
0.0
 13
525.53229522290815
 23
215.98660306613269
 33
0.0
210
0.0
220
0.0
230
1.0
  0
SOLID
  5
648
  8
0
  6
CONTINUOUS
 10
-524.26009382450513
 20
216.41489596034771
 30
0.0
 11
-525.36986191598305
 21
216.41489596034771
 31
0.0
 12
-525.53229522290815
 22
215.98660306613269
 32
0.0
 13
-525.53229522290815
 23
215.98660306613269
 33
0.0
210
0.0
220
0.0
230
-1.0
  0
SOLID
  5
649
  8
0
  6
CONTINUOUS
 10
415.91084855464612
 20
216.0577187392455
 30
0.0
 11
414.23501767677851
 21
211.6635800155276
 31
0.0
 12
415.3039789486092
 22
211.6635800155276
 32
0.0
 13
415.3039789486092
 23
211.6635800155276
 33
0.0
  0
SOLID
  5
64A
  8
0
  6
CONTINUOUS
 10
-415.91084855464612
 20
216.0577187392455
 30
0.0
 11
-416.98041287481811
 21
216.0577187392455
 31
0.0
 12
-415.3039789486092
 22
211.6635800155276
 32
0.0
 13
-415.3039789486092
 23
211.6635800155276
 33
0.0
210
0.0
220
0.0
230
-1.0
  0
SOLID
  5
64B
  8
0
  6
CONTINUOUS
 10
524.46555992121489
 20
215.98660306613269
 30
0.0
 11
526.12857273651741
 21
211.59330037564371
 31
0.0
 12
527.19848836777999
 22
211.59330037564371
 32
0.0
 13
527.19848836777999
 23
211.59330037564371
 33
0.0
210
0.0
220
0.0
230
1.0
  0
SOLID
  5
64C
  8
0
  6
CONTINUOUS
 10
-524.46555992121489
 20
215.98660306613269
 30
0.0
 11
-525.53229522290815
 21
215.98660306613269
 31
0.0
 12
-527.19848836777999
 22
211.59330037564371
 32
0.0
 13
-527.19848836777999
 23
211.59330037564371
 33
0.0
210
0.0
220
0.0
230
-1.0
  0
SOLID
  5
64D
  8
0
  6
CONTINUOUS
 10
414.23501767677851
 20
211.6635800155276
 30
0.0
 11
414.14743099022218
 21
211.3547803588354
 31
0.0
 12
415.18616696008769
 22
211.3547803588354
 32
0.0
 13
415.18616696008769
 23
211.3547803588354
 33
0.0
210
0.0
220
0.0
230
1.0
  0
SOLID
  5
64E
  8
0
  6
CONTINUOUS
 10
-414.23501767677851
 20
211.6635800155276
 30
0.0
 11
-415.3039789486092
 21
211.6635800155276
 31
0.0
 12
-415.18616696008769
 22
211.3547803588354
 32
0.0
 13
-415.18616696008769
 23
211.3547803588354
 33
0.0
210
0.0
220
0.0
230
-1.0
  0
SOLID
  5
64F
  8
0
  6
CONTINUOUS
 10
526.12857273651741
 20
211.59330037564371
 30
0.0
 11
526.26083709057798
 21
211.24388794947129
 31
0.0
 12
527.29785902869776
 22
211.24388794947129
 32
0.0
 13
527.29785902869776
 23
211.24388794947129
 33
0.0
210
0.0
220
0.0
230
1.0
  0
SOLID
  5
650
  8
0
  6
CONTINUOUS
 10
-526.12857273651741
 20
211.59330037564371
 30
0.0
 11
-527.19848836777999
 21
211.59330037564371
 31
0.0
 12
-527.29785902869776
 22
211.24388794947129
 32
0.0
 13
-527.29785902869776
 23
211.24388794947129
 33
0.0
210
0.0
220
0.0
230
-1.0
  0
SOLID
  5
651
  8
0
  6
CONTINUOUS
 10
414.14743099022218
 20
211.3547803588354
 30
0.0
 11
412.8383100420524
 21
206.7392832409769
 31
0.0
 12
413.87654544271538
 22
206.7392832409769
 32
0.0
 13
413.87654544271538
 23
206.7392832409769
 33
0.0
  0
SOLID
  5
652
  8
0
  6
CONTINUOUS
 10
-414.14743099022218
 20
211.3547803588354
 30
0.0
 11
-415.18616696008769
 21
211.3547803588354
 31
0.0
 12
-413.87654544271538
 22
206.7392832409769
 32
0.0
 13
-413.87654544271538
 23
206.7392832409769
 33
0.0
210
0.0
220
0.0
230
-1.0
  0
SOLID
  5
653
  8
0
  6
CONTINUOUS
 10
526.26083709057798
 20
211.24388794947129
 30
0.0
 11
527.55840911241739
 21
206.669984038926
 31
0.0
 12
528.59864806915755
 22
206.669984038926
 32
0.0
 13
528.59864806915755
 23
206.669984038926
 33
0.0
210
0.0
220
0.0
230
1.0
  0
SOLID
  5
654
  8
0
  6
CONTINUOUS
 10
-526.26083709057798
 20
211.24388794947129
 30
0.0
 11
-527.29785902869776
 21
211.24388794947129
 31
0.0
 12
-528.59864806915755
 22
206.669984038926
 32
0.0
 13
-528.59864806915755
 23
206.669984038926
 33
0.0
210
0.0
220
0.0
230
-1.0
  0
SOLID
  5
655
  8
0
  6
CONTINUOUS
 10
412.8383100420524
 20
206.7392832409769
 30
0.0
 11
412.79444270432032
 21
206.5123590278813
 31
0.0
 12
413.8121569652244
 22
206.5123590278813
 32
0.0
 13
413.8121569652244
 23
206.5123590278813
 33
0.0
  0
SOLID
  5
656
  8
0
  6
CONTINUOUS
 10
-412.8383100420524
 20
206.7392832409769
 30
0.0
 11
-413.87654544271538
 21
206.7392832409769
 31
0.0
 12
-413.8121569652244
 22
206.5123590278813
 32
0.0
 13
-413.8121569652244
 23
206.5123590278813
 33
0.0
210
0.0
220
0.0
230
-1.0
  0
SOLID
  5
657
  8
0
  6
CONTINUOUS
 10
527.55840911241739
 20
206.669984038926
 30
0.0
 11
527.63460442253552
 21
206.40139777084329
 31
0.0
 12
528.65005307448268
 22
206.40139777084329
 32
0.0
 13
528.65005307448268
 23
206.40139777084329
 33
0.0
210
0.0
220
0.0
230
1.0
  0
SOLID
  5
658
  8
0
  6
CONTINUOUS
 10
-527.55840911241739
 20
206.669984038926
 30
0.0
 11
-528.59864806915755
 21
206.669984038926
 31
0.0
 12
-528.65005307448268
 22
206.40139777084329
 32
0.0
 13
-528.65005307448268
 23
206.40139777084329
 33
0.0
210
0.0
220
0.0
230
-1.0
  0
SOLID
  5
659
  8
0
  6
CONTINUOUS
 10
412.79444270432032
 20
206.5123590278813
 30
0.0
 11
411.85957226414871
 21
201.6763067404635
 31
0.0
 12
412.87687229054671
 22
201.6763067404635
 32
0.0
 13
412.87687229054671
 23
201.6763067404635
 33
0.0
210
0.0
220
0.0
230
1.0
  0
SOLID
  5
65A
  8
0
  6
CONTINUOUS
 10
-412.79444270432032
 20
206.5123590278813
 30
0.0
 11
-413.8121569652244
 21
206.5123590278813
 31
0.0
 12
-412.87687229054671
 22
201.6763067404635
 32
0.0
 13
-412.87687229054671
 23
201.6763067404635
 33
0.0
210
0.0
220
0.0
230
-1.0
  0
SOLID
  5
65B
  8
0
  6
CONTINUOUS
 10
527.63460442253552
 20
206.40139777084329
 30
0.0
 11
528.54207276282625
 21
201.6426883606081
 31
0.0
 12
529.56082742017213
 22
201.6426883606081
 32
0.0
 13
529.56082742017213
 23
201.6426883606081
 33
0.0
210
0.0
220
0.0
230
1.0
  0
SOLID
  5
65C
  8
0
  6
CONTINUOUS
 10
-527.63460442253552
 20
206.40139777084329
 30
0.0
 11
-528.65005307448268
 21
206.40139777084329
 31
0.0
 12
-529.56082742017213
 22
201.6426883606081
 32
0.0
 13
-529.56082742017213
 23
201.6426883606081
 33
0.0
210
0.0
220
0.0
230
-1.0
  0
SOLID
  5
65D
  8
0
  6
CONTINUOUS
 10
411.85957226414871
 20
201.6763067404635
 30
0.0
 11
411.84444309115361
 21
201.5334857822582
 31
0.0
 12
412.84925094869732
 22
201.5334857822582
 32
0.0
 13
412.84925094869732
 23
201.5334857822582
 33
0.0
210
0.0
220
0.0
230
1.0
  0
SOLID
  5
65E
  8
0
  6
CONTINUOUS
 10
-411.85957226414871
 20
201.6763067404635
 30
0.0
 11
-412.87687229054671
 21
201.6763067404635
 31
0.0
 12
-412.84925094869732
 22
201.5334857822582
 32
0.0
 13
-412.84925094869732
 23
201.5334857822582
 33
0.0
210
0.0
220
0.0
230
-1.0
  0
SOLID
  5
65F
  8
0
  6
CONTINUOUS
 10
528.54207276282625
 20
201.6426883606081
 30
0.0
 11
528.57749882795872
 21
201.45691620523061
 31
0.0
 12
529.58015840526673
 22
201.45691620523061
 32
0.0
 13
529.58015840526673
 23
201.45691620523061
 33
0.0
210
0.0
220
0.0
230
1.0
  0
SOLID
  5
660
  8
0
  6
CONTINUOUS
 10
-528.54207276282625
 20
201.6426883606081
 30
0.0
 11
-529.56082742017213
 21
201.6426883606081
 31
0.0
 12
-529.58015840526673
 22
201.45691620523061
 32
0.0
 13
-529.58015840526673
 23
201.45691620523061
 33
0.0
210
0.0
220
0.0
230
-1.0
  0
SOLID
  5
661
  8
0
  6
CONTINUOUS
 10
411.84444309115361
 20
201.5334857822582
 30
0.0
 11
411.32037640284511
 21
196.58624202929261
 31
0.0
 12
412.32486027265452
 22
196.58624202929261
 32
0.0
 13
412.32486027265452
 23
196.58624202929261
 33
0.0
  0
SOLID
  5
662
  8
0
  6
CONTINUOUS
 10
-411.84444309115361
 20
201.5334857822582
 30
0.0
 11
-412.84925094869732
 21
201.5334857822582
 31
0.0
 12
-412.32486027265452
 22
196.58624202929261
 32
0.0
 13
-412.32486027265452
 23
196.58624202929261
 33
0.0
210
0.0
220
0.0
230
-1.0
  0
SOLID
  5
663
  8
0
  6
CONTINUOUS
 10
411.32037640284511
 20
196.58624202929261
 30
0.0
 11
411.3193152957316
 21
196.52794452503809
 31
0.0
 12
412.31868093943501
 22
196.52794452503809
 32
0.0
 13
412.31868093943501
 23
196.52794452503809
 33
0.0
210
0.0
220
0.0
230
1.0
  0
SOLID
  5
664
  8
0
  6
CONTINUOUS
 10
-411.32037640284511
 20
196.58624202929261
 30
0.0
 11
-412.32486027265452
 21
196.58624202929261
 31
0.0
 12
-412.31868093943501
 22
196.52794452503809
 32
0.0
 13
-412.31868093943501
 23
196.52794452503809
 33
0.0
210
0.0
220
0.0
230
-1.0
  0
SOLID
  5
665
  8
0
  6
CONTINUOUS
 10
528.57749882795872
 20
201.45691620523061
 30
0.0
 11
529.08844255489169
 21
196.51367193027619
 31
0.0
 12
530.09454002076723
 22
196.51367193027619
 32
0.0
 13
530.09454002076723
 23
196.51367193027619
 33
0.0
210
0.0
220
0.0
230
1.0
  0
SOLID
  5
666
  8
0
  6
CONTINUOUS
 10
-528.57749882795872
 20
201.45691620523061
 30
0.0
 11
-529.58015840526673
 21
201.45691620523061
 31
0.0
 12
-530.09454002076723
 22
196.51367193027619
 32
0.0
 13
-530.09454002076723
 23
196.51367193027619
 33
0.0
210
0.0
220
0.0
230
-1.0
  0
SOLID
  5
667
  8
0
  6
CONTINUOUS
 10
529.08844255489169
 20
196.51367193027619
 30
0.0
 11
529.09888339597615
 21
196.4126595776512
 31
0.0
 12
530.09638516621987
 22
196.4126595776512
 32
0.0
 13
530.09638516621987
 23
196.4126595776512
 33
0.0
210
0.0
220
0.0
230
1.0
  0
SOLID
  5
668
  8
0
  6
CONTINUOUS
 10
-529.08844255489169
 20
196.51367193027619
 30
0.0
 11
-530.09454002076723
 21
196.51367193027619
 31
0.0
 12
-530.09638516621987
 22
196.4126595776512
 32
0.0
 13
-530.09638516621987
 23
196.4126595776512
 33
0.0
210
0.0
220
0.0
230
-1.0
  0
SOLID
  5
669
  8
0
  6
CONTINUOUS
 10
411.3193152957316
 20
196.52794452503809
 30
0.0
 11
411.22838717980028
 21
191.53232989057801
 31
0.0
 12
412.22752428041412
 22
191.53232989057801
 32
0.0
 13
412.22752428041412
 23
191.53232989057801
 33
0.0
210
0.0
220
0.0
230
1.0
  0
SOLID
  5
66A
  8
0
  6
CONTINUOUS
 10
-411.3193152957316
 20
196.52794452503809
 30
0.0
 11
-412.31868093943501
 21
196.52794452503809
 31
0.0
 12
-412.22752428041412
 22
191.53232989057801
 32
0.0
 13
-412.22752428041412
 23
191.53232989057801
 33
0.0
210
0.0
220
0.0
230
-1.0
  0
SOLID
  5
66B
  8
0
  6
CONTINUOUS
 10
411.22838717980028
 20
191.53232989057801
 30
0.0
 11
411.2279131447346
 21
191.50628627923291
 31
0.0
 12
412.22929350428518
 22
191.50628627923291
 32
0.0
 13
412.22929350428518
 23
191.50628627923291
 33
0.0
210
0.0
220
0.0
230
1.0
  0
SOLID
  5
66C
  8
0
  6
CONTINUOUS
 10
-411.22838717980028
 20
191.53232989057801
 30
0.0
 11
-412.22752428041412
 21
191.53232989057801
 31
0.0
 12
-412.22929350428518
 22
191.50628627923291
 32
0.0
 13
-412.22929350428518
 23
191.50628627923291
 33
0.0
210
0.0
220
0.0
230
-1.0
  0
SOLID
  5
66D
  8
0
  6
CONTINUOUS
 10
529.09888339597615
 20
196.4126595776512
 30
0.0
 11
529.18697840274388
 21
191.39598182911479
 31
0.0
 12
530.18802247487906
 22
191.39598182911479
 32
0.0
 13
530.18802247487906
 23
191.39598182911479
 33
0.0
210
0.0
220
0.0
230
1.0
  0
SOLID
  5
66E
  8
0
  6
CONTINUOUS
 10
-529.09888339597615
 20
196.4126595776512
 30
0.0
 11
-530.09638516621987
 21
196.4126595776512
 31
0.0
 12
-530.18802247487906
 22
191.39598182911479
 32
0.0
 13
-530.18802247487906
 23
191.39598182911479
 33
0.0
210
0.0
220
0.0
230
-1.0
  0
SOLID
  5
66F
  8
0
  6
CONTINUOUS
 10
529.18697840274388
 20
191.39598182911479
 30
0.0
 11
529.18726162325117
 21
191.37985349143989
 31
0.0
 12
530.18689635099042
 22
191.37985349143989
 32
0.0
 13
530.18689635099042
 23
191.37985349143989
 33
0.0
210
0.0
220
0.0
230
1.0
  0
SOLID
  5
670
  8
0
  6
CONTINUOUS
 10
-529.18697840274388
 20
191.39598182911479
 30
0.0
 11
-530.18802247487906
 21
191.39598182911479
 31
0.0
 12
-530.18689635099042
 22
191.37985349143989
 32
0.0
 13
-530.18689635099042
 23
191.37985349143989
 33
0.0
210
0.0
220
0.0
230
-1.0
  0
SOLID
  5
671
  8
0
  6
CONTINUOUS
 10
411.2279131447346
 20
191.50628627923291
 30
0.0
 11
411.56746141473178
 21
186.51004724452059
 31
0.0
 12
412.5687036286584
 22
186.51004724452059
 32
0.0
 13
412.5687036286584
 23
186.51004724452059
 33
0.0
210
0.0
220
0.0
230
1.0
  0
SOLID
  5
672
  8
0
  6
CONTINUOUS
 10
-411.2279131447346
 20
191.50628627923291
 30
0.0
 11
-412.22929350428518
 21
191.50628627923291
 31
0.0
 12
-412.5687036286584
 22
186.51004724452059
 32
0.0
 13
-412.5687036286584
 23
186.51004724452059
 33
0.0
210
0.0
220
0.0
230
-1.0
  0
SOLID
  5
673
  8
0
  6
CONTINUOUS
 10
411.56746141473178
 20
186.51004724452059
 30
0.0
 11
411.57499180322412
 21
186.39924231851589
 31
0.0
 12
412.58567929697892
 22
186.39924231851589
 32
0.0
 13
412.58567929697892
 23
186.39924231851589
 33
0.0
210
0.0
220
0.0
230
1.0
  0
SOLID
  5
674
  8
0
  6
CONTINUOUS
 10
-411.56746141473178
 20
186.51004724452059
 30
0.0
 11
-412.5687036286584
 21
186.51004724452059
 31
0.0
 12
-412.58567929697892
 22
186.39924231851589
 32
0.0
 13
-412.58567929697892
 23
186.39924231851589
 33
0.0
210
0.0
220
0.0
230
-1.0
  0
SOLID
  5
675
  8
0
  6
CONTINUOUS
 10
529.18726162325117
 20
191.37985349143989
 30
0.0
 11
528.83301504634267
 21
186.3587522999471
 31
0.0
 12
529.83630956930733
 22
186.3587522999471
 32
0.0
 13
529.83630956930733
 23
186.3587522999471
 33
0.0
210
0.0
220
0.0
230
1.0
  0
SOLID
  5
676
  8
0
  6
CONTINUOUS
 10
-529.18726162325117
 20
191.37985349143989
 30
0.0
 11
-530.18689635099042
 21
191.37985349143989
 31
0.0
 12
-529.83630956930733
 22
186.3587522999471
 32
0.0
 13
-529.83630956930733
 23
186.3587522999471
 33
0.0
210
0.0
220
0.0
230
-1.0
  0
SOLID
  5
677
  8
0
  6
CONTINUOUS
 10
528.83301504634267
 20
186.3587522999471
 30
0.0
 11
528.82219030952024
 21
186.2898695449332
 31
0.0
 12
529.83149999019838
 22
186.2898695449332
 32
0.0
 13
529.83149999019838
 23
186.2898695449332
 33
0.0
210
0.0
220
0.0
230
1.0
  0
SOLID
  5
678
  8
0
  6
CONTINUOUS
 10
-528.83301504634267
 20
186.3587522999471
 30
0.0
 11
-529.83630956930733
 21
186.3587522999471
 31
0.0
 12
-529.83149999019838
 22
186.2898695449332
 32
0.0
 13
-529.83149999019838
 23
186.2898695449332
 33
0.0
210
0.0
220
0.0
230
-1.0
  0
SOLID
  5
679
  8
0
  6
CONTINUOUS
 10
528.82219030952024
 20
186.2898695449332
 30
0.0
 11
528.10811508621077
 21
181.74588205821141
 31
0.0
 12
529.12088446719315
 22
181.74588205821141
 32
0.0
 13
529.12088446719315
 23
181.74588205821141
 33
0.0
210
0.0
220
0.0
230
1.0
  0
SOLID
  5
67A
  8
0
  6
CONTINUOUS
 10
-528.82219030952024
 20
186.2898695449332
 30
0.0
 11
-529.83149999019838
 21
186.2898695449332
 31
0.0
 12
-529.12088446719315
 22
181.74588205821141
 32
0.0
 13
-529.12088446719315
 23
181.74588205821141
 33
0.0
210
0.0
220
0.0
230
-1.0
  0
SOLID
  5
67B
  8
0
  6
CONTINUOUS
 10
411.57499180322412
 20
186.39924231851589
 30
0.0
 11
412.33158452535281
 21
181.46109658686609
 31
0.0
 12
413.3422189841678
 22
181.46109658686609
 32
0.0
 13
413.3422189841678
 23
181.46109658686609
 33
0.0
210
0.0
220
0.0
230
1.0
  0
SOLID
  5
67C
  8
0
  6
CONTINUOUS
 10
-411.57499180322412
 20
186.39924231851589
 30
0.0
 11
-412.58567929697892
 21
186.39924231851589
 31
0.0
 12
-413.3422189841678
 22
181.46109658686609
 32
0.0
 13
-413.3422189841678
 23
181.46109658686609
 33
0.0
210
0.0
220
0.0
230
-1.0
  0
SOLID
  5
67D
  8
0
  6
CONTINUOUS
 10
-412.3487437099713
 20
181.3491016498223
 30
0.0
 11
-412.78185891414779
 21
181.3491016498223
 31
0.0
 12
-412.36161237831419
 22
181.26511014714109
 32
0.0
 13
-412.36161237831419
 23
181.26511014714109
 33
0.0
210
0.0
220
0.0
230
-1.0
  0
SOLID
  5
67E
  8
0
  6
CONTINUOUS
 10
528.10811508621077
 20
181.74588205821141
 30
0.0
 11
528.04576212869222
 21
181.3491016498223
 31
0.0
 12
529.02707363159584
 22
181.3491016498223
 32
0.0
 13
529.02707363159584
 23
181.3491016498223
 33
0.0
  0
SOLID
  5
67F
  8
0
  6
CONTINUOUS
 10
-528.10811508621077
 20
181.74588205821141
 30
0.0
 11
-529.12088446719315
 21
181.74588205821141
 31
0.0
 12
-529.02707363159584
 22
181.3491016498223
 32
0.0
 13
-529.02707363159584
 23
181.3491016498223
 33
0.0
210
0.0
220
0.0
230
-1.0
  0
SOLID
  5
680
  8
0
  6
CONTINUOUS
 10
412.33158452535281
 20
181.46109658686609
 30
0.0
 11
412.3487437099713
 21
181.3491016498223
 31
0.0
 12
412.78185891414779
 22
181.3491016498223
 32
0.0
 13
412.78185891414779
 23
181.3491016498223
 33
0.0
210
0.0
220
0.0
230
1.0
  0
SOLID
  5
681
  8
0
  6
CONTINUOUS
 10
-412.33158452535281
 20
181.46109658686609
 30
0.0
 11
-413.3422189841678
 21
181.46109658686609
 31
0.0
 12
-412.78185891414779
 22
181.3491016498223
 32
0.0
 13
-412.78185891414779
 23
181.3491016498223
 33
0.0
210
0.0
220
0.0
230
-1.0
  0
SOLID
  5
682
  8
0
  6
CONTINUOUS
 10
528.04576212869222
 20
181.3491016498223
 30
0.0
 11
526.84286175728869
 21
176.46136408434899
 31
0.0
 12
527.87146530138648
 22
176.46136408434899
 32
0.0
 13
527.87146530138648
 23
176.46136408434899
 33
0.0
  0
SOLID
  5
683
  8
0
  6
CONTINUOUS
 10
-528.04576212869222
 20
181.3491016498223
 30
0.0
 11
-529.02707363159584
 21
181.3491016498223
 31
0.0
 12
-527.87146530138648
 22
176.46136408434899
 32
0.0
 13
-527.87146530138648
 23
176.46136408434899
 33
0.0
210
0.0
220
0.0
230
-1.0
  0
SOLID
  5
684
  8
0
  6
CONTINUOUS
 10
526.84286175728869
 20
176.46136408434899
 30
0.0
 11
526.76171478804815
 21
176.22391658183611
 31
0.0
 12
527.81532556225045
 22
176.22391658183611
 32
0.0
 13
527.81532556225045
 23
176.22391658183611
 33
0.0
  0
SOLID
  5
685
  8
0
  6
CONTINUOUS
 10
-526.84286175728869
 20
176.46136408434899
 30
0.0
 11
-527.87146530138648
 21
176.46136408434899
 31
0.0
 12
-527.81532556225045
 22
176.22391658183611
 32
0.0
 13
-527.81532556225045
 23
176.22391658183611
 33
0.0
210
0.0
220
0.0
230
-1.0
  0
SOLID
  5
686
  8
0
  6
CONTINUOUS
 10
526.76171478804815
 20
176.22391658183611
 30
0.0
 11
525.23600851917115
 21
171.7594843731608
 31
0.0
 12
526.29350898333712
 22
171.7594843731608
 32
0.0
 13
526.29350898333712
 23
171.7594843731608
 33
0.0
210
0.0
220
0.0
230
1.0
  0
SOLID
  5
687
  8
0
  6
CONTINUOUS
 10
-526.76171478804815
 20
176.22391658183611
 30
0.0
 11
-527.81532556225045
 21
176.22391658183611
 31
0.0
 12
-526.29350898333712
 22
171.7594843731608
 32
0.0
 13
-526.29350898333712
 23
171.7594843731608
 33
0.0
210
0.0
220
0.0
230
-1.0
  0
SOLID
  5
688
  8
0
  6
CONTINUOUS
 10
525.23600851917115
 20
171.7594843731608
 30
0.0
 11
525.21508106539943
 21
171.6982476852279
 31
0.0
 12
526.26705554622129
 22
171.6982476852279
 32
0.0
 13
526.26705554622129
 23
171.6982476852279
 33
0.0
  0
SOLID
  5
689
  8
0
  6
CONTINUOUS
 10
-525.23600851917115
 20
171.7594843731608
 30
0.0
 11
-526.29350898333712
 21
171.7594843731608
 31
0.0
 12
-526.26705554622129
 22
171.6982476852279
 32
0.0
 13
-526.26705554622129
 23
171.6982476852279
 33
0.0
210
0.0
220
0.0
230
-1.0
  0
SOLID
  5
68A
  8
0
  6
CONTINUOUS
 10
525.21508106539943
 20
171.6982476852279
 30
0.0
 11
523.17165291975732
 21
167.05704437075849
 31
0.0
 12
524.26211726223721
 22
167.05704437075849
 32
0.0
 13
524.26211726223721
 23
167.05704437075849
 33
0.0
  0
SOLID
  5
68B
  8
0
  6
CONTINUOUS
 10
-525.21508106539943
 20
171.6982476852279
 30
0.0
 11
-526.26705554622129
 21
171.6982476852279
 31
0.0
 12
-524.26211726223721
 22
167.05704437075849
 32
0.0
 13
-524.26211726223721
 23
167.05704437075849
 33
0.0
210
0.0
220
0.0
230
-1.0
  0
SOLID
  5
68C
  8
0
  6
CONTINUOUS
 10
523.17165291975732
 20
167.05704437075849
 30
0.0
 11
522.95352248289851
 21
166.6579290329073
 31
0.0
 12
524.08970472902865
 22
166.6579290329073
 32
0.0
 13
524.08970472902865
 23
166.6579290329073
 33
0.0
210
0.0
220
0.0
230
1.0
  0
SOLID
  5
68D
  8
0
  6
CONTINUOUS
 10
-523.17165291975732
 20
167.05704437075849
 30
0.0
 11
-524.26211726223721
 21
167.05704437075849
 31
0.0
 12
-524.08970472902865
 22
166.6579290329073
 32
0.0
 13
-524.08970472902865
 23
166.6579290329073
 33
0.0
210
0.0
220
0.0
230
-1.0
  0
SOLID
  5
68E
  8
0
  6
CONTINUOUS
 10
522.95352248289851
 20
166.6579290329073
 30
0.0
 11
520.75763480755063
 21
162.64009243912059
 31
0.0
 12
521.89807286026394
 22
162.64009243912059
 32
0.0
 13
521.89807286026394
 23
162.64009243912059
 33
0.0
210
0.0
220
0.0
230
1.0
  0
SOLID
  5
68F
  8
0
  6
CONTINUOUS
 10
-522.95352248289851
 20
166.6579290329073
 30
0.0
 11
-524.08970472902865
 21
166.6579290329073
 31
0.0
 12
-521.89807286026394
 22
162.64009243912059
 32
0.0
 13
-521.89807286026394
 23
162.64009243912059
 33
0.0
210
0.0
220
0.0
230
-1.0
  0
SOLID
  5
690
  8
0
  6
CONTINUOUS
 10
520.75763480755063
 20
162.64009243912059
 30
0.0
 11
520.44084169382472
 21
162.16442185688749
 31
0.0
 12
521.63860615903764
 22
162.16442185688749
 32
0.0
 13
521.63860615903764
 23
162.16442185688749
 33
0.0
210
0.0
220
0.0
230
1.0
  0
SOLID
  5
691
  8
0
  6
CONTINUOUS
 10
-520.75763480755063
 20
162.64009243912059
 30
0.0
 11
-521.89807286026394
 21
162.64009243912059
 31
0.0
 12
-521.63860615903764
 22
162.16442185688749
 32
0.0
 13
-521.63860615903764
 23
162.16442185688749
 33
0.0
210
0.0
220
0.0
230
-1.0
  0
SOLID
  5
692
  8
0
  6
CONTINUOUS
 10
520.44084169382472
 20
162.16442185688749
 30
0.0
 11
517.98804589117503
 21
158.48150465637451
 31
0.0
 12
519.190247123674
 22
158.48150465637451
 32
0.0
 13
519.190247123674
 23
158.48150465637451
 33
0.0
210
0.0
220
0.0
230
1.0
  0
SOLID
  5
693
  8
0
  6
CONTINUOUS
 10
-520.44084169382472
 20
162.16442185688749
 30
0.0
 11
-521.63860615903764
 21
162.16442185688749
 31
0.0
 12
-519.190247123674
 22
158.48150465637451
 32
0.0
 13
-519.190247123674
 23
158.48150465637451
 33
0.0
210
0.0
220
0.0
230
-1.0
  0
SOLID
  5
694
  8
0
  6
CONTINUOUS
 10
517.98804589117503
 20
158.48150465637451
 30
0.0
 11
517.55048031016827
 21
157.9332778652014
 31
0.0
 12
518.82579255016083
 22
157.9332778652014
 32
0.0
 13
518.82579255016083
 23
157.9332778652014
 33
0.0
210
0.0
220
0.0
230
1.0
  0
SOLID
  5
695
  8
0
  6
CONTINUOUS
 10
-517.98804589117503
 20
158.48150465637451
 30
0.0
 11
-519.190247123674
 21
158.48150465637451
 31
0.0
 12
-518.82579255016083
 22
157.9332778652014
 32
0.0
 13
-518.82579255016083
 23
157.9332778652014
 33
0.0
210
0.0
220
0.0
230
-1.0
  0
SOLID
  5
696
  8
0
  6
CONTINUOUS
 10
517.55048031016827
 20
157.9332778652014
 30
0.0
 11
514.8478670082344
 21
154.54716825646011
 31
0.0
 12
516.12790552983836
 22
154.54716825646011
 32
0.0
 13
516.12790552983836
 23
154.54716825646011
 33
0.0
210
0.0
220
0.0
230
1.0
  0
SOLID
  5
697
  8
0
  6
CONTINUOUS
 10
-517.55048031016827
 20
157.9332778652014
 30
0.0
 11
-518.82579255016083
 21
157.9332778652014
 31
0.0
 12
-516.12790552983836
 22
154.54716825646011
 32
0.0
 13
-516.12790552983836
 23
154.54716825646011
 33
0.0
210
0.0
220
0.0
230
-1.0
  0
SOLID
  5
698
  8
0
  6
CONTINUOUS
 10
514.8478670082344
 20
154.54716825646011
 30
0.0
 11
514.26367591280325
 21
153.92981099849709
 31
0.0
 12
515.63602537071404
 22
153.92981099849709
 32
0.0
 13
515.63602537071404
 23
153.92981099849709
 33
0.0
  0
SOLID
  5
699
  8
0
  6
CONTINUOUS
 10
-514.8478670082344
 20
154.54716825646011
 30
0.0
 11
-516.12790552983836
 21
154.54716825646011
 31
0.0
 12
-515.63602537071404
 22
153.92981099849709
 32
0.0
 13
-515.63602537071404
 23
153.92981099849709
 33
0.0
210
0.0
220
0.0
230
-1.0
  0
SOLID
  5
69A
  8
0
  6
CONTINUOUS
 10
-511.33709815872902
 20
150.83708323937711
 30
0.0
 11
-512.71454482567356
 21
150.83708323937711
 31
0.0
 12
-512.06930462069715
 22
150.15402125677451
 32
0.0
 13
-512.06930462069715
 23
150.15402125677451
 33
0.0
210
0.0
220
0.0
230
-1.0
  0
SOLID
  5
69B
  8
0
  6
CONTINUOUS
 10
514.26367591280325
 20
153.92981099849709
 30
0.0
 11
511.33709815872902
 21
150.83708323937711
 31
0.0
 12
512.71454482567356
 22
150.83708323937711
 32
0.0
 13
512.71454482567356
 23
150.83708323937711
 33
0.0
210
0.0
220
0.0
230
1.0
  0
SOLID
  5
69C
  8
0
  6
CONTINUOUS
 10
-514.26367591280325
 20
153.92981099849709
 30
0.0
 11
-515.63602537071404
 21
153.92981099849709
 31
0.0
 12
-512.71454482567356
 22
150.83708323937711
 32
0.0
 13
-512.71454482567356
 23
150.83708323937711
 33
0.0
210
0.0
220
0.0
230
-1.0
  0
LINE
  5
69D
  8
0
  6
CONTINUOUS
 10
473.30325198361032
 20
252.36966406764421
 30
0.0
 11
468.18470846799511
 21
252.36786976955659
 31
0.0
  0
LINE
  5
69E
  8
0
  6
CONTINUOUS
 10
473.32367690955471
 20
252.36786976955659
 30
0.0
 11
473.30325198361032
 21
252.36966406764421
 31
0.0
  0
LINE
  5
69F
  8
0
  6
CONTINUOUS
 10
468.18470846799511
 20
252.36786976955659
 30
0.0
 11
463.04695460015409
 21
251.92611884863831
 31
0.0
  0
LINE
  5
6A0
  8
0
  6
CONTINUOUS
 10
473.32367690955471
 20
252.36786976955659
 30
0.0
 11
478.35223370727817
 21
251.92611884863831
 31
0.0
  0
LINE
  5
6A1
  8
0
  6
CONTINUOUS
 10
463.04695460015409
 20
251.92611884863831
 30
0.0
 11
463.02158576226458
 21
251.921733023863
 31
0.0
  0
LINE
  5
6A2
  8
0
  6
CONTINUOUS
 10
478.35223370727817
 20
251.92611884863831
 30
0.0
 11
478.40215860373689
 21
251.921733023863
 31
0.0
  0
LINE
  5
6A3
  8
0
  6
CONTINUOUS
 10
463.02158576226458
 20
251.921733023863
 30
0.0
 11
459.828787287534
 21
251.36975446205659
 31
0.0
  0
LINE
  5
6A4
  8
0
  6
CONTINUOUS
 10
478.40215860373689
 20
251.921733023863
 30
0.0
 11
481.56008448310899
 21
251.36975446205659
 31
0.0
  0
LINE
  5
6A5
  8
0
  6
CONTINUOUS
 10
468.24856691923338
 20
251.36975446205659
 30
0.0
 11
473.282148923786
 21
251.36962834178851
 31
0.0
  0
LINE
  5
6A6
  8
0
  6
CONTINUOUS
 10
481.56008448310899
 20
251.36975446205659
 30
0.0
 11
481.5608060300782
 21
251.36962834178851
 31
0.0
  0
LINE
  5
6A7
  8
0
  6
CONTINUOUS
 10
459.828787287534
 20
251.36975446205659
 30
0.0
 11
458.0032300404572
 21
251.05414780172021
 31
0.0
  0
LINE
  5
6A8
  8
0
  6
CONTINUOUS
 10
468.24856691923338
 20
251.36975446205659
 30
0.0
 11
464.56247325088412
 21
251.05414780172021
 31
0.0
  0
LINE
  5
6A9
  8
0
  6
CONTINUOUS
 10
473.282148923786
 20
251.36962834178851
 30
0.0
 11
477.0872040944742
 21
251.0338453572509
 31
0.0
  0
LINE
  5
6AA
  8
0
  6
CONTINUOUS
 10
481.5608060300782
 20
251.36962834178851
 30
0.0
 11
483.48185487163789
 21
251.0338453572509
 31
0.0
  0
LINE
  5
6AB
  8
0
  6
CONTINUOUS
 10
458.0032300404572
 20
251.05414780172021
 30
0.0
 11
457.56191193768518
 21
250.9371425118205
 31
0.0
  0
LINE
  5
6AC
  8
0
  6
CONTINUOUS
 10
464.56247325088412
 20
251.05414780172021
 30
0.0
 11
463.19592269139019
 21
250.9371425118205
 31
0.0
  0
LINE
  5
6AD
  8
0
  6
CONTINUOUS
 10
477.0872040944742
 20
251.0338453572509
 30
0.0
 11
478.29624527176162
 21
250.9271516467193
 31
0.0
  0
LINE
  5
6AE
  8
0
  6
CONTINUOUS
 10
483.48185487163789
 20
251.0338453572509
 30
0.0
 11
483.88542196418479
 21
250.9271516467193
 31
0.0
  0
LINE
  5
6AF
  8
0
  6
CONTINUOUS
 10
457.56191193768518
 20
250.9371425118205
 30
0.0
 11
454.33398211736147
 21
250.0813315626873
 31
0.0
  0
LINE
  5
6B0
  8
0
  6
CONTINUOUS
 10
463.19592269139019
 20
250.9371425118205
 30
0.0
 11
458.23562678975219
 21
250.0813315626873
 31
0.0
  0
LINE
  5
6B1
  8
0
  6
CONTINUOUS
 10
478.29624527176162
 20
250.9271516467193
 30
0.0
 11
483.29127939644661
 21
250.05193688114591
 31
0.0
  0
LINE
  5
6B2
  8
0
  6
CONTINUOUS
 10
483.88542196418479
 20
250.9271516467193
 30
0.0
 11
487.19590649543329
 21
250.05193688114591
 31
0.0
  0
LINE
  5
6B3
  8
0
  6
CONTINUOUS
 10
454.33398211736147
 20
250.0813315626873
 30
0.0
 11
453.05562259903138
 21
249.7424040972179
 31
0.0
  0
LINE
  5
6B4
  8
0
  6
CONTINUOUS
 10
458.23562678975219
 20
250.0813315626873
 30
0.0
 11
456.95561098854409
 21
249.7424040972179
 31
0.0
  0
LINE
  5
6B5
  8
0
  6
CONTINUOUS
 10
483.29127939644661
 20
250.05193688114591
 30
0.0
 11
484.52360573934322
 21
249.7255707280917
 31
0.0
  0
LINE
  5
6B6
  8
0
  6
CONTINUOUS
 10
487.19590649543329
 20
250.05193688114591
 30
0.0
 11
488.43038075673252
 21
249.7255707280917
 31
0.0
  0
LINE
  5
6B7
  8
0
  6
CONTINUOUS
 10
453.05562259903138
 20
249.7424040972179
 30
0.0
 11
450.41010820926908
 21
248.7929210038196
 31
0.0
  0
LINE
  5
6B8
  8
0
  6
CONTINUOUS
 10
456.95561098854409
 20
249.7424040972179
 30
0.0
 11
453.36973056765089
 21
248.7929210038196
 31
0.0
  0
LINE
  5
6B9
  8
0
  6
CONTINUOUS
 10
484.52360573934322
 20
249.7255707280917
 30
0.0
 11
488.15711104820389
 21
248.7632824863523
 31
0.0
  0
LINE
  5
6BA
  8
0
  6
CONTINUOUS
 10
488.43038075673252
 20
249.7255707280917
 30
0.0
 11
491.096026977002
 21
248.7632824863523
 31
0.0
  0
LINE
  5
6BB
  8
0
  6
CONTINUOUS
 10
450.41010820926908
 20
248.7929210038196
 30
0.0
 11
448.20204446574968
 21
248.0004402667158
 31
0.0
  0
LINE
  5
6BC
  8
0
  6
CONTINUOUS
 10
453.36973056765089
 20
248.7929210038196
 30
0.0
 11
451.1595625196997
 21
248.0004402667158
 31
0.0
  0
LINE
  5
6BD
  8
0
  6
CONTINUOUS
 10
488.15711104820389
 20
248.7632824863523
 30
0.0
 11
490.30288341756562
 21
247.9875749386226
 31
0.0
  0
LINE
  5
6BE
  8
0
  6
CONTINUOUS
 10
491.096026977002
 20
248.7632824863523
 30
0.0
 11
493.2448237750412
 21
247.9875749386226
 31
0.0
  0
LINE
  5
6BF
  8
0
  6
CONTINUOUS
 10
448.20204446574968
 20
248.0004402667158
 30
0.0
 11
446.1979513576473
 21
247.0813114460548
 31
0.0
  0
LINE
  5
6C0
  8
0
  6
CONTINUOUS
 10
451.1595625196997
 20
248.0004402667158
 30
0.0
 11
448.596182671755
 21
247.0813114460548
 31
0.0
  0
LINE
  5
6C1
  8
0
  6
CONTINUOUS
 10
490.30288341756562
 20
247.9875749386226
 30
0.0
 11
492.89087022457471
 21
247.05200463848911
 31
0.0
  0
LINE
  5
6C2
  8
0
  6
CONTINUOUS
 10
493.2448237750412
 20
247.9875749386226
 30
0.0
 11
495.27483016807338
 21
247.05200463848911
 31
0.0
  0
LINE
  5
6C3
  8
0
  6
CONTINUOUS
 10
446.1979513576473
 20
247.0813114460548
 30
0.0
 11
443.54947187060083
 21
245.86665040179889
 31
0.0
  0
LINE
  5
6C4
  8
0
  6
CONTINUOUS
 10
448.596182671755
 20
247.0813114460548
 30
0.0
 11
445.9457103355391
 21
245.86665040179889
 31
0.0
  0
LINE
  5
6C5
  8
0
  6
CONTINUOUS
 10
492.89087022457471
 20
247.05200463848911
 30
0.0
 11
495.54087397006072
 21
245.82919218660629
 31
0.0
  0
LINE
  5
6C6
  8
0
  6
CONTINUOUS
 10
495.27483016807338
 20
247.05200463848911
 30
0.0
 11
497.92809641054339
 21
245.82919218660629
 31
0.0
  0
LINE
  5
6C7
  8
0
  6
CONTINUOUS
 10
443.54947187060083
 20
245.86665040179889
 30
0.0
 11
442.00106432112068
 21
244.98424379351241
 31
0.0
  0
LINE
  5
6C8
  8
0
  6
CONTINUOUS
 10
445.9457103355391
 20
245.86665040179889
 30
0.0
 11
444.02023959156679
 21
244.98424379351241
 31
0.0
  0
LINE
  5
6C9
  8
0
  6
CONTINUOUS
 10
495.54087397006072
 20
245.82919218660629
 30
0.0
 11
497.49542692801759
 21
244.9272871614057
 31
0.0
  0
LINE
  5
6CA
  8
0
  6
CONTINUOUS
 10
497.92809641054339
 20
245.82919218660629
 30
0.0
 11
499.51330143558692
 21
244.9272871614057
 31
0.0
  0
LINE
  5
6CB
  8
0
  6
CONTINUOUS
 10
442.00106432112068
 20
244.98424379351241
 30
0.0
 11
439.10236790500142
 21
243.33233446650149
 31
0.0
  0
LINE
  5
6CC
  8
0
  6
CONTINUOUS
 10
444.02023959156679
 20
244.98424379351241
 30
0.0
 11
441.11975320619359
 21
243.33233446650149
 31
0.0
  0
LINE
  5
6CD
  8
0
  6
CONTINUOUS
 10
497.49542692801759
 20
244.9272871614057
 30
0.0
 11
500.35586836945077
 21
243.29799472561371
 31
0.0
  0
LINE
  5
6CE
  8
0
  6
CONTINUOUS
 10
499.51330143558692
 20
244.9272871614057
 30
0.0
 11
502.3769760845982
 21
243.29799472561371
 31
0.0
  0
LINE
  5
6CF
  8
0
  6
CONTINUOUS
 10
439.10236790500142
 20
243.33233446650149
 30
0.0
 11
437.88464322568262
 21
242.49315578221581
 31
0.0
  0
LINE
  5
6D0
  8
0
  6
CONTINUOUS
 10
441.11975320619359
 20
243.33233446650149
 30
0.0
 11
439.6462907655702
 21
242.49315578221581
 31
0.0
  0
LINE
  5
6D1
  8
0
  6
CONTINUOUS
 10
500.35586836945077
 20
243.29799472561371
 30
0.0
 11
501.8692509162708
 21
242.43597996793409
 31
0.0
  0
LINE
  5
6D2
  8
0
  6
CONTINUOUS
 10
502.3769760845982
 20
243.29799472561371
 30
0.0
 11
503.62289024618212
 21
242.43597996793409
 31
0.0
  0
LINE
  5
6D3
  8
0
  6
CONTINUOUS
 10
437.88464322568262
 20
242.49315578221581
 30
0.0
 11
434.85626947753451
 21
240.4061924967892
 31
0.0
  0
LINE
  5
6D4
  8
0
  6
CONTINUOUS
 10
439.6462907655702
 20
242.49315578221581
 30
0.0
 11
436.61631095805728
 21
240.4061924967892
 31
0.0
  0
LINE
  5
6D5
  8
0
  6
CONTINUOUS
 10
501.8692509162708
 20
242.43597996793409
 30
0.0
 11
504.82942221780149
 21
240.3857046437866
 31
0.0
  0
LINE
  5
6D6
  8
0
  6
CONTINUOUS
 10
503.62289024618212
 20
242.43597996793409
 30
0.0
 11
506.58625837734661
 21
240.3857046437866
 31
0.0
  0
LINE
  5
6D7
  8
0
  6
CONTINUOUS
 10
434.85626947753451
 20
240.4061924967892
 30
0.0
 11
433.8972818267352
 21
239.61660967614179
 31
0.0
  0
LINE
  5
6D8
  8
0
  6
CONTINUOUS
 10
436.61631095805728
 20
240.4061924967892
 30
0.0
 11
435.46994675528128
 21
239.61660967614179
 31
0.0
  0
LINE
  5
6D9
  8
0
  6
CONTINUOUS
 10
504.82942221780149
 20
240.3857046437866
 30
0.0
 11
506.00721687365842
 21
239.56993992146539
 31
0.0
  0
LINE
  5
6DA
  8
0
  6
CONTINUOUS
 10
506.58625837734661
 20
240.3857046437866
 30
0.0
 11
507.57331197170481
 21
239.56993992146539
 31
0.0
  0
LINE
  5
6DB
  8
0
  6
CONTINUOUS
 10
433.8972818267352
 20
239.61660967614179
 30
0.0
 11
430.90476354393883
 21
237.15271869214439
 31
0.0
  0
LINE
  5
6DC
  8
0
  6
CONTINUOUS
 10
435.46994675528128
 20
239.61660967614179
 30
0.0
 11
432.47602605554181
 21
237.15271869214439
 31
0.0
  0
LINE
  5
6DD
  8
0
  6
CONTINUOUS
 10
506.00721687365842
 20
239.56993992146539
 30
0.0
 11
508.99187280695588
 21
237.10059985298309
 31
0.0
  0
LINE
  5
6DE
  8
0
  6
CONTINUOUS
 10
507.57331197170481
 20
239.56993992146539
 30
0.0
 11
510.56114770864713
 21
237.10059985298309
 31
0.0
  0
LINE
  5
6DF
  8
0
  6
CONTINUOUS
 10
430.90476354393883
 20
237.15271869214439
 30
0.0
 11
430.16542567803572
 21
236.41803317133929
 31
0.0
  0
LINE
  5
6E0
  8
0
  6
CONTINUOUS
 10
432.47602605554181
 20
237.15271869214439
 30
0.0
 11
431.583295734751
 21
236.41803317133929
 31
0.0
  0
LINE
  5
6E1
  8
0
  6
CONTINUOUS
 10
508.99187280695588
 20
237.10059985298309
 30
0.0
 11
509.91445011585631
 21
236.3373101586084
 31
0.0
  0
LINE
  5
6E2
  8
0
  6
CONTINUOUS
 10
510.56114770864713
 20
237.10059985298309
 30
0.0
 11
511.3387799870676
 21
236.3373101586084
 31
0.0
  0
LINE
  5
6E3
  8
0
  6
CONTINUOUS
 10
509.91445011585631
 20
236.3373101586084
 30
0.0
 11
512.78659652259432
 21
233.51508634234941
 31
0.0
  0
LINE
  5
6E4
  8
0
  6
CONTINUOUS
 10
511.3387799870676
 20
236.3373101586084
 30
0.0
 11
514.21403475943555
 21
233.51508634234941
 31
0.0
  0
LINE
  5
6E5
  8
0
  6
CONTINUOUS
 10
430.16542567803572
 20
236.41803317133929
 30
0.0
 11
427.02713446719321
 21
233.29948991931789
 31
0.0
  0
LINE
  5
6E6
  8
0
  6
CONTINUOUS
 10
431.583295734751
 20
236.41803317133929
 30
0.0
 11
428.40927012519768
 21
233.29948991931789
 31
0.0
  0
LINE
  5
6E7
  8
0
  6
CONTINUOUS
 10
427.02713446719321
 20
233.29948991931789
 30
0.0
 11
426.67640652524659
 21
232.8902729369544
 31
0.0
  0
LINE
  5
6E8
  8
0
  6
CONTINUOUS
 10
428.40927012519768
 20
233.29948991931789
 30
0.0
 11
427.99277271697878
 21
232.8902729369544
 31
0.0
  0
LINE
  5
6E9
  8
0
  6
CONTINUOUS
 10
512.78659652259432
 20
233.51508634234941
 30
0.0
 11
513.50479634762962
 21
232.80937000202209
 31
0.0
  0
LINE
  5
6EA
  8
0
  6
CONTINUOUS
 10
514.21403475943555
 20
233.51508634234941
 30
0.0
 11
514.81661881916796
 21
232.80937000202209
 31
0.0
  0
LINE
  5
6EB
  8
0
  6
CONTINUOUS
 10
426.67640652524659
 20
232.8902729369544
 30
0.0
 11
423.89861131761802
 21
229.64923954172249
 31
0.0
  0
LINE
  5
6EC
  8
0
  6
CONTINUOUS
 10
427.99277271697878
 20
232.8902729369544
 30
0.0
 11
425.2138942344036
 21
229.64923954172249
 31
0.0
  0
LINE
  5
6ED
  8
0
  6
CONTINUOUS
 10
513.50479634762962
 20
232.80937000202209
 30
0.0
 11
516.22286209690083
 21
229.62249388980359
 31
0.0
  0
LINE
  5
6EE
  8
0
  6
CONTINUOUS
 10
514.81661881916796
 20
232.80937000202209
 30
0.0
 11
517.53776984802744
 21
229.62249388980359
 31
0.0
  0
LINE
  5
6EF
  8
0
  6
CONTINUOUS
 10
423.89861131761802
 20
229.64923954172249
 30
0.0
 11
423.46109882453271
 21
229.0404823038412
 31
0.0
  0
LINE
  5
6F0
  8
0
  6
CONTINUOUS
 10
425.2138942344036
 20
229.64923954172249
 30
0.0
 11
424.69194268896479
 21
229.0404823038412
 31
0.0
  0
LINE
  5
6F1
  8
0
  6
CONTINUOUS
 10
516.22286209690083
 20
229.62249388980359
 30
0.0
 11
516.77121648931995
 21
228.97955965809891
 31
0.0
  0
LINE
  5
6F2
  8
0
  6
CONTINUOUS
 10
517.53776984802744
 20
229.62249388980359
 30
0.0
 11
517.99804083231891
 21
228.97955965809891
 31
0.0
  0
LINE
  5
6F3
  8
0
  6
CONTINUOUS
 10
423.46109882453271
 20
229.0404823038412
 30
0.0
 11
420.91138766211401
 21
225.49280046809821
 31
0.0
  0
LINE
  5
6F4
  8
0
  6
CONTINUOUS
 10
424.69194268896479
 20
229.0404823038412
 30
0.0
 11
422.14129067340389
 21
225.49280046809821
 31
0.0
  0
LINE
  5
6F5
  8
0
  6
CONTINUOUS
 10
516.77121648931995
 20
228.97955965809891
 30
0.0
 11
519.30957614608019
 21
225.42949271742759
 31
0.0
  0
LINE
  5
6F6
  8
0
  6
CONTINUOUS
 10
517.99804083231891
 20
228.97955965809891
 30
0.0
 11
520.53950265610695
 21
225.42949271742759
 31
0.0
  0
LINE
  5
6F7
  8
0
  6
CONTINUOUS
 10
420.91138766211401
 20
225.49280046809821
 30
0.0
 11
420.59165938933012
 21
224.95354896061141
 31
0.0
  0
LINE
  5
6F8
  8
0
  6
CONTINUOUS
 10
422.14129067340389
 20
225.49280046809821
 30
0.0
 11
421.75358878576338
 21
224.95354896061141
 31
0.0
  0
LINE
  5
6F9
  8
0
  6
CONTINUOUS
 10
519.30957614608019
 20
225.42949271742759
 30
0.0
 11
519.72074962058593
 21
224.8544389204464
 31
0.0
  0
LINE
  5
6FA
  8
0
  6
CONTINUOUS
 10
520.53950265610695
 20
225.42949271742759
 30
0.0
 11
520.88100363488843
 21
224.8544389204464
 31
0.0
  0
LINE
  5
6FB
  8
0
  6
CONTINUOUS
 10
420.59165938933012
 20
224.95354896061141
 30
0.0
 11
418.3009035742474
 21
221.08997594652701
 31
0.0
  0
LINE
  5
6FC
  8
0
  6
CONTINUOUS
 10
421.75358878576338
 20
224.95354896061141
 30
0.0
 11
419.46202131791068
 21
221.08997594652701
 31
0.0
  0
LINE
  5
6FD
  8
0
  6
CONTINUOUS
 10
519.72074962058593
 20
224.8544389204464
 30
0.0
 11
521.9897366507256
 21
221.0284994806126
 31
0.0
  0
LINE
  5
6FE
  8
0
  6
CONTINUOUS
 10
520.88100363488843
 20
224.8544389204464
 30
0.0
 11
523.15307290966075
 21
221.0284994806126
 31
0.0
  0
LINE
  5
6FF
  8
0
  6
CONTINUOUS
 10
418.3009035742474
 20
221.08997594652701
 30
0.0
 11
418.0760421795265
 21
220.62420520498671
 31
0.0
  0
LINE
  5
700
  8
0
  6
CONTINUOUS
 10
419.46202131791068
 20
221.08997594652701
 30
0.0
 11
419.18576276788451
 21
220.62420520498671
 31
0.0
  0
LINE
  5
701
  8
0
  6
CONTINUOUS
 10
521.9897366507256
 20
221.0284994806126
 30
0.0
 11
522.28835868516626
 21
220.52496649254641
 31
0.0
  0
LINE
  5
702
  8
0
  6
CONTINUOUS
 10
523.15307290966075
 20
221.0284994806126
 30
0.0
 11
523.39501532785141
 21
220.52496649254641
 31
0.0
  0
LINE
  5
703
  8
0
  6
CONTINUOUS
 10
418.0760421795265
 20
220.62420520498671
 30
0.0
 11
416.05897569710191
 21
216.44611784400871
 31
0.0
  0
LINE
  5
704
  8
0
  6
CONTINUOUS
 10
419.18576276788451
 20
220.62420520498671
 30
0.0
 11
417.16798726720549
 21
216.44611784400871
 31
0.0
  0
LINE
  5
705
  8
0
  6
CONTINUOUS
 10
522.28835868516626
 20
220.52496649254641
 30
0.0
 11
524.26009382450513
 21
216.41489596034771
 31
0.0
  0
LINE
  5
706
  8
0
  6
CONTINUOUS
 10
523.39501532785141
 20
220.52496649254641
 30
0.0
 11
525.36986191598305
 21
216.41489596034771
 31
0.0
  0
LINE
  5
707
  8
0
  6
CONTINUOUS
 10
416.05897569710191
 20
216.44611784400871
 30
0.0
 11
415.91084855464612
 21
216.0577187392455
 31
0.0
  0
LINE
  5
708
  8
0
  6
CONTINUOUS
 10
417.16798726720549
 20
216.44611784400871
 30
0.0
 11
416.98041287481811
 21
216.0577187392455
 31
0.0
  0
LINE
  5
709
  8
0
  6
CONTINUOUS
 10
524.26009382450513
 20
216.41489596034771
 30
0.0
 11
524.46555992121489
 21
215.98660306613269
 31
0.0
  0
LINE
  5
70A
  8
0
  6
CONTINUOUS
 10
525.36986191598305
 20
216.41489596034771
 30
0.0
 11
525.53229522290815
 21
215.98660306613269
 31
0.0
  0
LINE
  5
70B
  8
0
  6
CONTINUOUS
 10
415.91084855464612
 20
216.0577187392455
 30
0.0
 11
414.23501767677851
 21
211.6635800155276
 31
0.0
  0
LINE
  5
70C
  8
0
  6
CONTINUOUS
 10
416.98041287481811
 20
216.0577187392455
 30
0.0
 11
415.3039789486092
 21
211.6635800155276
 31
0.0
  0
LINE
  5
70D
  8
0
  6
CONTINUOUS
 10
524.46555992121489
 20
215.98660306613269
 30
0.0
 11
526.12857273651741
 21
211.59330037564371
 31
0.0
  0
LINE
  5
70E
  8
0
  6
CONTINUOUS
 10
525.53229522290815
 20
215.98660306613269
 30
0.0
 11
527.19848836777999
 21
211.59330037564371
 31
0.0
  0
LINE
  5
70F
  8
0
  6
CONTINUOUS
 10
414.23501767677851
 20
211.6635800155276
 30
0.0
 11
414.14743099022218
 21
211.3547803588354
 31
0.0
  0
LINE
  5
710
  8
0
  6
CONTINUOUS
 10
415.3039789486092
 20
211.6635800155276
 30
0.0
 11
415.18616696008769
 21
211.3547803588354
 31
0.0
  0
LINE
  5
711
  8
0
  6
CONTINUOUS
 10
526.12857273651741
 20
211.59330037564371
 30
0.0
 11
526.26083709057798
 21
211.24388794947129
 31
0.0
  0
LINE
  5
712
  8
0
  6
CONTINUOUS
 10
527.19848836777999
 20
211.59330037564371
 30
0.0
 11
527.29785902869776
 21
211.24388794947129
 31
0.0
  0
LINE
  5
713
  8
0
  6
CONTINUOUS
 10
414.14743099022218
 20
211.3547803588354
 30
0.0
 11
412.8383100420524
 21
206.7392832409769
 31
0.0
  0
LINE
  5
714
  8
0
  6
CONTINUOUS
 10
415.18616696008769
 20
211.3547803588354
 30
0.0
 11
413.87654544271538
 21
206.7392832409769
 31
0.0
  0
LINE
  5
715
  8
0
  6
CONTINUOUS
 10
526.26083709057798
 20
211.24388794947129
 30
0.0
 11
527.55840911241739
 21
206.669984038926
 31
0.0
  0
LINE
  5
716
  8
0
  6
CONTINUOUS
 10
527.29785902869776
 20
211.24388794947129
 30
0.0
 11
528.59864806915755
 21
206.669984038926
 31
0.0
  0
LINE
  5
717
  8
0
  6
CONTINUOUS
 10
412.8383100420524
 20
206.7392832409769
 30
0.0
 11
412.79444270432032
 21
206.5123590278813
 31
0.0
  0
LINE
  5
718
  8
0
  6
CONTINUOUS
 10
413.87654544271538
 20
206.7392832409769
 30
0.0
 11
413.8121569652244
 21
206.5123590278813
 31
0.0
  0
LINE
  5
719
  8
0
  6
CONTINUOUS
 10
527.55840911241739
 20
206.669984038926
 30
0.0
 11
527.63460442253552
 21
206.40139777084329
 31
0.0
  0
LINE
  5
71A
  8
0
  6
CONTINUOUS
 10
528.59864806915755
 20
206.669984038926
 30
0.0
 11
528.65005307448268
 21
206.40139777084329
 31
0.0
  0
LINE
  5
71B
  8
0
  6
CONTINUOUS
 10
412.79444270432032
 20
206.5123590278813
 30
0.0
 11
411.85957226414871
 21
201.6763067404635
 31
0.0
  0
LINE
  5
71C
  8
0
  6
CONTINUOUS
 10
413.8121569652244
 20
206.5123590278813
 30
0.0
 11
412.87687229054671
 21
201.6763067404635
 31
0.0
  0
LINE
  5
71D
  8
0
  6
CONTINUOUS
 10
527.63460442253552
 20
206.40139777084329
 30
0.0
 11
528.54207276282625
 21
201.6426883606081
 31
0.0
  0
LINE
  5
71E
  8
0
  6
CONTINUOUS
 10
528.65005307448268
 20
206.40139777084329
 30
0.0
 11
529.56082742017213
 21
201.6426883606081
 31
0.0
  0
LINE
  5
71F
  8
0
  6
CONTINUOUS
 10
411.85957226414871
 20
201.6763067404635
 30
0.0
 11
411.84444309115361
 21
201.5334857822582
 31
0.0
  0
LINE
  5
720
  8
0
  6
CONTINUOUS
 10
412.87687229054671
 20
201.6763067404635
 30
0.0
 11
412.84925094869732
 21
201.5334857822582
 31
0.0
  0
LINE
  5
721
  8
0
  6
CONTINUOUS
 10
528.54207276282625
 20
201.6426883606081
 30
0.0
 11
528.57749882795872
 21
201.45691620523061
 31
0.0
  0
LINE
  5
722
  8
0
  6
CONTINUOUS
 10
529.56082742017213
 20
201.6426883606081
 30
0.0
 11
529.58015840526673
 21
201.45691620523061
 31
0.0
  0
LINE
  5
723
  8
0
  6
CONTINUOUS
 10
411.84444309115361
 20
201.5334857822582
 30
0.0
 11
411.32037640284511
 21
196.58624202929261
 31
0.0
  0
LINE
  5
724
  8
0
  6
CONTINUOUS
 10
412.84925094869732
 20
201.5334857822582
 30
0.0
 11
412.32486027265452
 21
196.58624202929261
 31
0.0
  0
LINE
  5
725
  8
0
  6
CONTINUOUS
 10
411.32037640284511
 20
196.58624202929261
 30
0.0
 11
411.3193152957316
 21
196.52794452503809
 31
0.0
  0
LINE
  5
726
  8
0
  6
CONTINUOUS
 10
412.32486027265452
 20
196.58624202929261
 30
0.0
 11
412.31868093943501
 21
196.52794452503809
 31
0.0
  0
LINE
  5
727
  8
0
  6
CONTINUOUS
 10
528.57749882795872
 20
201.45691620523061
 30
0.0
 11
529.08844255489169
 21
196.51367193027619
 31
0.0
  0
LINE
  5
728
  8
0
  6
CONTINUOUS
 10
529.58015840526673
 20
201.45691620523061
 30
0.0
 11
530.09454002076723
 21
196.51367193027619
 31
0.0
  0
LINE
  5
729
  8
0
  6
CONTINUOUS
 10
529.08844255489169
 20
196.51367193027619
 30
0.0
 11
529.09888339597615
 21
196.4126595776512
 31
0.0
  0
LINE
  5
72A
  8
0
  6
CONTINUOUS
 10
530.09454002076723
 20
196.51367193027619
 30
0.0
 11
530.09638516621987
 21
196.4126595776512
 31
0.0
  0
LINE
  5
72B
  8
0
  6
CONTINUOUS
 10
411.3193152957316
 20
196.52794452503809
 30
0.0
 11
411.22838717980028
 21
191.53232989057801
 31
0.0
  0
LINE
  5
72C
  8
0
  6
CONTINUOUS
 10
412.31868093943501
 20
196.52794452503809
 30
0.0
 11
412.22752428041412
 21
191.53232989057801
 31
0.0
  0
LINE
  5
72D
  8
0
  6
CONTINUOUS
 10
411.22838717980028
 20
191.53232989057801
 30
0.0
 11
411.2279131447346
 21
191.50628627923291
 31
0.0
  0
LINE
  5
72E
  8
0
  6
CONTINUOUS
 10
412.22752428041412
 20
191.53232989057801
 30
0.0
 11
412.22929350428518
 21
191.50628627923291
 31
0.0
  0
LINE
  5
72F
  8
0
  6
CONTINUOUS
 10
529.09888339597615
 20
196.4126595776512
 30
0.0
 11
529.18697840274388
 21
191.39598182911479
 31
0.0
  0
LINE
  5
730
  8
0
  6
CONTINUOUS
 10
530.09638516621987
 20
196.4126595776512
 30
0.0
 11
530.18802247487906
 21
191.39598182911479
 31
0.0
  0
LINE
  5
731
  8
0
  6
CONTINUOUS
 10
529.18697840274388
 20
191.39598182911479
 30
0.0
 11
529.18726162325117
 21
191.37985349143989
 31
0.0
  0
LINE
  5
732
  8
0
  6
CONTINUOUS
 10
530.18802247487906
 20
191.39598182911479
 30
0.0
 11
530.18689635099042
 21
191.37985349143989
 31
0.0
  0
LINE
  5
733
  8
0
  6
CONTINUOUS
 10
411.2279131447346
 20
191.50628627923291
 30
0.0
 11
411.56746141473178
 21
186.51004724452059
 31
0.0
  0
LINE
  5
734
  8
0
  6
CONTINUOUS
 10
412.22929350428518
 20
191.50628627923291
 30
0.0
 11
412.5687036286584
 21
186.51004724452059
 31
0.0
  0
LINE
  5
735
  8
0
  6
CONTINUOUS
 10
411.56746141473178
 20
186.51004724452059
 30
0.0
 11
411.57499180322412
 21
186.39924231851589
 31
0.0
  0
LINE
  5
736
  8
0
  6
CONTINUOUS
 10
412.5687036286584
 20
186.51004724452059
 30
0.0
 11
412.58567929697892
 21
186.39924231851589
 31
0.0
  0
LINE
  5
737
  8
0
  6
CONTINUOUS
 10
529.18726162325117
 20
191.37985349143989
 30
0.0
 11
528.83301504634267
 21
186.3587522999471
 31
0.0
  0
LINE
  5
738
  8
0
  6
CONTINUOUS
 10
530.18689635099042
 20
191.37985349143989
 30
0.0
 11
529.83630956930733
 21
186.3587522999471
 31
0.0
  0
LINE
  5
739
  8
0
  6
CONTINUOUS
 10
528.83301504634267
 20
186.3587522999471
 30
0.0
 11
528.82219030952024
 21
186.2898695449332
 31
0.0
  0
LINE
  5
73A
  8
0
  6
CONTINUOUS
 10
529.83630956930733
 20
186.3587522999471
 30
0.0
 11
529.83149999019838
 21
186.2898695449332
 31
0.0
  0
LINE
  5
73B
  8
0
  6
CONTINUOUS
 10
528.82219030952024
 20
186.2898695449332
 30
0.0
 11
528.10811508621077
 21
181.74588205821141
 31
0.0
  0
LINE
  5
73C
  8
0
  6
CONTINUOUS
 10
529.83149999019838
 20
186.2898695449332
 30
0.0
 11
529.12088446719315
 21
181.74588205821141
 31
0.0
  0
LINE
  5
73D
  8
0
  6
CONTINUOUS
 10
411.57499180322412
 20
186.39924231851589
 30
0.0
 11
412.33158452535281
 21
181.46109658686609
 31
0.0
  0
LINE
  5
73E
  8
0
  6
CONTINUOUS
 10
412.58567929697892
 20
186.39924231851589
 30
0.0
 11
413.3422189841678
 21
181.46109658686609
 31
0.0
  0
LINE
  5
73F
  8
0
  6
CONTINUOUS
 10
412.78185891414779
 20
181.3491016498223
 30
0.0
 11
412.36161237831419
 21
181.26511014714109
 31
0.0
  0
LINE
  5
740
  8
0
  6
CONTINUOUS
 10
412.36161237831419
 20
181.26511014714109
 30
0.0
 11
412.3487437099713
 21
181.3491016498223
 31
0.0
  0
LINE
  5
741
  8
0
  6
CONTINUOUS
 10
528.10811508621077
 20
181.74588205821141
 30
0.0
 11
528.04576212869222
 21
181.3491016498223
 31
0.0
  0
LINE
  5
742
  8
0
  6
CONTINUOUS
 10
529.12088446719315
 20
181.74588205821141
 30
0.0
 11
529.02707363159584
 21
181.3491016498223
 31
0.0
  0
LINE
  5
743
  8
0
  6
CONTINUOUS
 10
412.33158452535281
 20
181.46109658686609
 30
0.0
 11
412.3487437099713
 21
181.3491016498223
 31
0.0
  0
LINE
  5
744
  8
0
  6
CONTINUOUS
 10
413.3422189841678
 20
181.46109658686609
 30
0.0
 11
412.78185891414779
 21
181.3491016498223
 31
0.0
  0
LINE
  5
745
  8
0
  6
CONTINUOUS
 10
528.04576212869222
 20
181.3491016498223
 30
0.0
 11
526.84286175728869
 21
176.46136408434899
 31
0.0
  0
LINE
  5
746
  8
0
  6
CONTINUOUS
 10
529.02707363159584
 20
181.3491016498223
 30
0.0
 11
527.87146530138648
 21
176.46136408434899
 31
0.0
  0
LINE
  5
747
  8
0
  6
CONTINUOUS
 10
526.84286175728869
 20
176.46136408434899
 30
0.0
 11
526.76171478804815
 21
176.22391658183611
 31
0.0
  0
LINE
  5
748
  8
0
  6
CONTINUOUS
 10
527.87146530138648
 20
176.46136408434899
 30
0.0
 11
527.81532556225045
 21
176.22391658183611
 31
0.0
  0
LINE
  5
749
  8
0
  6
CONTINUOUS
 10
526.76171478804815
 20
176.22391658183611
 30
0.0
 11
525.23600851917115
 21
171.7594843731608
 31
0.0
  0
LINE
  5
74A
  8
0
  6
CONTINUOUS
 10
527.81532556225045
 20
176.22391658183611
 30
0.0
 11
526.29350898333712
 21
171.7594843731608
 31
0.0
  0
LINE
  5
74B
  8
0
  6
CONTINUOUS
 10
525.23600851917115
 20
171.7594843731608
 30
0.0
 11
525.21508106539943
 21
171.6982476852279
 31
0.0
  0
LINE
  5
74C
  8
0
  6
CONTINUOUS
 10
526.29350898333712
 20
171.7594843731608
 30
0.0
 11
526.26705554622129
 21
171.6982476852279
 31
0.0
  0
LINE
  5
74D
  8
0
  6
CONTINUOUS
 10
525.21508106539943
 20
171.6982476852279
 30
0.0
 11
523.17165291975732
 21
167.05704437075849
 31
0.0
  0
LINE
  5
74E
  8
0
  6
CONTINUOUS
 10
526.26705554622129
 20
171.6982476852279
 30
0.0
 11
524.26211726223721
 21
167.05704437075849
 31
0.0
  0
LINE
  5
74F
  8
0
  6
CONTINUOUS
 10
523.17165291975732
 20
167.05704437075849
 30
0.0
 11
522.95352248289851
 21
166.6579290329073
 31
0.0
  0
LINE
  5
750
  8
0
  6
CONTINUOUS
 10
524.26211726223721
 20
167.05704437075849
 30
0.0
 11
524.08970472902865
 21
166.6579290329073
 31
0.0
  0
LINE
  5
751
  8
0
  6
CONTINUOUS
 10
522.95352248289851
 20
166.6579290329073
 30
0.0
 11
520.75763480755063
 21
162.64009243912059
 31
0.0
  0
LINE
  5
752
  8
0
  6
CONTINUOUS
 10
524.08970472902865
 20
166.6579290329073
 30
0.0
 11
521.89807286026394
 21
162.64009243912059
 31
0.0
  0
LINE
  5
753
  8
0
  6
CONTINUOUS
 10
520.75763480755063
 20
162.64009243912059
 30
0.0
 11
520.44084169382472
 21
162.16442185688749
 31
0.0
  0
LINE
  5
754
  8
0
  6
CONTINUOUS
 10
521.89807286026394
 20
162.64009243912059
 30
0.0
 11
521.63860615903764
 21
162.16442185688749
 31
0.0
  0
LINE
  5
755
  8
0
  6
CONTINUOUS
 10
520.44084169382472
 20
162.16442185688749
 30
0.0
 11
517.98804589117503
 21
158.48150465637451
 31
0.0
  0
LINE
  5
756
  8
0
  6
CONTINUOUS
 10
521.63860615903764
 20
162.16442185688749
 30
0.0
 11
519.190247123674
 21
158.48150465637451
 31
0.0
  0
LINE
  5
757
  8
0
  6
CONTINUOUS
 10
517.98804589117503
 20
158.48150465637451
 30
0.0
 11
517.55048031016827
 21
157.9332778652014
 31
0.0
  0
LINE
  5
758
  8
0
  6
CONTINUOUS
 10
519.190247123674
 20
158.48150465637451
 30
0.0
 11
518.82579255016083
 21
157.9332778652014
 31
0.0
  0
LINE
  5
759
  8
0
  6
CONTINUOUS
 10
517.55048031016827
 20
157.9332778652014
 30
0.0
 11
514.8478670082344
 21
154.54716825646011
 31
0.0
  0
LINE
  5
75A
  8
0
  6
CONTINUOUS
 10
518.82579255016083
 20
157.9332778652014
 30
0.0
 11
516.12790552983836
 21
154.54716825646011
 31
0.0
  0
LINE
  5
75B
  8
0
  6
CONTINUOUS
 10
514.8478670082344
 20
154.54716825646011
 30
0.0
 11
514.26367591280325
 21
153.92981099849709
 31
0.0
  0
LINE
  5
75C
  8
0
  6
CONTINUOUS
 10
516.12790552983836
 20
154.54716825646011
 30
0.0
 11
515.63602537071404
 21
153.92981099849709
 31
0.0
  0
LINE
  5
75D
  8
0
  6
CONTINUOUS
 10
512.71454482567356
 20
150.83708323937711
 30
0.0
 11
512.06930462069715
 21
150.15402125677451
 31
0.0
  0
LINE
  5
75E
  8
0
  6
CONTINUOUS
 10
512.06930462069715
 20
150.15402125677451
 30
0.0
 11
511.33709815872902
 21
150.83708323937711
 31
0.0
  0
LINE
  5
75F
  8
0
  6
CONTINUOUS
 10
514.26367591280325
 20
153.92981099849709
 30
0.0
 11
511.33709815872902
 21
150.83708323937711
 31
0.0
  0
LINE
  5
760
  8
0
  6
CONTINUOUS
 10
515.63602537071404
 20
153.92981099849709
 30
0.0
 11
512.71454482567356
 21
150.83708323937711
 31
0.0
  0
ENDBLK
  5
762
  8
0
  0
BLOCK
  8
0
  2
*X46
 70
     1
 10
0.0
 20
0.0
 30
0.0
  3
*X46
  1

  0
LINE
  5
764
  8
0
 62
     0
 10
27.808241135170789
 20
-210.0000281523962
 30
0.0
 11
52.808241135170732
 21
-210.0000281523962
 31
0.0
  0
LINE
  5
765
  8
0
 62
     0
 10
27.808241135170729
 20
-195.00002815239611
 30
0.0
 11
52.808241135170661
 21
-195.00002815239611
 31
0.0
  0
LINE
  5
766
  8
0
 62
     0
 10
27.808241135170672
 20
-180.00002815239611
 30
0.0
 11
52.808241135170618
 21
-180.00002815239611
 31
0.0
  0
LINE
  5
767
  8
0
 62
     0
 10
27.808241135170611
 20
-165.00002815239611
 30
0.0
 11
52.808241135170562
 21
-165.00002815239611
 31
0.0
  0
LINE
  5
768
  8
0
 62
     0
 10
27.808241135170562
 20
-150.00002815239611
 30
0.0
 11
52.808241135170512
 21
-150.00002815239611
 31
0.0
  0
LINE
  5
769
  8
0
 62
     0
 10
27.808241135170491
 20
-135.00002815239611
 30
0.0
 11
52.808241135170448
 21
-135.00002815239611
 31
0.0
  0
LINE
  5
76A
  8
0
 62
     0
 10
27.808241135170441
 20
-120.0000281523961
 30
0.0
 11
52.808241135170412
 21
-120.0000281523961
 31
0.0
  0
LINE
  5
76B
  8
0
 62
     0
 10
27.80824113517038
 20
-105.0000281523961
 30
0.0
 11
52.808241135170341
 21
-105.0000281523961
 31
0.0
  0
LINE
  5
76C
  8
0
 62
     0
 10
27.80824113517032
 20
-90.000028152396141
 30
0.0
 11
52.808241135170299
 21
-90.000028152396141
 31
0.0
  0
LINE
  5
76D
  8
0
 62
     0
 10
27.80824113517026
 20
-75.000028152396141
 30
0.0
 11
52.808241135170242
 21
-75.000028152396141
 31
0.0
  0
LINE
  5
76E
  8
0
 62
     0
 10
27.80824113517021
 20
-60.000028152396141
 30
0.0
 11
52.808241135170192
 21
-60.000028152396141
 31
0.0
  0
LINE
  5
76F
  8
0
 62
     0
 10
27.80824113517015
 20
-45.000028152396133
 30
0.0
 11
52.808241135170128
 21
-45.000028152396133
 31
0.0
  0
LINE
  5
770
  8
0
 62
     0
 10
27.808241135170089
 20
-30.000028152396141
 30
0.0
 11
52.808241135170093
 21
-30.000028152396141
 31
0.0
  0
LINE
  5
771
  8
0
 62
     0
 10
27.808241135170029
 20
-15.000028152396141
 30
0.0
 11
52.808241135170022
 21
-15.000028152396141
 31
0.0
  0
ENDBLK
  5
773
  8
0
  0
BLOCK
  8
0
  2
*U47
 70
     1
 10
0.0
 20
0.0
 30
0.0
  3
*U47
  1

  0
SOLID
  5
775
  8
0
  6
CONTINUOUS
 10
-226.08015569315819
 20
199.2889907214101
 30
0.0
 11
-226.0801556931583
 21
199.23012433499551
 31
0.0
 12
-213.40834379023369
 22
199.23012433499551
 32
0.0
 13
-213.40834379023369
 23
199.23012433499551
 33
0.0
  0
SOLID
  5
776
  8
0
  6
CONTINUOUS
 10
-226.0801556931583
 20
199.23012433499551
 30
0.0
 11
-226.08015569315941
 21
198.32208209382469
 31
0.0
 12
-200.8872210775798
 22
198.32208209382469
 32
0.0
 13
-200.8872210775798
 23
198.32208209382469
 33
0.0
210
0.0
220
0.0
230
1.0
  0
SOLID
  5
777
  8
0
  6
CONTINUOUS
 10
226.0801556931583
 20
199.23012433499551
 30
0.0
 11
213.40834379023369
 21
199.23012433499551
 31
0.0
 12
200.8872210775798
 22
198.32208209382469
 32
0.0
 13
200.8872210775798
 23
198.32208209382469
 33
0.0
210
0.0
220
0.0
230
-1.0
  0
SOLID
  5
778
  8
0
  6
CONTINUOUS
 10
-226.08015569315941
 20
198.32208209382469
 30
0.0
 11
-226.08015569315941
 21
198.28851245268501
 31
0.0
 12
-200.65089809920201
 22
198.28851245268501
 32
0.0
 13
-200.65089809920201
 23
198.28851245268501
 33
0.0
  0
SOLID
  5
779
  8
0
  6
CONTINUOUS
 10
226.08015569315941
 20
198.32208209382469
 30
0.0
 11
200.8872210775798
 21
198.32208209382469
 31
0.0
 12
200.65089809920201
 22
198.28851245268501
 32
0.0
 13
200.65089809920201
 23
198.28851245268501
 33
0.0
210
0.0
220
0.0
230
-1.0
  0
SOLID
  5
77A
  8
0
  6
CONTINUOUS
 10
-226.08015569315941
 20
198.28851245268501
 30
0.0
 11
-213.5207757558386
 21
198.2338912431689
 31
0.0
 12
-200.26637665431321
 22
198.2338912431689
 32
0.0
 13
-200.26637665431321
 23
198.2338912431689
 33
0.0
  0
SOLID
  5
77B
  8
0
  6
CONTINUOUS
 10
226.08015569315941
 20
198.28851245268501
 30
0.0
 11
200.65089809920201
 21
198.28851245268501
 31
0.0
 12
200.26637665431321
 22
198.2338912431689
 32
0.0
 13
200.26637665431321
 23
198.2338912431689
 33
0.0
210
0.0
220
0.0
230
-1.0
  0
SOLID
  5
77C
  8
0
  6
CONTINUOUS
 10
259.7615095583547
 20
199.1954691024626
 30
0.0
 11
247.92901746715759
 21
198.19804548334659
 31
0.0
 12
287.17922639653409
 22
198.19804548334659
 32
0.0
 13
287.17922639653409
 23
198.19804548334659
 33
0.0
210
0.0
220
0.0
230
1.0
  0
SOLID
  5
77D
  8
0
  6
CONTINUOUS
 10
-259.7615095583547
 20
199.1954691024626
 30
0.0
 11
-275.34673430533701
 21
199.1954691024626
 31
0.0
 12
-287.17922639653409
 22
198.19804548334659
 32
0.0
 13
-287.17922639653409
 23
198.19804548334659
 33
0.0
210
0.0
220
0.0
230
-1.0
  0
SOLID
  5
77E
  8
0
  6
CONTINUOUS
 10
15.761509558354421
 20
199.1954691024626
 30
0.0
 11
3.929017467157379
 21
198.19804548334659
 31
0.0
 12
43.179226396533927
 22
198.19804548334659
 32
0.0
 13
43.179226396533927
 23
198.19804548334659
 33
0.0
210
0.0
220
0.0
230
1.0
  0
SOLID
  5
77F
  8
0
  6
CONTINUOUS
 10
-15.761509558354421
 20
199.1954691024626
 30
0.0
 11
-31.346734305336899
 21
199.1954691024626
 31
0.0
 12
-43.179226396533927
 22
198.19804548334659
 32
0.0
 13
-43.179226396533927
 23
198.19804548334659
 33
0.0
210
0.0
220
0.0
230
-1.0
  0
SOLID
  5
780
  8
0
  6
CONTINUOUS
 10
275.27214449916312
 20
198.19804548334659
 30
0.0
 11
278.8729413380841
 21
197.89573765037409
 31
0.0
 12
290.76552110040802
 22
197.89573765037409
 32
0.0
 13
290.76552110040802
 23
197.89573765037409
 33
0.0
210
0.0
220
0.0
230
1.0
  0
SOLID
  5
781
  8
0
  6
CONTINUOUS
 10
-275.27214449916312
 20
198.19804548334659
 30
0.0
 11
-287.17922639653409
 21
198.19804548334659
 31
0.0
 12
-290.76552110040802
 22
197.89573765037409
 32
0.0
 13
-290.76552110040802
 23
197.89573765037409
 33
0.0
210
0.0
220
0.0
230
-1.0
  0
SOLID
  5
782
  8
0
  6
CONTINUOUS
 10
247.92901746715759
 20
198.19804548334659
 30
0.0
 11
244.3427227632836
 21
197.89573765037409
 31
0.0
 12
256.23530252560681
 22
197.89573765037409
 32
0.0
 13
256.23530252560681
 23
197.89573765037409
 33
0.0
  0
SOLID
  5
783
  8
0
  6
CONTINUOUS
 10
-247.92901746715759
 20
198.19804548334659
 30
0.0
 11
-259.83609936452763
 21
198.19804548334659
 31
0.0
 12
-256.23530252560681
 22
197.89573765037409
 32
0.0
 13
-256.23530252560681
 23
197.89573765037409
 33
0.0
210
0.0
220
0.0
230
-1.0
  0
SOLID
  5
784
  8
0
  6
CONTINUOUS
 10
31.272144499163002
 20
198.19804548334659
 30
0.0
 11
34.872941338084061
 21
197.89573765037409
 31
0.0
 12
46.765521100407852
 22
197.89573765037409
 32
0.0
 13
46.765521100407852
 23
197.89573765037409
 33
0.0
  0
SOLID
  5
785
  8
0
  6
CONTINUOUS
 10
-31.272144499163002
 20
198.19804548334659
 30
0.0
 11
-43.179226396533927
 21
198.19804548334659
 31
0.0
 12
-46.765521100407852
 22
197.89573765037409
 32
0.0
 13
-46.765521100407852
 23
197.89573765037409
 33
0.0
210
0.0
220
0.0
230
-1.0
  0
SOLID
  5
786
  8
0
  6
CONTINUOUS
 10
3.929017467157379
 20
198.19804548334659
 30
0.0
 11
0.3427227632834615
 21
197.89573765037409
 31
0.0
 12
12.235302525606791
 22
197.89573765037409
 32
0.0
 13
12.235302525606791
 23
197.89573765037409
 33
0.0
210
0.0
220
0.0
230
1.0
  0
SOLID
  5
787
  8
0
  6
CONTINUOUS
 10
-3.929017467157379
 20
198.19804548334659
 30
0.0
 11
-15.83609936452762
 21
198.19804548334659
 31
0.0
 12
-12.235302525606791
 22
197.89573765037409
 32
0.0
 13
-12.235302525606791
 23
197.89573765037409
 33
0.0
210
0.0
220
0.0
230
-1.0
  0
SOLID
  5
788
  8
0
  6
CONTINUOUS
 10
-213.5207757558386
 20
198.2338912431689
 30
0.0
 11
-201.10952928511219
 21
197.34027568504621
 31
0.0
 12
-193.9755173227679
 22
197.34027568504621
 32
0.0
 13
-193.9755173227679
 23
197.34027568504621
 33
0.0
210
0.0
220
0.0
230
1.0
  0
SOLID
  5
789
  8
0
  6
CONTINUOUS
 10
213.5207757558386
 20
198.2338912431689
 30
0.0
 11
200.26637665431321
 21
198.2338912431689
 31
0.0
 12
193.9755173227679
 22
197.34027568504621
 32
0.0
 13
193.9755173227679
 23
197.34027568504621
 33
0.0
210
0.0
220
0.0
230
-1.0
  0
SOLID
  5
78A
  8
0
  6
CONTINUOUS
 10
278.8729413380841
 20
197.89573765037409
 30
0.0
 11
290.54467270831049
 21
196.9158279316608
 31
0.0
 12
296.47331381264428
 22
196.9158279316608
 32
0.0
 13
296.47331381264428
 23
196.9158279316608
 33
0.0
  0
SOLID
  5
78B
  8
0
  6
CONTINUOUS
 10
-278.8729413380841
 20
197.89573765037409
 30
0.0
 11
-290.76552110040802
 21
197.89573765037409
 31
0.0
 12
-296.47331381264428
 22
196.9158279316608
 32
0.0
 13
-296.47331381264428
 23
196.9158279316608
 33
0.0
210
0.0
220
0.0
230
-1.0
  0
SOLID
  5
78C
  8
0
  6
CONTINUOUS
 10
244.3427227632836
 20
197.89573765037409
 30
0.0
 11
238.63493005104749
 21
196.9158279316608
 31
0.0
 12
244.5635711553814
 22
196.9158279316608
 32
0.0
 13
244.5635711553814
 23
196.9158279316608
 33
0.0
210
0.0
220
0.0
230
1.0
  0
SOLID
  5
78D
  8
0
  6
CONTINUOUS
 10
-244.3427227632836
 20
197.89573765037409
 30
0.0
 11
-256.23530252560681
 21
197.89573765037409
 31
0.0
 12
-244.5635711553814
 22
196.9158279316608
 32
0.0
 13
-244.5635711553814
 23
196.9158279316608
 33
0.0
210
0.0
220
0.0
230
-1.0
  0
SOLID
  5
78E
  8
0
  6
CONTINUOUS
 10
34.872941338084061
 20
197.89573765037409
 30
0.0
 11
46.544672708310358
 21
196.9158279316608
 31
0.0
 12
52.473313812644001
 22
196.9158279316608
 32
0.0
 13
52.473313812644001
 23
196.9158279316608
 33
0.0
210
0.0
220
0.0
230
1.0
  0
SOLID
  5
78F
  8
0
  6
CONTINUOUS
 10
-34.872941338084061
 20
197.89573765037409
 30
0.0
 11
-46.765521100407852
 21
197.89573765037409
 31
0.0
 12
-52.473313812644001
 22
196.9158279316608
 32
0.0
 13
-52.473313812644001
 23
196.9158279316608
 33
0.0
210
0.0
220
0.0
230
-1.0
  0
SOLID
  5
790
  8
0
  6
CONTINUOUS
 10
0.3427227632834615
 20
197.89573765037409
 30
0.0
 11
-5.3650699489526881
 21
196.9158279316608
 31
0.0
 12
0.5635711553812257
 22
196.9158279316608
 32
0.0
 13
0.5635711553812257
 23
196.9158279316608
 33
0.0
  0
SOLID
  5
791
  8
0
  6
CONTINUOUS
 10
-0.3427227632834615
 20
197.89573765037409
 30
0.0
 11
-12.235302525606791
 21
197.89573765037409
 31
0.0
 12
-0.5635711553812257
 22
196.9158279316608
 32
0.0
 13
-0.5635711553812257
 23
196.9158279316608
 33
0.0
210
0.0
220
0.0
230
-1.0
  0
SOLID
  5
792
  8
0
  6
CONTINUOUS
 10
-201.10952928511219
 20
197.34027568504621
 30
0.0
 11
-195.6212995876497
 21
196.5648639978975
 31
0.0
 12
-188.51678755519669
 22
196.5648639978975
 32
0.0
 13
-188.51678755519669
 23
196.5648639978975
 33
0.0
  0
SOLID
  5
793
  8
0
  6
CONTINUOUS
 10
201.10952928511219
 20
197.34027568504621
 30
0.0
 11
193.9755173227679
 21
197.34027568504621
 31
0.0
 12
188.51678755519669
 22
196.5648639978975
 32
0.0
 13
188.51678755519669
 23
196.5648639978975
 33
0.0
210
0.0
220
0.0
230
-1.0
  0
SOLID
  5
794
  8
0
  6
CONTINUOUS
 10
-195.6212995876497
 20
196.5648639978975
 30
0.0
 11
-188.84641628098089
 21
195.607665778317
 31
0.0
 12
-184.0290862561051
 22
195.607665778317
 32
0.0
 13
-184.0290862561051
 23
195.607665778317
 33
0.0
210
0.0
220
0.0
230
1.0
  0
SOLID
  5
795
  8
0
  6
CONTINUOUS
 10
195.6212995876497
 20
196.5648639978975
 30
0.0
 11
188.51678755519669
 21
196.5648639978975
 31
0.0
 12
184.0290862561051
 22
195.607665778317
 32
0.0
 13
184.0290862561051
 23
195.607665778317
 33
0.0
210
0.0
220
0.0
230
-1.0
  0
SOLID
  5
796
  8
0
  6
CONTINUOUS
 10
290.54467270830918
 20
196.9158279316608
 30
0.0
 11
300.0178302664865
 21
195.2962747461971
 31
0.0
 12
305.90691130896028
 22
195.2962747461971
 32
0.0
 13
305.90691130896028
 23
195.2962747461971
 33
0.0
210
0.0
220
0.0
230
1.0
  0
SOLID
  5
797
  8
0
  6
CONTINUOUS
 10
-290.54467270830918
 20
196.9158279316608
 30
0.0
 11
-296.47331381264428
 21
196.9158279316608
 31
0.0
 12
-305.90691130896028
 22
195.2962747461971
 32
0.0
 13
-305.90691130896028
 23
195.2962747461971
 33
0.0
210
0.0
220
0.0
230
-1.0
  0
SOLID
  5
798
  8
0
  6
CONTINUOUS
 10
238.63493005104749
 20
196.9158279316608
 30
0.0
 11
229.20133255473169
 21
195.2962747461971
 31
0.0
 12
235.0904135972055
 22
195.2962747461971
 32
0.0
 13
235.0904135972055
 23
195.2962747461971
 33
0.0
210
0.0
220
0.0
230
1.0
  0
SOLID
  5
799
  8
0
  6
CONTINUOUS
 10
-238.63493005104749
 20
196.9158279316608
 30
0.0
 11
-244.5635711553814
 21
196.9158279316608
 31
0.0
 12
-235.0904135972055
 22
195.2962747461971
 32
0.0
 13
-235.0904135972055
 23
195.2962747461971
 33
0.0
210
0.0
220
0.0
230
-1.0
  0
SOLID
  5
79A
  8
0
  6
CONTINUOUS
 10
46.54467270830915
 20
196.9158279316608
 30
0.0
 11
56.017830266485888
 21
195.2962747461971
 31
0.0
 12
61.9069113089597
 22
195.2962747461971
 32
0.0
 13
61.9069113089597
 23
195.2962747461971
 33
0.0
210
0.0
220
0.0
230
1.0
  0
SOLID
  5
79B
  8
0
  6
CONTINUOUS
 10
-46.54467270830915
 20
196.9158279316608
 30
0.0
 11
-52.473313812644001
 21
196.9158279316608
 31
0.0
 12
-61.9069113089597
 22
195.2962747461971
 32
0.0
 13
-61.9069113089597
 23
195.2962747461971
 33
0.0
210
0.0
220
0.0
230
-1.0
  0
SOLID
  5
79C
  8
0
  6
CONTINUOUS
 10
-5.3650699489526881
 20
196.9158279316608
 30
0.0
 11
-14.798667445268389
 21
195.2962747461971
 31
0.0
 12
-8.9095864027949858
 22
195.2962747461971
 32
0.0
 13
-8.9095864027949858
 23
195.2962747461971
 33
0.0
210
0.0
220
0.0
230
1.0
  0
SOLID
  5
79D
  8
0
  6
CONTINUOUS
 10
5.3650699489526881
 20
196.9158279316608
 30
0.0
 11
-0.5635711553812257
 21
196.9158279316608
 31
0.0
 12
8.9095864027949858
 22
195.2962747461971
 32
0.0
 13
8.9095864027949858
 23
195.2962747461971
 33
0.0
210
0.0
220
0.0
230
-1.0
  0
SOLID
  5
79E
  8
0
  6
CONTINUOUS
 10
300.0178302664865
 20
195.2962747461971
 30
0.0
 11
305.54467270831151
 21
194.35139282828931
 31
0.0
 12
309.53575365843079
 22
194.35139282828931
 32
0.0
 13
309.53575365843079
 23
194.35139282828931
 33
0.0
210
0.0
220
0.0
230
1.0
  0
SOLID
  5
79F
  8
0
  6
CONTINUOUS
 10
-300.0178302664865
 20
195.2962747461971
 30
0.0
 11
-305.90691130896022
 21
195.2962747461971
 31
0.0
 12
-309.53575365843079
 22
194.35139282828931
 32
0.0
 13
-309.53575365843079
 23
194.35139282828931
 33
0.0
210
0.0
220
0.0
230
-1.0
  0
SOLID
  5
7A0
  8
0
  6
CONTINUOUS
 10
229.20133255473169
 20
195.2962747461971
 30
0.0
 11
225.57249020526109
 21
194.35139282828931
 31
0.0
 12
229.56357115538131
 22
194.35139282828931
 32
0.0
 13
229.56357115538131
 23
194.35139282828931
 33
0.0
210
0.0
220
0.0
230
1.0
  0
SOLID
  5
7A1
  8
0
  6
CONTINUOUS
 10
-229.20133255473169
 20
195.2962747461971
 30
0.0
 11
-235.0904135972055
 21
195.2962747461971
 31
0.0
 12
-229.56357115538131
 22
194.35139282828931
 32
0.0
 13
-229.56357115538131
 23
194.35139282828931
 33
0.0
210
0.0
220
0.0
230
-1.0
  0
SOLID
  5
7A2
  8
0
  6
CONTINUOUS
 10
56.017830266485888
 20
195.2962747461971
 30
0.0
 11
61.54467270831065
 21
194.35139282828931
 31
0.0
 12
65.535753658430409
 22
194.35139282828931
 32
0.0
 13
65.535753658430409
 23
194.35139282828931
 33
0.0
210
0.0
220
0.0
230
1.0
  0
SOLID
  5
7A3
  8
0
  6
CONTINUOUS
 10
-56.017830266485888
 20
195.2962747461971
 30
0.0
 11
-61.9069113089597
 21
195.2962747461971
 31
0.0
 12
-65.535753658430409
 22
194.35139282828931
 32
0.0
 13
-65.535753658430409
 23
194.35139282828931
 33
0.0
210
0.0
220
0.0
230
-1.0
  0
SOLID
  5
7A4
  8
0
  6
CONTINUOUS
 10
-14.798667445268389
 20
195.2962747461971
 30
0.0
 11
-18.42750979473908
 21
194.35139282828931
 31
0.0
 12
-14.43642884461944
 22
194.35139282828931
 32
0.0
 13
-14.43642884461944
 23
194.35139282828931
 33
0.0
  0
SOLID
  5
7A5
  8
0
  6
CONTINUOUS
 10
14.798667445268389
 20
195.2962747461971
 30
0.0
 11
8.9095864027949858
 21
195.2962747461971
 31
0.0
 12
14.43642884461944
 22
194.35139282828931
 32
0.0
 13
14.43642884461944
 23
194.35139282828931
 33
0.0
210
0.0
220
0.0
230
-1.0
  0
SOLID
  5
7A6
  8
0
  6
CONTINUOUS
 10
-188.84641628098089
 20
195.607665778317
 30
0.0
 11
-181.07695778274979
 21
193.95847004721401
 31
0.0
 12
-176.29704322308419
 22
193.95847004721401
 32
0.0
 13
-176.29704322308419
 23
193.95847004721401
 33
0.0
210
0.0
220
0.0
230
1.0
  0
SOLID
  5
7A7
  8
0
  6
CONTINUOUS
 10
188.84641628098089
 20
195.607665778317
 30
0.0
 11
184.0290862561051
 21
195.607665778317
 31
0.0
 12
176.29704322308419
 22
193.95847004721401
 32
0.0
 13
176.29704322308419
 23
193.95847004721401
 33
0.0
210
0.0
220
0.0
230
-1.0
  0
SOLID
  5
7A8
  8
0
  6
CONTINUOUS
 10
-181.07695778274979
 20
193.95847004721401
 30
0.0
 11
-176.73143674344431
 21
193.03606152298121
 31
0.0
 12
-173.0754039655744
 22
193.03606152298121
 32
0.0
 13
-173.0754039655744
 23
193.03606152298121
 33
0.0
210
0.0
220
0.0
230
1.0
  0
SOLID
  5
7A9
  8
0
  6
CONTINUOUS
 10
181.07695778274979
 20
193.95847004721401
 30
0.0
 11
176.29704322308419
 21
193.95847004721401
 31
0.0
 12
173.0754039655744
 22
193.03606152298121
 32
0.0
 13
173.0754039655744
 23
193.03606152298121
 33
0.0
210
0.0
220
0.0
230
-1.0
  0
SOLID
  5
7AA
  8
0
  6
CONTINUOUS
 10
305.54467270831037
 20
194.35139282828931
 30
0.0
 11
316.93941260791871
 21
191.39708038993169
 31
0.0
 12
320.88186356560072
 22
191.39708038993169
 32
0.0
 13
320.88186356560072
 23
191.39708038993169
 33
0.0
210
0.0
220
0.0
230
1.0
  0
SOLID
  5
7AB
  8
0
  6
CONTINUOUS
 10
-305.54467270831037
 20
194.35139282828931
 30
0.0
 11
-309.53575365843079
 21
194.35139282828931
 31
0.0
 12
-320.88186356560072
 22
191.39708038993169
 32
0.0
 13
-320.88186356560072
 23
191.39708038993169
 33
0.0
210
0.0
220
0.0
230
-1.0
  0
SOLID
  5
7AC
  8
0
  6
CONTINUOUS
 10
225.57249020526109
 20
194.35139282828931
 30
0.0
 11
214.2263802980913
 21
191.39708038993169
 31
0.0
 12
218.16883125577331
 22
191.39708038993169
 32
0.0
 13
218.16883125577331
 23
191.39708038993169
 33
0.0
210
0.0
220
0.0
230
1.0
  0
SOLID
  5
7AD
  8
0
  6
CONTINUOUS
 10
-225.57249020526109
 20
194.35139282828931
 30
0.0
 11
-229.56357115538131
 21
194.35139282828931
 31
0.0
 12
-218.16883125577331
 22
191.39708038993169
 32
0.0
 13
-218.16883125577331
 23
191.39708038993169
 33
0.0
210
0.0
220
0.0
230
-1.0
  0
SOLID
  5
7AE
  8
0
  6
CONTINUOUS
 10
61.544672708309797
 20
194.35139282828931
 30
0.0
 11
72.939412607918385
 21
191.39708038993169
 31
0.0
 12
76.881863565600213
 22
191.39708038993169
 32
0.0
 13
76.881863565600213
 23
191.39708038993169
 33
0.0
210
0.0
220
0.0
230
1.0
  0
SOLID
  5
7AF
  8
0
  6
CONTINUOUS
 10
-61.544672708309797
 20
194.35139282828931
 30
0.0
 11
-65.535753658430409
 21
194.35139282828931
 31
0.0
 12
-76.881863565600213
 22
191.39708038993169
 32
0.0
 13
-76.881863565600213
 23
191.39708038993169
 33
0.0
210
0.0
220
0.0
230
-1.0
  0
SOLID
  5
7B0
  8
0
  6
CONTINUOUS
 10
-18.42750979473908
 20
194.35139282828931
 30
0.0
 11
-29.773619701908839
 21
191.39708038993169
 31
0.0
 12
-25.83116874422689
 22
191.39708038993169
 32
0.0
 13
-25.83116874422689
 23
191.39708038993169
 33
0.0
  0
SOLID
  5
7B1
  8
0
  6
CONTINUOUS
 10
18.42750979473908
 20
194.35139282828931
 30
0.0
 11
14.43642884461927
 21
194.35139282828931
 31
0.0
 12
25.83116874422689
 22
191.39708038993169
 32
0.0
 13
25.83116874422689
 23
191.39708038993169
 33
0.0
210
0.0
220
0.0
230
-1.0
  0
SOLID
  5
7B2
  8
0
  6
CONTINUOUS
 10
316.93941260791871
 20
191.39708038993169
 30
0.0
 11
320.38115578282333
 21
190.50474017323211
 31
0.0
 12
323.4235872506066
 22
190.50474017323211
 32
0.0
 13
323.4235872506066
 23
190.50474017323211
 33
0.0
  0
SOLID
  5
7B3
  8
0
  6
CONTINUOUS
 10
-316.93941260791871
 20
191.39708038993169
 30
0.0
 11
-320.88186356560061
 21
191.39708038993169
 31
0.0
 12
-323.4235872506066
 22
190.50474017323211
 32
0.0
 13
-323.4235872506066
 23
190.50474017323211
 33
0.0
210
0.0
220
0.0
230
-1.0
  0
SOLID
  5
7B4
  8
0
  6
CONTINUOUS
 10
214.2263802980913
 20
191.39708038993169
 30
0.0
 11
211.68465661308531
 21
190.50474017323211
 31
0.0
 12
214.72708808086881
 22
190.50474017323211
 32
0.0
 13
214.72708808086881
 23
190.50474017323211
 33
0.0
210
0.0
220
0.0
230
1.0
  0
SOLID
  5
7B5
  8
0
  6
CONTINUOUS
 10
-214.2263802980913
 20
191.39708038993169
 30
0.0
 11
-218.16883125577331
 21
191.39708038993169
 31
0.0
 12
-214.72708808086881
 22
190.50474017323211
 32
0.0
 13
-214.72708808086881
 23
190.50474017323211
 33
0.0
210
0.0
220
0.0
230
-1.0
  0
SOLID
  5
7B6
  8
0
  6
CONTINUOUS
 10
72.939412607918385
 20
191.39708038993169
 30
0.0
 11
76.381155782823072
 21
190.50474017323211
 31
0.0
 12
79.423587250606204
 22
190.50474017323211
 32
0.0
 13
79.423587250606204
 23
190.50474017323211
 33
0.0
210
0.0
220
0.0
230
1.0
  0
SOLID
  5
7B7
  8
0
  6
CONTINUOUS
 10
-72.939412607918385
 20
191.39708038993169
 30
0.0
 11
-76.881863565600213
 21
191.39708038993169
 31
0.0
 12
-79.423587250606204
 22
190.50474017323211
 32
0.0
 13
-79.423587250606204
 23
190.50474017323211
 33
0.0
210
0.0
220
0.0
230
-1.0
  0
SOLID
  5
7B8
  8
0
  6
CONTINUOUS
 10
-29.773619701908839
 20
191.39708038993169
 30
0.0
 11
-32.31534338691489
 21
190.50474017323211
 31
0.0
 12
-29.272911919131271
 22
190.50474017323211
 32
0.0
 13
-29.272911919131271
 23
190.50474017323211
 33
0.0
210
0.0
220
0.0
230
1.0
  0
SOLID
  5
7B9
  8
0
  6
CONTINUOUS
 10
29.773619701908839
 20
191.39708038993169
 30
0.0
 11
25.83116874422689
 21
191.39708038993169
 31
0.0
 12
29.272911919131271
 22
190.50474017323211
 32
0.0
 13
29.272911919131271
 23
190.50474017323211
 33
0.0
210
0.0
220
0.0
230
-1.0
  0
SOLID
  5
7BA
  8
0
  6
CONTINUOUS
 10
-176.73143674344431
 20
193.03606152298121
 30
0.0
 11
-167.84327526644279
 21
190.5029002417742
 31
0.0
 12
-164.2279880812423
 22
190.5029002417742
 32
0.0
 13
-164.2279880812423
 23
190.5029002417742
 33
0.0
210
0.0
220
0.0
230
1.0
  0
SOLID
  5
7BB
  8
0
  6
CONTINUOUS
 10
176.73143674344431
 20
193.03606152298121
 30
0.0
 11
173.0754039655744
 21
193.03606152298121
 31
0.0
 12
164.2279880812423
 22
190.5029002417742
 32
0.0
 13
164.2279880812423
 23
190.5029002417742
 33
0.0
210
0.0
220
0.0
230
-1.0
  0
SOLID
  5
7BC
  8
0
  6
CONTINUOUS
 10
-167.84327526644279
 20
190.5029002417742
 30
0.0
 11
-164.76459067250241
 21
189.62546291903891
 31
0.0
 12
-161.79866473965171
 22
189.62546291903891
 32
0.0
 13
-161.79866473965171
 23
189.62546291903891
 33
0.0
210
0.0
220
0.0
230
1.0
  0
SOLID
  5
7BD
  8
0
  6
CONTINUOUS
 10
167.84327526644279
 20
190.5029002417742
 30
0.0
 11
164.2279880812423
 21
190.5029002417742
 31
0.0
 12
161.79866473965171
 22
189.62546291903891
 32
0.0
 13
161.79866473965171
 23
189.62546291903891
 33
0.0
210
0.0
220
0.0
230
-1.0
  0
SOLID
  5
7BE
  8
0
  6
CONTINUOUS
 10
320.38115578282259
 20
190.50474017323211
 30
0.0
 11
332.70168292760093
 21
186.198154581578
 31
0.0
 12
335.69037787032943
 22
186.198154581578
 32
0.0
 13
335.69037787032943
 23
186.198154581578
 33
0.0
210
0.0
220
0.0
230
1.0
  0
SOLID
  5
7BF
  8
0
  6
CONTINUOUS
 10
-320.38115578282259
 20
190.50474017323211
 30
0.0
 11
-323.4235872506066
 21
190.50474017323211
 31
0.0
 12
-335.69037787032943
 22
186.198154581578
 32
0.0
 13
-335.69037787032943
 23
186.198154581578
 33
0.0
210
0.0
220
0.0
230
-1.0
  0
SOLID
  5
7C0
  8
0
  6
CONTINUOUS
 10
211.68465661308531
 20
190.50474017323211
 30
0.0
 11
199.4178659933626
 21
186.198154581578
 31
0.0
 12
202.40656093609121
 22
186.198154581578
 32
0.0
 13
202.40656093609121
 23
186.198154581578
 33
0.0
210
0.0
220
0.0
230
1.0
  0
SOLID
  5
7C1
  8
0
  6
CONTINUOUS
 10
-211.68465661308531
 20
190.50474017323211
 30
0.0
 11
-214.72708808086881
 21
190.50474017323211
 31
0.0
 12
-202.40656093609121
 22
186.198154581578
 32
0.0
 13
-202.40656093609121
 23
186.198154581578
 33
0.0
210
0.0
220
0.0
230
-1.0
  0
SOLID
  5
7C2
  8
0
  6
CONTINUOUS
 10
76.381155782822447
 20
190.50474017323211
 30
0.0
 11
88.701682927600544
 21
186.198154581578
 31
0.0
 12
91.690377870329087
 22
186.198154581578
 32
0.0
 13
91.690377870329087
 23
186.198154581578
 33
0.0
210
0.0
220
0.0
230
1.0
  0
SOLID
  5
7C3
  8
0
  6
CONTINUOUS
 10
-76.381155782822447
 20
190.50474017323211
 30
0.0
 11
-79.423587250606204
 21
190.50474017323211
 31
0.0
 12
-91.690377870329087
 22
186.198154581578
 32
0.0
 13
-91.690377870329087
 23
186.198154581578
 33
0.0
210
0.0
220
0.0
230
-1.0
  0
SOLID
  5
7C4
  8
0
  6
CONTINUOUS
 10
-32.31534338691489
 20
190.50474017323211
 30
0.0
 11
-44.582134006637958
 21
186.198154581578
 31
0.0
 12
-41.593439063909067
 22
186.198154581578
 32
0.0
 13
-41.593439063909067
 23
186.198154581578
 33
0.0
  0
SOLID
  5
7C5
  8
0
  6
CONTINUOUS
 10
32.31534338691489
 20
190.50474017323211
 30
0.0
 11
29.272911919131271
 21
190.50474017323211
 31
0.0
 12
41.593439063909067
 22
186.198154581578
 32
0.0
 13
41.593439063909067
 23
186.198154581578
 33
0.0
210
0.0
220
0.0
230
-1.0
  0
SOLID
  5
7C6
  8
0
  6
CONTINUOUS
 10
-164.76459067250241
 20
189.62546291903891
 30
0.0
 11
-155.2327666368289
 21
186.198154581578
 31
0.0
 12
-152.30962212967091
 22
186.198154581578
 32
0.0
 13
-152.30962212967091
 23
186.198154581578
 33
0.0
210
0.0
220
0.0
230
1.0
  0
SOLID
  5
7C7
  8
0
  6
CONTINUOUS
 10
164.76459067250241
 20
189.62546291903891
 30
0.0
 11
161.79866473965171
 21
189.62546291903891
 31
0.0
 12
152.30962212967091
 22
186.198154581578
 32
0.0
 13
152.30962212967091
 23
186.198154581578
 33
0.0
210
0.0
220
0.0
230
-1.0
  0
SOLID
  5
7C8
  8
0
  6
CONTINUOUS
 10
332.70168292760093
 20
186.198154581578
 30
0.0
 11
335.05412193184799
 21
185.37586996648909
 31
0.0
 12
336.29627179723678
 22
185.37586996648909
 32
0.0
 13
336.29627179723678
 23
185.37586996648909
 33
0.0
210
0.0
220
0.0
230
1.0
  0
SOLID
  5
7C9
  8
0
  6
CONTINUOUS
 10
-332.70168292760093
 20
186.198154581578
 30
0.0
 11
-335.6903778703292
 21
186.198154581578
 31
0.0
 12
-336.29627179723678
 22
185.37586996648909
 32
0.0
 13
-336.29627179723678
 23
185.37586996648909
 33
0.0
210
0.0
220
0.0
230
-1.0
  0
SOLID
  5
7CA
  8
0
  6
CONTINUOUS
 10
199.4178659933626
 20
186.198154581578
 30
0.0
 11
198.8119720664551
 21
185.37586996648909
 31
0.0
 12
200.05412193184421
 22
185.37586996648909
 32
0.0
 13
200.05412193184421
 23
185.37586996648909
 33
0.0
210
0.0
220
0.0
230
1.0
  0
SOLID
  5
7CB
  8
0
  6
CONTINUOUS
 10
-199.4178659933626
 20
186.198154581578
 30
0.0
 11
-202.40656093609121
 21
186.198154581578
 31
0.0
 12
-200.05412193184421
 22
185.37586996648909
 32
0.0
 13
-200.05412193184421
 23
185.37586996648909
 33
0.0
210
0.0
220
0.0
230
-1.0
  0
SOLID
  5
7CC
  8
0
  6
CONTINUOUS
 10
88.701682927600544
 20
186.198154581578
 30
0.0
 11
91.054121931847675
 21
185.37586996648909
 31
0.0
 12
92.296271797236685
 22
185.37586996648909
 32
0.0
 13
92.296271797236685
 23
185.37586996648909
 33
0.0
210
0.0
220
0.0
230
1.0
  0
SOLID
  5
7CD
  8
0
  6
CONTINUOUS
 10
-88.701682927600544
 20
186.198154581578
 30
0.0
 11
-91.690377870329087
 21
186.198154581578
 31
0.0
 12
-92.296271797236685
 22
185.37586996648909
 32
0.0
 13
-92.296271797236685
 23
185.37586996648909
 33
0.0
210
0.0
220
0.0
230
-1.0
  0
SOLID
  5
7CE
  8
0
  6
CONTINUOUS
 10
-44.58213400663778
 20
186.198154581578
 30
0.0
 11
-45.188027933545293
 21
185.37586996648909
 31
0.0
 12
-43.945878068156148
 22
185.37586996648909
 32
0.0
 13
-43.945878068156148
 23
185.37586996648909
 33
0.0
  0
SOLID
  5
7CF
  8
0
  6
CONTINUOUS
 10
44.58213400663778
 20
186.198154581578
 30
0.0
 11
41.593439063909067
 21
186.198154581578
 31
0.0
 12
43.945878068156148
 22
185.37586996648909
 32
0.0
 13
43.945878068156148
 23
185.37586996648909
 33
0.0
210
0.0
220
0.0
230
-1.0
  0
SOLID
  5
7D0
  8
0
  6
CONTINUOUS
 10
-155.2327666368289
 20
186.198154581578
 30
0.0
 11
-152.94587806815261
 21
185.37586996648909
 31
0.0
 12
-151.7037282027635
 22
185.37586996648909
 32
0.0
 13
-151.7037282027635
 23
185.37586996648909
 33
0.0
210
0.0
220
0.0
230
1.0
  0
SOLID
  5
7D1
  8
0
  6
CONTINUOUS
 10
155.2327666368289
 20
186.198154581578
 30
0.0
 11
152.30962212967111
 21
186.198154581578
 31
0.0
 12
151.7037282027635
 22
185.37586996648909
 32
0.0
 13
151.7037282027635
 23
185.37586996648909
 33
0.0
210
0.0
220
0.0
230
-1.0
  0
SOLID
  5
7D2
  8
0
  6
CONTINUOUS
 10
436.90000000000038
 20
185.59412692079559
 30
0.0
 11
436.90000000000038
 21
179.47071883921359
 31
0.0
 12
437.90000000000038
 22
179.47071883921359
 32
0.0
 13
437.90000000000038
 23
179.47071883921359
 33
0.0
210
0.0
220
0.0
230
1.0
  0
SOLID
  5
7D3
  8
0
  6
CONTINUOUS
 10
-436.90000000000038
 20
185.59412692079559
 30
0.0
 11
-437.90000000000038
 21
185.59412692079559
 31
0.0
 12
-437.90000000000038
 22
179.47071883921359
 32
0.0
 13
-437.90000000000038
 23
179.47071883921359
 33
0.0
210
0.0
220
0.0
230
-1.0
  0
SOLID
  5
7D4
  8
0
  6
CONTINUOUS
 10
436.90000000000038
 20
179.47071883921359
 30
0.0
 11
436.81890768938342
 21
178.73257810103769
 31
0.0
 12
437.81890768938348
 22
178.73257810103769
 32
0.0
 13
437.81890768938348
 23
178.73257810103769
 33
0.0
210
0.0
220
0.0
230
1.0
  0
SOLID
  5
7D5
  8
0
  6
CONTINUOUS
 10
-436.90000000000038
 20
179.47071883921359
 30
0.0
 11
-437.90000000000038
 21
179.47071883921359
 31
0.0
 12
-437.81890768938348
 22
178.73257810103769
 32
0.0
 13
-437.81890768938348
 23
178.73257810103769
 33
0.0
210
0.0
220
0.0
230
-1.0
  0
SOLID
  5
7D6
  8
0
  6
CONTINUOUS
 10
436.81890768938342
 20
178.73257810103769
 30
0.0
 11
436.74496625344329
 21
178.51547788392719
 31
0.0
 12
437.7950570097903
 22
178.51547788392719
 32
0.0
 13
437.7950570097903
 23
178.51547788392719
 33
0.0
  0
SOLID
  5
7D7
  8
0
  6
CONTINUOUS
 10
-436.81890768938342
 20
178.73257810103769
 30
0.0
 11
-437.81890768938348
 21
178.73257810103769
 31
0.0
 12
-437.7950570097903
 22
178.51547788392719
 32
0.0
 13
-437.7950570097903
 23
178.51547788392719
 33
0.0
210
0.0
220
0.0
230
-1.0
  0
SOLID
  5
7D8
  8
0
  6
CONTINUOUS
 10
436.74496625344329
 20
178.51547788392719
 30
0.0
 11
436.5794989709683
 21
178.02964767934381
 31
0.0
 12
437.62958972731519
 22
178.02964767934381
 32
0.0
 13
437.62958972731519
 23
178.02964767934381
 33
0.0
210
0.0
220
0.0
230
1.0
  0
SOLID
  5
7D9
  8
0
  6
CONTINUOUS
 10
-436.74496625344329
 20
178.51547788392719
 30
0.0
 11
-437.7950570097903
 21
178.51547788392719
 31
0.0
 12
-437.62958972731519
 22
178.02964767934381
 32
0.0
 13
-437.62958972731519
 23
178.02964767934381
 33
0.0
210
0.0
220
0.0
230
-1.0
  0
SOLID
  5
7DA
  8
0
  6
CONTINUOUS
 10
436.5794989709683
 20
178.02964767934381
 30
0.0
 11
436.32132177054268
 21
177.6058032205585
 31
0.0
 12
437.48523396242928
 22
177.6058032205585
 32
0.0
 13
437.48523396242928
 23
177.6058032205585
 33
0.0
210
0.0
220
0.0
230
1.0
  0
SOLID
  5
7DB
  8
0
  6
CONTINUOUS
 10
-436.5794989709683
 20
178.02964767934381
 30
0.0
 11
-437.62958972731519
 21
178.02964767934381
 31
0.0
 12
-437.48523396242928
 22
177.6058032205585
 32
0.0
 13
-437.48523396242928
 23
177.6058032205585
 33
0.0
210
0.0
220
0.0
230
-1.0
  0
SOLID
  5
7DC
  8
0
  6
CONTINUOUS
 10
436.32132177054268
 20
177.6058032205585
 30
0.0
 11
436.19319396602441
 21
177.3954583106601
 31
0.0
 12
437.35710615791112
 22
177.3954583106601
 32
0.0
 13
437.35710615791112
 23
177.3954583106601
 33
0.0
210
0.0
220
0.0
230
1.0
  0
SOLID
  5
7DD
  8
0
  6
CONTINUOUS
 10
-436.32132177054268
 20
177.6058032205585
 30
0.0
 11
-437.48523396242928
 21
177.6058032205585
 31
0.0
 12
-437.35710615791112
 22
177.3954583106601
 32
0.0
 13
-437.35710615791112
 23
177.3954583106601
 33
0.0
210
0.0
220
0.0
230
-1.0
  0
SOLID
  5
7DE
  8
0
  6
CONTINUOUS
 10
436.19319396602441
 20
177.3954583106601
 30
0.0
 11
435.67841994834851
 21
176.86026168985461
 31
0.0
 12
437.03110079822608
 22
176.86026168985461
 32
0.0
 13
437.03110079822608
 23
176.86026168985461
 33
0.0
  0
SOLID
  5
7DF
  8
0
  6
CONTINUOUS
 10
-436.19319396602441
 20
177.3954583106601
 30
0.0
 11
-437.35710615791112
 21
177.3954583106601
 31
0.0
 12
-437.03110079822608
 22
176.86026168985461
 32
0.0
 13
-437.03110079822608
 23
176.86026168985461
 33
0.0
210
0.0
220
0.0
230
-1.0
  0
SOLID
  5
7E0
  8
0
  6
CONTINUOUS
 10
435.67841994834851
 20
176.86026168985461
 30
0.0
 11
435.56516888247307
 21
176.78508756696789
 31
0.0
 12
436.98530983838452
 22
176.78508756696789
 32
0.0
 13
436.98530983838452
 23
176.78508756696789
 33
0.0
210
0.0
220
0.0
230
1.0
  0
SOLID
  5
7E1
  8
0
  6
CONTINUOUS
 10
-435.67841994834851
 20
176.86026168985461
 30
0.0
 11
-437.03110079822608
 21
176.86026168985461
 31
0.0
 12
-436.98530983838452
 22
176.78508756696789
 32
0.0
 13
-436.98530983838452
 23
176.78508756696789
 33
0.0
210
0.0
220
0.0
230
-1.0
  0
SOLID
  5
7E2
  8
0
  6
CONTINUOUS
 10
335.05412193184691
 20
185.37586996648909
 30
0.0
 11
341.41226629806567
 21
176.74695975519199
 31
0.0
 12
342.65441616345578
 22
176.74695975519199
 32
0.0
 13
342.65441616345578
 23
176.74695975519199
 33
0.0
210
0.0
220
0.0
230
1.0
  0
SOLID
  5
7E3
  8
0
  6
CONTINUOUS
 10
-335.05412193184691
 20
185.37586996648909
 30
0.0
 11
-336.29627179723678
 21
185.37586996648909
 31
0.0
 12
-342.65441616345578
 22
176.74695975519199
 32
0.0
 13
-342.65441616345578
 23
176.74695975519199
 33
0.0
210
0.0
220
0.0
230
-1.0
  0
SOLID
  5
7E4
  8
0
  6
CONTINUOUS
 10
198.8119720664551
 20
185.37586996648909
 30
0.0
 11
192.45382770023679
 21
176.74695975519199
 31
0.0
 12
193.69597756562601
 22
176.74695975519199
 32
0.0
 13
193.69597756562601
 23
176.74695975519199
 33
0.0
210
0.0
220
0.0
230
1.0
  0
SOLID
  5
7E5
  8
0
  6
CONTINUOUS
 10
-198.8119720664551
 20
185.37586996648909
 30
0.0
 11
-200.05412193184421
 21
185.37586996648909
 31
0.0
 12
-193.69597756562601
 22
176.74695975519199
 32
0.0
 13
-193.69597756562601
 23
176.74695975519199
 33
0.0
210
0.0
220
0.0
230
-1.0
  0
SOLID
  5
7E6
  8
0
  6
CONTINUOUS
 10
91.054121931846637
 20
185.37586996648909
 30
0.0
 11
97.412266298065546
 21
176.74695975519199
 31
0.0
 12
98.654416163455636
 22
176.74695975519199
 32
0.0
 13
98.654416163455636
 23
176.74695975519199
 33
0.0
210
0.0
220
0.0
230
1.0
  0
SOLID
  5
7E7
  8
0
  6
CONTINUOUS
 10
-91.054121931846637
 20
185.37586996648909
 30
0.0
 11
-92.296271797236685
 21
185.37586996648909
 31
0.0
 12
-98.654416163455636
 22
176.74695975519199
 32
0.0
 13
-98.654416163455636
 23
176.74695975519199
 33
0.0
210
0.0
220
0.0
230
-1.0
  0
SOLID
  5
7E8
  8
0
  6
CONTINUOUS
 10
-45.188027933545293
 20
185.37586996648909
 30
0.0
 11
-51.546172299763391
 21
176.74695975519199
 31
0.0
 12
-50.304022434374232
 22
176.74695975519199
 32
0.0
 13
-50.304022434374232
 23
176.74695975519199
 33
0.0
  0
SOLID
  5
7E9
  8
0
  6
CONTINUOUS
 10
45.188027933545293
 20
185.37586996648909
 30
0.0
 11
43.945878068156027
 21
185.37586996648909
 31
0.0
 12
50.304022434374232
 22
176.74695975519199
 32
0.0
 13
50.304022434374232
 23
176.74695975519199
 33
0.0
210
0.0
220
0.0
230
-1.0
  0
SOLID
  5
7EA
  8
0
  6
CONTINUOUS
 10
-152.94587806815369
 20
185.37586996648909
 30
0.0
 11
-146.58773370193481
 21
176.74695975519199
 31
0.0
 12
-145.34558383654471
 22
176.74695975519199
 32
0.0
 13
-145.34558383654471
 23
176.74695975519199
 33
0.0
  0
SOLID
  5
7EB
  8
0
  6
CONTINUOUS
 10
152.94587806815369
 20
185.37586996648909
 30
0.0
 11
151.7037282027635
 21
185.37586996648909
 31
0.0
 12
145.34558383654471
 22
176.74695975519199
 32
0.0
 13
145.34558383654471
 23
176.74695975519199
 33
0.0
210
0.0
220
0.0
230
-1.0
  0
SOLID
  5
7EC
  8
0
  6
CONTINUOUS
 10
435.56516888247307
 20
176.78508756696789
 30
0.0
 11
435.05973233825722
 21
176.44958742317161
 31
0.0
 12
436.66261206668901
 22
176.44958742317161
 32
0.0
 13
436.66261206668901
 23
176.44958742317161
 33
0.0
210
0.0
220
0.0
230
1.0
  0
SOLID
  5
7ED
  8
0
  6
CONTINUOUS
 10
-435.56516888247307
 20
176.78508756696789
 30
0.0
 11
-436.98530983838452
 21
176.78508756696789
 31
0.0
 12
-436.66261206668901
 22
176.44958742317161
 32
0.0
 13
-436.66261206668901
 23
176.44958742317161
 33
0.0
210
0.0
220
0.0
230
-1.0
  0
SOLID
  5
7EE
  8
0
  6
CONTINUOUS
 10
435.05973233825722
 20
176.44958742317161
 30
0.0
 11
434.36664337566498
 21
176.1830252313151
 31
0.0
 12
436.40622163908142
 22
176.1830252313151
 32
0.0
 13
436.40622163908142
 23
176.1830252313151
 33
0.0
210
0.0
220
0.0
230
1.0
  0
SOLID
  5
7EF
  8
0
  6
CONTINUOUS
 10
-435.05973233825722
 20
176.44958742317161
 30
0.0
 11
-436.66261206668901
 21
176.44958742317161
 31
0.0
 12
-436.40622163908142
 22
176.1830252313151
 32
0.0
 13
-436.40622163908142
 23
176.1830252313151
 33
0.0
210
0.0
220
0.0
230
-1.0
  0
SOLID
  5
7F0
  8
0
  6
CONTINUOUS
 10
434.36664337566498
 20
176.1830252313151
 30
0.0
 11
433.94867638350382
 21
176.09248017533719
 31
0.0
 12
436.31913169786259
 22
176.09248017533719
 32
0.0
 13
436.31913169786259
 23
176.09248017533719
 33
0.0
210
0.0
220
0.0
230
1.0
  0
SOLID
  5
7F1
  8
0
  6
CONTINUOUS
 10
-434.36664337566498
 20
176.1830252313151
 30
0.0
 11
-436.40622163908142
 21
176.1830252313151
 31
0.0
 12
-436.31913169786259
 22
176.09248017533719
 32
0.0
 13
-436.31913169786259
 23
176.09248017533719
 33
0.0
210
0.0
220
0.0
230
-1.0
  0
SOLID
  5
7F2
  8
0
  6
CONTINUOUS
 10
341.41226629806567
 20
176.74695975519199
 30
0.0
 11
342.05412193184611
 21
175.87586996649
 31
0.0
 12
346.44931983277132
 22
175.87586996649
 32
0.0
 13
346.44931983277132
 23
175.87586996649
 33
0.0
  0
SOLID
  5
7F3
  8
0
  6
CONTINUOUS
 10
-341.41226629806567
 20
176.74695975519199
 30
0.0
 11
-342.65441616345578
 21
176.74695975519199
 31
0.0
 12
-346.44931983277132
 22
175.87586996649
 32
0.0
 13
-346.44931983277132
 23
175.87586996649
 33
0.0
210
0.0
220
0.0
230
-1.0
  0
SOLID
  5
7F4
  8
0
  6
CONTINUOUS
 10
192.4538277002346
 20
176.74695975519199
 30
0.0
 11
188.6404807442504
 21
175.87586996649
 31
0.0
 12
193.05412193184571
 22
175.87586996649
 32
0.0
 13
193.05412193184571
 23
175.87586996649
 33
0.0
210
0.0
220
0.0
230
1.0
  0
SOLID
  5
7F5
  8
0
  6
CONTINUOUS
 10
-192.4538277002346
 20
176.74695975519199
 30
0.0
 11
-193.69597756562601
 21
176.74695975519199
 31
0.0
 12
-193.05412193184571
 22
175.87586996649
 32
0.0
 13
-193.05412193184571
 23
175.87586996649
 33
0.0
210
0.0
220
0.0
230
-1.0
  0
SOLID
  5
7F6
  8
0
  6
CONTINUOUS
 10
97.412266298065546
 20
176.74695975519199
 30
0.0
 11
98.054121931845927
 21
175.87586996649
 31
0.0
 12
102.4677631194412
 22
175.87586996649
 32
0.0
 13
102.4677631194412
 23
175.87586996649
 33
0.0
210
0.0
220
0.0
230
1.0
  0
SOLID
  5
7F7
  8
0
  6
CONTINUOUS
 10
-97.412266298065546
 20
176.74695975519199
 30
0.0
 11
-98.654416163456872
 21
176.74695975519199
 31
0.0
 12
-102.4677631194412
 22
175.87586996649
 32
0.0
 13
-102.4677631194412
 23
175.87586996649
 33
0.0
210
0.0
220
0.0
230
-1.0
  0
SOLID
  5
7F8
  8
0
  6
CONTINUOUS
 10
-51.546172299768777
 20
176.74695975519199
 30
0.0
 11
-55.359519255753142
 21
175.87586996649
 31
0.0
 12
-50.945878068154549
 22
175.87586996649
 32
0.0
 13
-50.945878068154549
 23
175.87586996649
 33
0.0
210
0.0
220
0.0
230
1.0
  0
SOLID
  5
7F9
  8
0
  6
CONTINUOUS
 10
51.546172299768777
 20
176.74695975519199
 30
0.0
 11
50.304022434374232
 21
176.74695975519199
 31
0.0
 12
50.945878068154549
 22
175.87586996649
 32
0.0
 13
50.945878068154549
 23
175.87586996649
 33
0.0
210
0.0
220
0.0
230
-1.0
  0
SOLID
  5
7FA
  8
0
  6
CONTINUOUS
 10
-146.58773370193481
 20
176.74695975519199
 30
0.0
 11
-145.9458780681544
 21
175.87586996649
 31
0.0
 12
-141.53223688055581
 22
175.87586996649
 32
0.0
 13
-141.53223688055581
 23
175.87586996649
 33
0.0
210
0.0
220
0.0
230
1.0
  0
SOLID
  5
7FB
  8
0
  6
CONTINUOUS
 10
146.58773370193481
 20
176.74695975519199
 30
0.0
 11
145.3455838365403
 21
176.74695975519199
 31
0.0
 12
141.53223688055581
 22
175.87586996649
 32
0.0
 13
141.53223688055581
 23
175.87586996649
 33
0.0
210
0.0
220
0.0
230
-1.0
  0
SOLID
  5
7FC
  8
0
  6
CONTINUOUS
 10
433.94867638350382
 20
176.09248017533719
 30
0.0
 11
431.49538861208629
 21
175.5610193596298
 31
0.0
 12
435.51847714362691
 22
175.5610193596298
 32
0.0
 13
435.51847714362691
 23
175.5610193596298
 33
0.0
210
0.0
220
0.0
230
1.0
  0
SOLID
  5
7FD
  8
0
  6
CONTINUOUS
 10
-433.94867638350382
 20
176.09248017533719
 30
0.0
 11
-436.31913169786259
 21
176.09248017533719
 31
0.0
 12
-435.51847714362691
 22
175.5610193596298
 32
0.0
 13
-435.51847714362691
 23
175.5610193596298
 33
0.0
210
0.0
220
0.0
230
-1.0
  0
SOLID
  5
7FE
  8
0
  6
CONTINUOUS
 10
431.49538861208629
 20
175.5610193596298
 30
0.0
 11
429.90299819793597
 21
175.2160565231093
 31
0.0
 12
434.62153848615333
 22
175.2160565231093
 32
0.0
 13
434.62153848615333
 23
175.2160565231093
 33
0.0
210
0.0
220
0.0
230
1.0
  0
SOLID
  5
7FF
  8
0
  6
CONTINUOUS
 10
-431.49538861208629
 20
175.5610193596298
 30
0.0
 11
-435.51847714362691
 21
175.5610193596298
 31
0.0
 12
-434.62153848615333
 22
175.2160565231093
 32
0.0
 13
-434.62153848615333
 23
175.2160565231093
 33
0.0
210
0.0
220
0.0
230
-1.0
  0
SOLID
  5
800
  8
0
  6
CONTINUOUS
 10
342.05412193184611
 20
175.87586996649
 30
0.0
 11
353.2924630149746
 21
173.27501336653489
 31
0.0
 12
357.7799546106632
 22
173.27501336653489
 32
0.0
 13
357.7799546106632
 23
173.27501336653489
 33
0.0
210
0.0
220
0.0
230
1.0
  0
SOLID
  5
801
  8
0
  6
CONTINUOUS
 10
-342.05412193184611
 20
175.87586996649
 30
0.0
 11
-346.44931983277132
 21
175.87586996649
 31
0.0
 12
-357.7799546106632
 22
173.27501336653489
 32
0.0
 13
-357.7799546106632
 23
173.27501336653489
 33
0.0
210
0.0
220
0.0
230
-1.0
  0
SOLID
  5
802
  8
0
  6
CONTINUOUS
 10
188.6404807442504
 20
175.87586996649
 30
0.0
 11
176.9695734204804
 21
173.20986335550771
 31
0.0
 12
181.4697775009235
 22
173.20986335550771
 32
0.0
 13
181.4697775009235
 23
173.20986335550771
 33
0.0
210
0.0
220
0.0
230
1.0
  0
SOLID
  5
803
  8
0
  6
CONTINUOUS
 10
-188.6404807442504
 20
175.87586996649
 30
0.0
 11
-193.05412193184469
 21
175.87586996649
 31
0.0
 12
-181.4697775009235
 22
173.20986335550771
 32
0.0
 13
-181.4697775009235
 23
173.20986335550771
 33
0.0
210
0.0
220
0.0
230
-1.0
  0
SOLID
  5
804
  8
0
  6
CONTINUOUS
 10
98.054121931846652
 20
175.87586996649
 30
0.0
 11
109.6384663627681
 21
173.20986335550771
 31
0.0
 12
114.13867044321189
 22
173.20986335550771
 32
0.0
 13
114.13867044321189
 23
173.20986335550771
 33
0.0
210
0.0
220
0.0
230
1.0
  0
SOLID
  5
805
  8
0
  6
CONTINUOUS
 10
-98.054121931846652
 20
175.87586996649
 30
0.0
 11
-102.4677631194412
 21
175.87586996649
 31
0.0
 12
-114.13867044321189
 22
173.20986335550771
 32
0.0
 13
-114.13867044321189
 23
173.20986335550771
 33
0.0
210
0.0
220
0.0
230
-1.0
  0
SOLID
  5
806
  8
0
  6
CONTINUOUS
 10
-55.359519255753142
 20
175.87586996649
 30
0.0
 11
-67.030426579523805
 21
173.20986335550771
 31
0.0
 12
-62.530222499080601
 22
173.20986335550771
 32
0.0
 13
-62.530222499080601
 23
173.20986335550771
 33
0.0
210
0.0
220
0.0
230
1.0
  0
SOLID
  5
807
  8
0
  6
CONTINUOUS
 10
55.359519255753142
 20
175.87586996649
 30
0.0
 11
50.945878068158663
 21
175.87586996649
 31
0.0
 12
62.530222499080601
 22
173.20986335550771
 32
0.0
 13
62.530222499080601
 23
173.20986335550771
 33
0.0
210
0.0
220
0.0
230
-1.0
  0
SOLID
  5
808
  8
0
  6
CONTINUOUS
 10
-145.94587806815031
 20
175.87586996649
 30
0.0
 11
-134.3615336372286
 21
173.20986335550771
 31
0.0
 12
-129.86132955678471
 22
173.20986335550771
 32
0.0
 13
-129.86132955678471
 23
173.20986335550771
 33
0.0
210
0.0
220
0.0
230
1.0
  0
SOLID
  5
809
  8
0
  6
CONTINUOUS
 10
145.94587806815031
 20
175.87586996649
 30
0.0
 11
141.53223688055581
 21
175.87586996649
 31
0.0
 12
129.86132955678471
 22
173.20986335550771
 32
0.0
 13
129.86132955678471
 23
173.20986335550771
 33
0.0
210
0.0
220
0.0
230
-1.0
  0
SOLID
  5
80A
  8
0
  6
CONTINUOUS
 10
429.90299819793597
 20
175.2160565231093
 30
0.0
 11
419.1995525860026
 21
172.89734691143099
 31
0.0
 12
423.90940386455969
 22
172.89734691143099
 32
0.0
 13
423.90940386455969
 23
172.89734691143099
 33
0.0
210
0.0
220
0.0
230
1.0
  0
SOLID
  5
80B
  8
0
  6
CONTINUOUS
 10
-429.90299819793597
 20
175.2160565231093
 30
0.0
 11
-434.62153848615333
 21
175.2160565231093
 31
0.0
 12
-423.90940386455969
 22
172.89734691143099
 32
0.0
 13
-423.90940386455969
 23
172.89734691143099
 33
0.0
210
0.0
220
0.0
230
-1.0
  0
SOLID
  5
80C
  8
0
  6
CONTINUOUS
 10
353.2924630149746
 20
173.27501336653489
 30
0.0
 11
357.3162204050073
 21
172.34380689334861
 31
0.0
 12
364.47618105061531
 22
172.34380689334861
 32
0.0
 13
364.47618105061531
 23
172.34380689334861
 33
0.0
210
0.0
220
0.0
230
1.0
  0
SOLID
  5
80D
  8
0
  6
CONTINUOUS
 10
-353.2924630149746
 20
173.27501336653489
 30
0.0
 11
-357.7799546106632
 21
173.27501336653489
 31
0.0
 12
-364.47618105061531
 22
172.34380689334861
 32
0.0
 13
-364.47618105061531
 23
172.34380689334861
 33
0.0
210
0.0
220
0.0
230
-1.0
  0
SOLID
  5
80E
  8
0
  6
CONTINUOUS
 10
176.96957342047941
 20
173.20986335550771
 30
0.0
 11
170.0353665935194
 21
172.26724102636081
 31
0.0
 12
177.37389053495261
 22
172.26724102636081
 32
0.0
 13
177.37389053495261
 23
172.26724102636081
 33
0.0
210
0.0
220
0.0
230
1.0
  0
SOLID
  5
80F
  8
0
  6
CONTINUOUS
 10
-176.96957342047941
 20
173.20986335550771
 30
0.0
 11
-181.4697775009235
 21
173.20986335550771
 31
0.0
 12
-177.37389053495261
 22
172.26724102636081
 32
0.0
 13
-177.37389053495261
 23
172.26724102636081
 33
0.0
210
0.0
220
0.0
230
-1.0
  0
SOLID
  5
810
  8
0
  6
CONTINUOUS
 10
109.6384663627681
 20
173.20986335550771
 30
0.0
 11
113.7343533287392
 21
172.26724102636081
 31
0.0
 12
121.0728772701724
 22
172.26724102636081
 32
0.0
 13
121.0728772701724
 23
172.26724102636081
 33
0.0
210
0.0
220
0.0
230
1.0
  0
SOLID
  5
811
  8
0
  6
CONTINUOUS
 10
-109.6384663627681
 20
173.20986335550771
 30
0.0
 11
-114.13867044321189
 21
173.20986335550771
 31
0.0
 12
-121.0728772701724
 22
172.26724102636081
 32
0.0
 13
-121.0728772701724
 23
172.26724102636081
 33
0.0
210
0.0
220
0.0
230
-1.0
  0
SOLID
  5
812
  8
0
  6
CONTINUOUS
 10
-67.03042657952787
 20
173.20986335550771
 30
0.0
 11
-73.964633406487977
 21
172.26724102636081
 31
0.0
 12
-66.626109465051812
 22
172.26724102636081
 32
0.0
 13
-66.626109465051812
 23
172.26724102636081
 33
0.0
  0
SOLID
  5
813
  8
0
  6
CONTINUOUS
 10
67.03042657952787
 20
173.20986335550771
 30
0.0
 11
62.530222499080601
 21
173.20986335550771
 31
0.0
 12
66.626109465051812
 22
172.26724102636081
 32
0.0
 13
66.626109465051812
 23
172.26724102636081
 33
0.0
210
0.0
220
0.0
230
-1.0
  0
SOLID
  5
814
  8
0
  6
CONTINUOUS
 10
-134.3615336372286
 20
173.20986335550771
 30
0.0
 11
-130.26564667125751
 21
172.26724102636081
 31
0.0
 12
-122.92712272982089
 22
172.26724102636081
 32
0.0
 13
-122.92712272982089
 23
172.26724102636081
 33
0.0
210
0.0
220
0.0
230
1.0
  0
SOLID
  5
815
  8
0
  6
CONTINUOUS
 10
134.3615336372286
 20
173.20986335550771
 30
0.0
 11
129.86132955678181
 21
173.20986335550771
 31
0.0
 12
122.92712272982089
 22
172.26724102636081
 32
0.0
 13
122.92712272982089
 23
172.26724102636081
 33
0.0
210
0.0
220
0.0
230
-1.0
  0
SOLID
  5
816
  8
0
  6
CONTINUOUS
 10
419.1995525860026
 20
172.89734691143099
 30
0.0
 11
411.3336101749594
 21
171.90191542105251
 31
0.0
 12
419.3106407948755
 22
171.90191542105251
 32
0.0
 13
419.3106407948755
 23
171.90191542105251
 33
0.0
210
0.0
220
0.0
230
1.0
  0
SOLID
  5
817
  8
0
  6
CONTINUOUS
 10
-419.1995525860026
 20
172.89734691143099
 30
0.0
 11
-423.90940386455969
 21
172.89734691143099
 31
0.0
 12
-419.3106407948755
 22
171.90191542105251
 32
0.0
 13
-419.3106407948755
 23
171.90191542105251
 33
0.0
210
0.0
220
0.0
230
-1.0
  0
SOLID
  5
818
  8
0
  6
CONTINUOUS
 10
357.3162204050073
 20
172.34380689334861
 30
0.0
 11
365.78183897262869
 21
171.15385901707791
 31
0.0
 12
373.03299488373221
 22
171.15385901707791
 32
0.0
 13
373.03299488373221
 23
171.15385901707791
 33
0.0
210
0.0
220
0.0
230
1.0
  0
SOLID
  5
819
  8
0
  6
CONTINUOUS
 10
-357.3162204050073
 20
172.34380689334861
 30
0.0
 11
-364.47618105061531
 21
172.34380689334861
 31
0.0
 12
-373.03299488373221
 22
171.15385901707791
 32
0.0
 13
-373.03299488373221
 23
171.15385901707791
 33
0.0
210
0.0
220
0.0
230
-1.0
  0
SOLID
  5
81A
  8
0
  6
CONTINUOUS
 10
170.0353665935194
 20
172.26724102636081
 30
0.0
 11
161.35762116097541
 21
171.08760551569711
 31
0.0
 12
168.75946387343009
 22
171.08760551569711
 32
0.0
 13
168.75946387343009
 23
171.08760551569711
 33
0.0
210
0.0
220
0.0
230
1.0
  0
SOLID
  5
81B
  8
0
  6
CONTINUOUS
 10
-170.0353665935194
 20
172.26724102636081
 30
0.0
 11
-177.37389053495261
 21
172.26724102636081
 31
0.0
 12
-168.75946387343009
 22
171.08760551569711
 32
0.0
 13
-168.75946387343009
 23
171.08760551569711
 33
0.0
210
0.0
220
0.0
230
-1.0
  0
SOLID
  5
81C
  8
0
  6
CONTINUOUS
 10
113.7343533287392
 20
172.26724102636081
 30
0.0
 11
122.34877999026151
 21
171.08760551569711
 31
0.0
 12
129.75062270271701
 22
171.08760551569711
 32
0.0
 13
129.75062270271701
 23
171.08760551569711
 33
0.0
210
0.0
220
0.0
230
1.0
  0
SOLID
  5
81D
  8
0
  6
CONTINUOUS
 10
-113.7343533287392
 20
172.26724102636081
 30
0.0
 11
-121.0728772701724
 21
172.26724102636081
 31
0.0
 12
-129.75062270271701
 22
171.08760551569711
 32
0.0
 13
-129.75062270271701
 23
171.08760551569711
 33
0.0
210
0.0
220
0.0
230
-1.0
  0
SOLID
  5
81E
  8
0
  6
CONTINUOUS
 10
-73.964633406487977
 20
172.26724102636081
 30
0.0
 11
-82.642378839032091
 21
171.08760551569711
 31
0.0
 12
-75.240536126577325
 22
171.08760551569711
 32
0.0
 13
-75.240536126577325
 23
171.08760551569711
 33
0.0
210
0.0
220
0.0
230
1.0
  0
SOLID
  5
81F
  8
0
  6
CONTINUOUS
 10
73.964633406487977
 20
172.26724102636081
 30
0.0
 11
66.626109465054839
 21
172.26724102636081
 31
0.0
 12
75.240536126577325
 22
171.08760551569711
 32
0.0
 13
75.240536126577325
 23
171.08760551569711
 33
0.0
210
0.0
220
0.0
230
-1.0
  0
SOLID
  5
820
  8
0
  6
CONTINUOUS
 10
-130.2656466712547
 20
172.26724102636081
 30
0.0
 11
-121.6512200097319
 21
171.08760551569711
 31
0.0
 12
-114.2493772972757
 22
171.08760551569711
 32
0.0
 13
-114.2493772972757
 23
171.08760551569711
 33
0.0
210
0.0
220
0.0
230
1.0
  0
SOLID
  5
821
  8
0
  6
CONTINUOUS
 10
130.2656466712547
 20
172.26724102636081
 30
0.0
 11
122.92712272982089
 21
172.26724102636081
 31
0.0
 12
114.2493772972757
 22
171.08760551569711
 32
0.0
 13
114.2493772972757
 23
171.08760551569711
 33
0.0
210
0.0
220
0.0
230
-1.0
  0
SOLID
  5
822
  8
0
  6
CONTINUOUS
 10
411.3336101749594
 20
171.90191542105251
 30
0.0
 11
403.9215809074596
 21
170.96392643576351
 31
0.0
 12
411.86942864540163
 22
170.96392643576351
 32
0.0
 13
411.86942864540163
 23
170.96392643576351
 33
0.0
210
0.0
220
0.0
230
1.0
  0
SOLID
  5
823
  8
0
  6
CONTINUOUS
 10
-411.3336101749594
 20
171.90191542105251
 30
0.0
 11
-419.3106407948755
 21
171.90191542105251
 31
0.0
 12
-411.86942864540163
 22
170.96392643576351
 32
0.0
 13
-411.86942864540163
 23
170.96392643576351
 33
0.0
210
0.0
220
0.0
230
-1.0
  0
SOLID
  5
824
  8
0
  6
CONTINUOUS
 10
365.78183897262869
 20
171.15385901707791
 30
0.0
 11
367.13307192916062
 21
170.96392643576351
 31
0.0
 12
376.83794595134719
 22
170.96392643576351
 32
0.0
 13
376.83794595134719
 23
170.96392643576351
 33
0.0
  0
SOLID
  5
825
  8
0
  6
CONTINUOUS
 10
-365.78183897262869
 20
171.15385901707791
 30
0.0
 11
-373.03299488373221
 21
171.15385901707791
 31
0.0
 12
-376.83794595134719
 22
170.96392643576351
 32
0.0
 13
-376.83794595134719
 23
170.96392643576351
 33
0.0
210
0.0
220
0.0
230
-1.0
  0
SOLID
  5
826
  8
0
  6
CONTINUOUS
 10
403.9215809074596
 20
170.96392643576351
 30
0.0
 11
388.47313266135041
 21
170.38313025556661
 31
0.0
 12
407.26188243725778
 22
170.38313025556661
 32
0.0
 13
407.26188243725778
 23
170.38313025556661
 33
0.0
210
0.0
220
0.0
230
1.0
  0
SOLID
  5
827
  8
0
  6
CONTINUOUS
 10
-403.9215809074596
 20
170.96392643576351
 30
0.0
 11
-411.86942864540163
 21
170.96392643576351
 31
0.0
 12
-407.26188243725778
 22
170.38313025556661
 32
0.0
 13
-407.26188243725778
 23
170.38313025556661
 33
0.0
210
0.0
220
0.0
230
-1.0
  0
SOLID
  5
828
  8
0
  6
CONTINUOUS
 10
367.13307192916062
 20
170.96392643576351
 30
0.0
 11
371.26501671861462
 21
170.38313025556661
 31
0.0
 12
388.47313266135041
 22
170.38313025556661
 32
0.0
 13
388.47313266135041
 23
170.38313025556661
 33
0.0
  0
SOLID
  5
829
  8
0
  6
CONTINUOUS
 10
-367.13307192916062
 20
170.96392643576351
 30
0.0
 11
-376.83794595134719
 21
170.96392643576351
 31
0.0
 12
-388.47313266135041
 22
170.38313025556661
 32
0.0
 13
-388.47313266135041
 23
170.38313025556661
 33
0.0
210
0.0
220
0.0
230
-1.0
  0
SOLID
  5
82A
  8
0
  6
CONTINUOUS
 10
-82.642378839049982
 20
171.08760551569711
 30
0.0
 11
-98.380109695645643
 21
170.38313025556661
 31
0.0
 12
-80.385049332895875
 22
170.38313025556661
 32
0.0
 13
-80.385049332895875
 23
170.38313025556661
 33
0.0
210
0.0
220
0.0
230
1.0
  0
SOLID
  5
82B
  8
0
  6
CONTINUOUS
 10
82.642378839049982
 20
171.08760551569711
 30
0.0
 11
75.240536126577325
 21
171.08760551569711
 31
0.0
 12
80.385049332895875
 22
170.38313025556661
 32
0.0
 13
80.385049332895875
 23
170.38313025556661
 33
0.0
210
0.0
220
0.0
230
-1.0
  0
SOLID
  5
82C
  8
0
  6
CONTINUOUS
 10
-121.6512200097319
 20
171.08760551569711
 30
0.0
 11
-116.5067068034131
 21
170.38313025556661
 31
0.0
 12
-98.511646440660996
 22
170.38313025556661
 32
0.0
 13
-98.511646440660996
 23
170.38313025556661
 33
0.0
  0
SOLID
  5
82D
  8
0
  6
CONTINUOUS
 10
121.6512200097319
 20
171.08760551569711
 30
0.0
 11
114.2493772972595
 21
171.08760551569711
 31
0.0
 12
98.511646440660996
 22
170.38313025556661
 32
0.0
 13
98.511646440660996
 23
170.38313025556661
 33
0.0
210
0.0
220
0.0
230
-1.0
  0
SOLID
  5
82E
  8
0
  6
CONTINUOUS
 10
161.35762116097251
 20
171.08760551569711
 30
0.0
 11
145.55412193184691
 21
170.38018623576031
 31
0.0
 12
163.5934516172085
 22
170.38018623576031
 32
0.0
 13
163.5934516172085
 23
170.38018623576031
 33
0.0
210
0.0
220
0.0
230
1.0
  0
SOLID
  5
82F
  8
0
  6
CONTINUOUS
 10
-161.35762116097251
 20
171.08760551569711
 30
0.0
 11
-168.75946387343009
 21
171.08760551569711
 31
0.0
 12
-163.5934516172085
 22
170.38018623576031
 32
0.0
 13
-163.5934516172085
 23
170.38018623576031
 33
0.0
210
0.0
220
0.0
230
-1.0
  0
SOLID
  5
830
  8
0
  6
CONTINUOUS
 10
122.34877999026151
 20
171.08760551569711
 30
0.0
 11
127.5147922464832
 21
170.38018623576031
 31
0.0
 12
145.55412193184691
 22
170.38018623576031
 32
0.0
 13
145.55412193184691
 23
170.38018623576031
 33
0.0
  0
SOLID
  5
831
  8
0
  6
CONTINUOUS
 10
-122.34877999026151
 20
171.08760551569711
 30
0.0
 11
-129.75062270271701
 21
171.08760551569711
 31
0.0
 12
-145.55412193184691
 22
170.38018623576031
 32
0.0
 13
-145.55412193184691
 23
170.38018623576031
 33
0.0
210
0.0
220
0.0
230
-1.0
  0
SOLID
  5
832
  8
0
  6
CONTINUOUS
 10
-98.380109695645643
 20
170.38313025556661
 30
0.0
 11
-98.44587806812919
 21
170.38018623576031
 31
0.0
 12
-80.406548382799002
 22
170.38018623576031
 32
0.0
 13
-80.406548382799002
 23
170.38018623576031
 33
0.0
210
0.0
220
0.0
230
1.0
  0
SOLID
  5
833
  8
0
  6
CONTINUOUS
 10
98.380109695645643
 20
170.38313025556661
 30
0.0
 11
80.385049332895875
 21
170.38313025556661
 31
0.0
 12
80.406548382799002
 22
170.38018623576031
 32
0.0
 13
80.406548382799002
 23
170.38018623576031
 33
0.0
210
0.0
220
0.0
230
-1.0
  0
SOLID
  5
834
  8
0
  6
CONTINUOUS
 10
-116.5067068034131
 20
170.38313025556661
 30
0.0
 11
-116.48520775351
 21
170.38018623576031
 31
0.0
 12
-98.44587806817745
 22
170.38018623576031
 32
0.0
 13
-98.44587806817745
 23
170.38018623576031
 33
0.0
210
0.0
220
0.0
230
1.0
  0
SOLID
  5
835
  8
0
  6
CONTINUOUS
 10
116.5067068034131
 20
170.38313025556661
 30
0.0
 11
98.511646440660996
 21
170.38313025556661
 31
0.0
 12
98.44587806817745
 22
170.38018623576031
 32
0.0
 13
98.44587806817745
 23
170.38018623576031
 33
0.0
210
0.0
220
0.0
230
-1.0
  0
SOLID
  5
836
  8
0
  6
CONTINUOUS
 10
371.26501671861462
 20
170.38313025556661
 30
0.0
 11
372.7092827305047
 21
170.1801207223717
 31
0.0
 12
405.65137631345391
 22
170.1801207223717
 32
0.0
 13
405.65137631345391
 23
170.1801207223717
 33
0.0
210
0.0
220
0.0
230
1.0
  0
SOLID
  5
837
  8
0
  6
CONTINUOUS
 10
-371.26501671861462
 20
170.38313025556661
 30
0.0
 11
-407.26188243725778
 21
170.38313025556661
 31
0.0
 12
-405.65137631345391
 22
170.1801207223717
 32
0.0
 13
-405.65137631345391
 23
170.1801207223717
 33
0.0
210
0.0
220
0.0
230
-1.0
  0
SOLID
  5
838
  8
0
  6
CONTINUOUS
 10
127.5147922464832
 20
170.38018623576031
 30
0.0
 11
129.54581495686679
 21
170.10206366228309
 31
0.0
 12
161.56242890682489
 22
170.10206366228309
 32
0.0
 13
161.56242890682489
 23
170.10206366228309
 33
0.0
210
0.0
220
0.0
230
1.0
  0
SOLID
  5
839
  8
0
  6
CONTINUOUS
 10
-127.5147922464832
 20
170.38018623576031
 30
0.0
 11
-163.5934516172085
 21
170.38018623576031
 31
0.0
 12
-161.56242890682489
 22
170.10206366228309
 32
0.0
 13
-161.56242890682489
 23
170.10206366228309
 33
0.0
210
0.0
220
0.0
230
-1.0
  0
SOLID
  5
83A
  8
0
  6
CONTINUOUS
 10
-116.48520775351
 20
170.38018623576031
 30
0.0
 11
-114.4541850431262
 21
170.10206366228309
 31
0.0
 12
-82.437571093182655
 22
170.10206366228309
 32
0.0
 13
-82.437571093182655
 23
170.10206366228309
 33
0.0
210
0.0
220
0.0
230
1.0
  0
SOLID
  5
83B
  8
0
  6
CONTINUOUS
 10
116.48520775351
 20
170.38018623576031
 30
0.0
 11
80.406548382799002
 21
170.38018623576031
 31
0.0
 12
82.437571093182655
 22
170.10206366228309
 32
0.0
 13
82.437571093182655
 23
170.10206366228309
 33
0.0
210
0.0
220
0.0
230
-1.0
  0
SOLID
  5
83C
  8
0
  6
CONTINUOUS
 10
-377.06189524048978
 20
169.95787908691071
 30
0.0
 11
-403.88829893850811
 21
169.95787908691071
 31
0.0
 12
-388.2939109126948
 22
169.38437948712129
 32
0.0
 13
-388.2939109126948
 23
169.38437948712129
 33
0.0
210
0.0
220
0.0
230
-1.0
  0
SOLID
  5
83D
  8
0
  6
CONTINUOUS
 10
372.7092827305047
 20
170.1801207223717
 30
0.0
 11
377.06189524048978
 21
169.95787908691071
 31
0.0
 12
403.88829893850811
 22
169.95787908691071
 32
0.0
 13
403.88829893850811
 23
169.95787908691071
 33
0.0
210
0.0
220
0.0
230
1.0
  0
SOLID
  5
83E
  8
0
  6
CONTINUOUS
 10
-372.7092827305047
 20
170.1801207223717
 30
0.0
 11
-405.65137631345391
 21
170.1801207223717
 31
0.0
 12
-403.88829893850811
 22
169.95787908691071
 32
0.0
 13
-403.88829893850811
 23
169.95787908691071
 33
0.0
210
0.0
220
0.0
230
-1.0
  0
SOLID
  5
83F
  8
0
  6
CONTINUOUS
 10
98.535523443807946
 20
169.38437948712129
 30
0.0
 11
98.356232692500996
 21
169.38437948712129
 31
0.0
 12
98.445878068176512
 22
169.38033787425721
 32
0.0
 13
98.445878068176512
 23
169.38033787425721
 33
0.0
210
0.0
220
0.0
230
-1.0
  0
SOLID
  5
840
  8
0
  6
CONTINUOUS
 10
-145.46447655617021
 20
169.38437948712129
 30
0.0
 11
-145.6437673075213
 21
169.38437948712129
 31
0.0
 12
-145.55412193184571
 22
169.38033787425721
 32
0.0
 13
-145.55412193184571
 23
169.38033787425721
 33
0.0
210
0.0
220
0.0
230
-1.0
  0
SOLID
  5
841
  8
0
  6
CONTINUOUS
 10
129.54581495686679
 20
170.10206366228309
 30
0.0
 11
145.46447655617021
 21
169.38437948712129
 31
0.0
 12
145.6437673075213
 22
169.38437948712129
 32
0.0
 13
145.6437673075213
 23
169.38437948712129
 33
0.0
210
0.0
220
0.0
230
1.0
  0
SOLID
  5
842
  8
0
  6
CONTINUOUS
 10
-129.54581495686679
 20
170.10206366228309
 30
0.0
 11
-161.56242890682489
 21
170.10206366228309
 31
0.0
 12
-145.6437673075213
 22
169.38437948712129
 32
0.0
 13
-145.6437673075213
 23
169.38437948712129
 33
0.0
210
0.0
220
0.0
230
-1.0
  0
SOLID
  5
843
  8
0
  6
CONTINUOUS
 10
-114.454185043111
 20
170.10206366228309
 30
0.0
 11
-98.535523443807946
 21
169.38437948712129
 31
0.0
 12
-98.356232692500996
 22
169.38437948712129
 32
0.0
 13
-98.356232692500996
 23
169.38437948712129
 33
0.0
210
0.0
220
0.0
230
1.0
  0
SOLID
  5
844
  8
0
  6
CONTINUOUS
 10
114.454185043111
 20
170.10206366228309
 30
0.0
 11
82.437571093197846
 21
170.10206366228309
 31
0.0
 12
98.356232692500996
 22
169.38437948712129
 32
0.0
 13
98.356232692500996
 23
169.38437948712129
 33
0.0
210
0.0
220
0.0
230
-1.0
  0
LINE
  5
845
  8
0
  6
CONTINUOUS
 10
-226.08015569315819
 20
199.2889907214101
 30
0.0
 11
-226.0801556931583
 21
199.23012433499551
 31
0.0
  0
LINE
  5
846
  8
0
  6
CONTINUOUS
 10
-213.40834379023369
 20
199.23012433499551
 30
0.0
 11
-226.08015569315819
 21
199.2889907214101
 31
0.0
  0
LINE
  5
847
  8
0
  6
CONTINUOUS
 10
-226.0801556931583
 20
199.23012433499551
 30
0.0
 11
-226.08015569315941
 21
198.32208209382469
 31
0.0
  0
LINE
  5
848
  8
0
  6
CONTINUOUS
 10
-213.40834379023369
 20
199.23012433499551
 30
0.0
 11
-200.8872210775798
 21
198.32208209382469
 31
0.0
  0
LINE
  5
849
  8
0
  6
CONTINUOUS
 10
-226.08015569315941
 20
198.32208209382469
 30
0.0
 11
-226.08015569315941
 21
198.28851245268501
 31
0.0
  0
LINE
  5
84A
  8
0
  6
CONTINUOUS
 10
-200.8872210775798
 20
198.32208209382469
 30
0.0
 11
-200.65089809920201
 21
198.28851245268501
 31
0.0
  0
LINE
  5
84B
  8
0
  6
CONTINUOUS
 10
-226.08015569315941
 20
198.28851245268501
 30
0.0
 11
-213.5207757558386
 21
198.2338912431689
 31
0.0
  0
LINE
  5
84C
  8
0
  6
CONTINUOUS
 10
-200.65089809920201
 20
198.28851245268501
 30
0.0
 11
-200.26637665431321
 21
198.2338912431689
 31
0.0
  0
LINE
  5
84D
  8
0
  6
CONTINUOUS
 10
259.7615095583547
 20
199.1954691024626
 30
0.0
 11
247.92901746715759
 21
198.19804548334659
 31
0.0
  0
LINE
  5
84E
  8
0
  6
CONTINUOUS
 10
275.34673430533701
 20
199.1954691024626
 30
0.0
 11
287.17922639653409
 21
198.19804548334659
 31
0.0
  0
LINE
  5
84F
  8
0
  6
CONTINUOUS
 10
15.761509558354421
 20
199.1954691024626
 30
0.0
 11
3.929017467157379
 21
198.19804548334659
 31
0.0
  0
LINE
  5
850
  8
0
  6
CONTINUOUS
 10
31.346734305336899
 20
199.1954691024626
 30
0.0
 11
43.179226396533927
 21
198.19804548334659
 31
0.0
  0
LINE
  5
851
  8
0
  6
CONTINUOUS
 10
275.27214449916312
 20
198.19804548334659
 30
0.0
 11
278.8729413380841
 21
197.89573765037409
 31
0.0
  0
LINE
  5
852
  8
0
  6
CONTINUOUS
 10
287.17922639653409
 20
198.19804548334659
 30
0.0
 11
290.76552110040802
 21
197.89573765037409
 31
0.0
  0
LINE
  5
853
  8
0
  6
CONTINUOUS
 10
247.92901746715759
 20
198.19804548334659
 30
0.0
 11
244.3427227632836
 21
197.89573765037409
 31
0.0
  0
LINE
  5
854
  8
0
  6
CONTINUOUS
 10
259.83609936452763
 20
198.19804548334659
 30
0.0
 11
256.23530252560681
 21
197.89573765037409
 31
0.0
  0
LINE
  5
855
  8
0
  6
CONTINUOUS
 10
31.272144499163002
 20
198.19804548334659
 30
0.0
 11
34.872941338084061
 21
197.89573765037409
 31
0.0
  0
LINE
  5
856
  8
0
  6
CONTINUOUS
 10
43.179226396533927
 20
198.19804548334659
 30
0.0
 11
46.765521100407852
 21
197.89573765037409
 31
0.0
  0
LINE
  5
857
  8
0
  6
CONTINUOUS
 10
3.929017467157379
 20
198.19804548334659
 30
0.0
 11
0.3427227632834615
 21
197.89573765037409
 31
0.0
  0
LINE
  5
858
  8
0
  6
CONTINUOUS
 10
15.83609936452762
 20
198.19804548334659
 30
0.0
 11
12.235302525606791
 21
197.89573765037409
 31
0.0
  0
LINE
  5
859
  8
0
  6
CONTINUOUS
 10
-213.5207757558386
 20
198.2338912431689
 30
0.0
 11
-201.10952928511219
 21
197.34027568504621
 31
0.0
  0
LINE
  5
85A
  8
0
  6
CONTINUOUS
 10
-200.26637665431321
 20
198.2338912431689
 30
0.0
 11
-193.9755173227679
 21
197.34027568504621
 31
0.0
  0
LINE
  5
85B
  8
0
  6
CONTINUOUS
 10
278.8729413380841
 20
197.89573765037409
 30
0.0
 11
290.54467270831049
 21
196.9158279316608
 31
0.0
  0
LINE
  5
85C
  8
0
  6
CONTINUOUS
 10
290.76552110040802
 20
197.89573765037409
 30
0.0
 11
296.47331381264428
 21
196.9158279316608
 31
0.0
  0
LINE
  5
85D
  8
0
  6
CONTINUOUS
 10
244.3427227632836
 20
197.89573765037409
 30
0.0
 11
238.63493005104749
 21
196.9158279316608
 31
0.0
  0
LINE
  5
85E
  8
0
  6
CONTINUOUS
 10
256.23530252560681
 20
197.89573765037409
 30
0.0
 11
244.5635711553814
 21
196.9158279316608
 31
0.0
  0
LINE
  5
85F
  8
0
  6
CONTINUOUS
 10
34.872941338084061
 20
197.89573765037409
 30
0.0
 11
46.544672708310358
 21
196.9158279316608
 31
0.0
  0
LINE
  5
860
  8
0
  6
CONTINUOUS
 10
46.765521100407852
 20
197.89573765037409
 30
0.0
 11
52.473313812644001
 21
196.9158279316608
 31
0.0
  0
LINE
  5
861
  8
0
  6
CONTINUOUS
 10
0.3427227632834615
 20
197.89573765037409
 30
0.0
 11
-5.3650699489526881
 21
196.9158279316608
 31
0.0
  0
LINE
  5
862
  8
0
  6
CONTINUOUS
 10
12.235302525606791
 20
197.89573765037409
 30
0.0
 11
0.5635711553812257
 21
196.9158279316608
 31
0.0
  0
LINE
  5
863
  8
0
  6
CONTINUOUS
 10
-201.10952928511219
 20
197.34027568504621
 30
0.0
 11
-195.6212995876497
 21
196.5648639978975
 31
0.0
  0
LINE
  5
864
  8
0
  6
CONTINUOUS
 10
-193.9755173227679
 20
197.34027568504621
 30
0.0
 11
-188.51678755519669
 21
196.5648639978975
 31
0.0
  0
LINE
  5
865
  8
0
  6
CONTINUOUS
 10
-195.6212995876497
 20
196.5648639978975
 30
0.0
 11
-188.84641628098089
 21
195.607665778317
 31
0.0
  0
LINE
  5
866
  8
0
  6
CONTINUOUS
 10
-188.51678755519669
 20
196.5648639978975
 30
0.0
 11
-184.0290862561051
 21
195.607665778317
 31
0.0
  0
LINE
  5
867
  8
0
  6
CONTINUOUS
 10
290.54467270830918
 20
196.9158279316608
 30
0.0
 11
300.0178302664865
 21
195.2962747461971
 31
0.0
  0
LINE
  5
868
  8
0
  6
CONTINUOUS
 10
296.47331381264428
 20
196.9158279316608
 30
0.0
 11
305.90691130896028
 21
195.2962747461971
 31
0.0
  0
LINE
  5
869
  8
0
  6
CONTINUOUS
 10
238.63493005104749
 20
196.9158279316608
 30
0.0
 11
229.20133255473169
 21
195.2962747461971
 31
0.0
  0
LINE
  5
86A
  8
0
  6
CONTINUOUS
 10
244.5635711553814
 20
196.9158279316608
 30
0.0
 11
235.0904135972055
 21
195.2962747461971
 31
0.0
  0
LINE
  5
86B
  8
0
  6
CONTINUOUS
 10
46.54467270830915
 20
196.9158279316608
 30
0.0
 11
56.017830266485888
 21
195.2962747461971
 31
0.0
  0
LINE
  5
86C
  8
0
  6
CONTINUOUS
 10
52.473313812644001
 20
196.9158279316608
 30
0.0
 11
61.9069113089597
 21
195.2962747461971
 31
0.0
  0
LINE
  5
86D
  8
0
  6
CONTINUOUS
 10
-5.3650699489526881
 20
196.9158279316608
 30
0.0
 11
-14.798667445268389
 21
195.2962747461971
 31
0.0
  0
LINE
  5
86E
  8
0
  6
CONTINUOUS
 10
0.5635711553812257
 20
196.9158279316608
 30
0.0
 11
-8.9095864027949858
 21
195.2962747461971
 31
0.0
  0
LINE
  5
86F
  8
0
  6
CONTINUOUS
 10
300.0178302664865
 20
195.2962747461971
 30
0.0
 11
305.54467270831151
 21
194.35139282828931
 31
0.0
  0
LINE
  5
870
  8
0
  6
CONTINUOUS
 10
305.90691130896022
 20
195.2962747461971
 30
0.0
 11
309.53575365843079
 21
194.35139282828931
 31
0.0
  0
LINE
  5
871
  8
0
  6
CONTINUOUS
 10
229.20133255473169
 20
195.2962747461971
 30
0.0
 11
225.57249020526109
 21
194.35139282828931
 31
0.0
  0
LINE
  5
872
  8
0
  6
CONTINUOUS
 10
235.0904135972055
 20
195.2962747461971
 30
0.0
 11
229.56357115538131
 21
194.35139282828931
 31
0.0
  0
LINE
  5
873
  8
0
  6
CONTINUOUS
 10
56.017830266485888
 20
195.2962747461971
 30
0.0
 11
61.54467270831065
 21
194.35139282828931
 31
0.0
  0
LINE
  5
874
  8
0
  6
CONTINUOUS
 10
61.9069113089597
 20
195.2962747461971
 30
0.0
 11
65.535753658430409
 21
194.35139282828931
 31
0.0
  0
LINE
  5
875
  8
0
  6
CONTINUOUS
 10
-14.798667445268389
 20
195.2962747461971
 30
0.0
 11
-18.42750979473908
 21
194.35139282828931
 31
0.0
  0
LINE
  5
876
  8
0
  6
CONTINUOUS
 10
-8.9095864027949858
 20
195.2962747461971
 30
0.0
 11
-14.43642884461944
 21
194.35139282828931
 31
0.0
  0
LINE
  5
877
  8
0
  6
CONTINUOUS
 10
-188.84641628098089
 20
195.607665778317
 30
0.0
 11
-181.07695778274979
 21
193.95847004721401
 31
0.0
  0
LINE
  5
878
  8
0
  6
CONTINUOUS
 10
-184.0290862561051
 20
195.607665778317
 30
0.0
 11
-176.29704322308419
 21
193.95847004721401
 31
0.0
  0
LINE
  5
879
  8
0
  6
CONTINUOUS
 10
-181.07695778274979
 20
193.95847004721401
 30
0.0
 11
-176.73143674344431
 21
193.03606152298121
 31
0.0
  0
LINE
  5
87A
  8
0
  6
CONTINUOUS
 10
-176.29704322308419
 20
193.95847004721401
 30
0.0
 11
-173.0754039655744
 21
193.03606152298121
 31
0.0
  0
LINE
  5
87B
  8
0
  6
CONTINUOUS
 10
305.54467270831037
 20
194.35139282828931
 30
0.0
 11
316.93941260791871
 21
191.39708038993169
 31
0.0
  0
LINE
  5
87C
  8
0
  6
CONTINUOUS
 10
309.53575365843079
 20
194.35139282828931
 30
0.0
 11
320.88186356560072
 21
191.39708038993169
 31
0.0
  0
LINE
  5
87D
  8
0
  6
CONTINUOUS
 10
225.57249020526109
 20
194.35139282828931
 30
0.0
 11
214.2263802980913
 21
191.39708038993169
 31
0.0
  0
LINE
  5
87E
  8
0
  6
CONTINUOUS
 10
229.56357115538131
 20
194.35139282828931
 30
0.0
 11
218.16883125577331
 21
191.39708038993169
 31
0.0
  0
LINE
  5
87F
  8
0
  6
CONTINUOUS
 10
61.544672708309797
 20
194.35139282828931
 30
0.0
 11
72.939412607918385
 21
191.39708038993169
 31
0.0
  0
LINE
  5
880
  8
0
  6
CONTINUOUS
 10
65.535753658430409
 20
194.35139282828931
 30
0.0
 11
76.881863565600213
 21
191.39708038993169
 31
0.0
  0
LINE
  5
881
  8
0
  6
CONTINUOUS
 10
-18.42750979473908
 20
194.35139282828931
 30
0.0
 11
-29.773619701908839
 21
191.39708038993169
 31
0.0
  0
LINE
  5
882
  8
0
  6
CONTINUOUS
 10
-14.43642884461927
 20
194.35139282828931
 30
0.0
 11
-25.83116874422689
 21
191.39708038993169
 31
0.0
  0
LINE
  5
883
  8
0
  6
CONTINUOUS
 10
316.93941260791871
 20
191.39708038993169
 30
0.0
 11
320.38115578282333
 21
190.50474017323211
 31
0.0
  0
LINE
  5
884
  8
0
  6
CONTINUOUS
 10
320.88186356560061
 20
191.39708038993169
 30
0.0
 11
323.4235872506066
 21
190.50474017323211
 31
0.0
  0
LINE
  5
885
  8
0
  6
CONTINUOUS
 10
214.2263802980913
 20
191.39708038993169
 30
0.0
 11
211.68465661308531
 21
190.50474017323211
 31
0.0
  0
LINE
  5
886
  8
0
  6
CONTINUOUS
 10
218.16883125577331
 20
191.39708038993169
 30
0.0
 11
214.72708808086881
 21
190.50474017323211
 31
0.0
  0
LINE
  5
887
  8
0
  6
CONTINUOUS
 10
72.939412607918385
 20
191.39708038993169
 30
0.0
 11
76.381155782823072
 21
190.50474017323211
 31
0.0
  0
LINE
  5
888
  8
0
  6
CONTINUOUS
 10
76.881863565600213
 20
191.39708038993169
 30
0.0
 11
79.423587250606204
 21
190.50474017323211
 31
0.0
  0
LINE
  5
889
  8
0
  6
CONTINUOUS
 10
-29.773619701908839
 20
191.39708038993169
 30
0.0
 11
-32.31534338691489
 21
190.50474017323211
 31
0.0
  0
LINE
  5
88A
  8
0
  6
CONTINUOUS
 10
-25.83116874422689
 20
191.39708038993169
 30
0.0
 11
-29.272911919131271
 21
190.50474017323211
 31
0.0
  0
LINE
  5
88B
  8
0
  6
CONTINUOUS
 10
-176.73143674344431
 20
193.03606152298121
 30
0.0
 11
-167.84327526644279
 21
190.5029002417742
 31
0.0
  0
LINE
  5
88C
  8
0
  6
CONTINUOUS
 10
-173.0754039655744
 20
193.03606152298121
 30
0.0
 11
-164.2279880812423
 21
190.5029002417742
 31
0.0
  0
LINE
  5
88D
  8
0
  6
CONTINUOUS
 10
-167.84327526644279
 20
190.5029002417742
 30
0.0
 11
-164.76459067250241
 21
189.62546291903891
 31
0.0
  0
LINE
  5
88E
  8
0
  6
CONTINUOUS
 10
-164.2279880812423
 20
190.5029002417742
 30
0.0
 11
-161.79866473965171
 21
189.62546291903891
 31
0.0
  0
LINE
  5
88F
  8
0
  6
CONTINUOUS
 10
320.38115578282259
 20
190.50474017323211
 30
0.0
 11
332.70168292760093
 21
186.198154581578
 31
0.0
  0
LINE
  5
890
  8
0
  6
CONTINUOUS
 10
323.4235872506066
 20
190.50474017323211
 30
0.0
 11
335.69037787032943
 21
186.198154581578
 31
0.0
  0
LINE
  5
891
  8
0
  6
CONTINUOUS
 10
211.68465661308531
 20
190.50474017323211
 30
0.0
 11
199.4178659933626
 21
186.198154581578
 31
0.0
  0
LINE
  5
892
  8
0
  6
CONTINUOUS
 10
214.72708808086881
 20
190.50474017323211
 30
0.0
 11
202.40656093609121
 21
186.198154581578
 31
0.0
  0
LINE
  5
893
  8
0
  6
CONTINUOUS
 10
76.381155782822447
 20
190.50474017323211
 30
0.0
 11
88.701682927600544
 21
186.198154581578
 31
0.0
  0
LINE
  5
894
  8
0
  6
CONTINUOUS
 10
79.423587250606204
 20
190.50474017323211
 30
0.0
 11
91.690377870329087
 21
186.198154581578
 31
0.0
  0
LINE
  5
895
  8
0
  6
CONTINUOUS
 10
-32.31534338691489
 20
190.50474017323211
 30
0.0
 11
-44.582134006637958
 21
186.198154581578
 31
0.0
  0
LINE
  5
896
  8
0
  6
CONTINUOUS
 10
-29.272911919131271
 20
190.50474017323211
 30
0.0
 11
-41.593439063909067
 21
186.198154581578
 31
0.0
  0
LINE
  5
897
  8
0
  6
CONTINUOUS
 10
-164.76459067250241
 20
189.62546291903891
 30
0.0
 11
-155.2327666368289
 21
186.198154581578
 31
0.0
  0
LINE
  5
898
  8
0
  6
CONTINUOUS
 10
-161.79866473965171
 20
189.62546291903891
 30
0.0
 11
-152.30962212967091
 21
186.198154581578
 31
0.0
  0
LINE
  5
899
  8
0
  6
CONTINUOUS
 10
332.70168292760093
 20
186.198154581578
 30
0.0
 11
335.05412193184799
 21
185.37586996648909
 31
0.0
  0
LINE
  5
89A
  8
0
  6
CONTINUOUS
 10
335.6903778703292
 20
186.198154581578
 30
0.0
 11
336.29627179723678
 21
185.37586996648909
 31
0.0
  0
LINE
  5
89B
  8
0
  6
CONTINUOUS
 10
199.4178659933626
 20
186.198154581578
 30
0.0
 11
198.8119720664551
 21
185.37586996648909
 31
0.0
  0
LINE
  5
89C
  8
0
  6
CONTINUOUS
 10
202.40656093609121
 20
186.198154581578
 30
0.0
 11
200.05412193184421
 21
185.37586996648909
 31
0.0
  0
LINE
  5
89D
  8
0
  6
CONTINUOUS
 10
88.701682927600544
 20
186.198154581578
 30
0.0
 11
91.054121931847675
 21
185.37586996648909
 31
0.0
  0
LINE
  5
89E
  8
0
  6
CONTINUOUS
 10
91.690377870329087
 20
186.198154581578
 30
0.0
 11
92.296271797236685
 21
185.37586996648909
 31
0.0
  0
LINE
  5
89F
  8
0
  6
CONTINUOUS
 10
-44.58213400663778
 20
186.198154581578
 30
0.0
 11
-45.188027933545293
 21
185.37586996648909
 31
0.0
  0
LINE
  5
8A0
  8
0
  6
CONTINUOUS
 10
-41.593439063909067
 20
186.198154581578
 30
0.0
 11
-43.945878068156148
 21
185.37586996648909
 31
0.0
  0
LINE
  5
8A1
  8
0
  6
CONTINUOUS
 10
-155.2327666368289
 20
186.198154581578
 30
0.0
 11
-152.94587806815261
 21
185.37586996648909
 31
0.0
  0
LINE
  5
8A2
  8
0
  6
CONTINUOUS
 10
-152.30962212967111
 20
186.198154581578
 30
0.0
 11
-151.7037282027635
 21
185.37586996648909
 31
0.0
  0
LINE
  5
8A3
  8
0
  6
CONTINUOUS
 10
436.90000000000038
 20
185.59412692079559
 30
0.0
 11
436.90000000000038
 21
179.47071883921359
 31
0.0
  0
LINE
  5
8A4
  8
0
  6
CONTINUOUS
 10
437.90000000000038
 20
185.59412692079559
 30
0.0
 11
437.90000000000038
 21
179.47071883921359
 31
0.0
  0
LINE
  5
8A5
  8
0
  6
CONTINUOUS
 10
436.90000000000038
 20
179.47071883921359
 30
0.0
 11
436.81890768938342
 21
178.73257810103769
 31
0.0
  0
LINE
  5
8A6
  8
0
  6
CONTINUOUS
 10
437.90000000000038
 20
179.47071883921359
 30
0.0
 11
437.81890768938348
 21
178.73257810103769
 31
0.0
  0
LINE
  5
8A7
  8
0
  6
CONTINUOUS
 10
436.81890768938342
 20
178.73257810103769
 30
0.0
 11
436.74496625344329
 21
178.51547788392719
 31
0.0
  0
LINE
  5
8A8
  8
0
  6
CONTINUOUS
 10
437.81890768938348
 20
178.73257810103769
 30
0.0
 11
437.7950570097903
 21
178.51547788392719
 31
0.0
  0
LINE
  5
8A9
  8
0
  6
CONTINUOUS
 10
436.74496625344329
 20
178.51547788392719
 30
0.0
 11
436.5794989709683
 21
178.02964767934381
 31
0.0
  0
LINE
  5
8AA
  8
0
  6
CONTINUOUS
 10
437.7950570097903
 20
178.51547788392719
 30
0.0
 11
437.62958972731519
 21
178.02964767934381
 31
0.0
  0
LINE
  5
8AB
  8
0
  6
CONTINUOUS
 10
436.5794989709683
 20
178.02964767934381
 30
0.0
 11
436.32132177054268
 21
177.6058032205585
 31
0.0
  0
LINE
  5
8AC
  8
0
  6
CONTINUOUS
 10
437.62958972731519
 20
178.02964767934381
 30
0.0
 11
437.48523396242928
 21
177.6058032205585
 31
0.0
  0
LINE
  5
8AD
  8
0
  6
CONTINUOUS
 10
436.32132177054268
 20
177.6058032205585
 30
0.0
 11
436.19319396602441
 21
177.3954583106601
 31
0.0
  0
LINE
  5
8AE
  8
0
  6
CONTINUOUS
 10
437.48523396242928
 20
177.6058032205585
 30
0.0
 11
437.35710615791112
 21
177.3954583106601
 31
0.0
  0
LINE
  5
8AF
  8
0
  6
CONTINUOUS
 10
436.19319396602441
 20
177.3954583106601
 30
0.0
 11
435.67841994834851
 21
176.86026168985461
 31
0.0
  0
LINE
  5
8B0
  8
0
  6
CONTINUOUS
 10
437.35710615791112
 20
177.3954583106601
 30
0.0
 11
437.03110079822608
 21
176.86026168985461
 31
0.0
  0
LINE
  5
8B1
  8
0
  6
CONTINUOUS
 10
435.67841994834851
 20
176.86026168985461
 30
0.0
 11
435.56516888247307
 21
176.78508756696789
 31
0.0
  0
LINE
  5
8B2
  8
0
  6
CONTINUOUS
 10
437.03110079822608
 20
176.86026168985461
 30
0.0
 11
436.98530983838452
 21
176.78508756696789
 31
0.0
  0
LINE
  5
8B3
  8
0
  6
CONTINUOUS
 10
335.05412193184691
 20
185.37586996648909
 30
0.0
 11
341.41226629806567
 21
176.74695975519199
 31
0.0
  0
LINE
  5
8B4
  8
0
  6
CONTINUOUS
 10
336.29627179723678
 20
185.37586996648909
 30
0.0
 11
342.65441616345578
 21
176.74695975519199
 31
0.0
  0
LINE
  5
8B5
  8
0
  6
CONTINUOUS
 10
198.8119720664551
 20
185.37586996648909
 30
0.0
 11
192.45382770023679
 21
176.74695975519199
 31
0.0
  0
LINE
  5
8B6
  8
0
  6
CONTINUOUS
 10
200.05412193184421
 20
185.37586996648909
 30
0.0
 11
193.69597756562601
 21
176.74695975519199
 31
0.0
  0
LINE
  5
8B7
  8
0
  6
CONTINUOUS
 10
91.054121931846637
 20
185.37586996648909
 30
0.0
 11
97.412266298065546
 21
176.74695975519199
 31
0.0
  0
LINE
  5
8B8
  8
0
  6
CONTINUOUS
 10
92.296271797236685
 20
185.37586996648909
 30
0.0
 11
98.654416163455636
 21
176.74695975519199
 31
0.0
  0
LINE
  5
8B9
  8
0
  6
CONTINUOUS
 10
-45.188027933545293
 20
185.37586996648909
 30
0.0
 11
-51.546172299763391
 21
176.74695975519199
 31
0.0
  0
LINE
  5
8BA
  8
0
  6
CONTINUOUS
 10
-43.945878068156027
 20
185.37586996648909
 30
0.0
 11
-50.304022434374232
 21
176.74695975519199
 31
0.0
  0
LINE
  5
8BB
  8
0
  6
CONTINUOUS
 10
-152.94587806815369
 20
185.37586996648909
 30
0.0
 11
-146.58773370193481
 21
176.74695975519199
 31
0.0
  0
LINE
  5
8BC
  8
0
  6
CONTINUOUS
 10
-151.7037282027635
 20
185.37586996648909
 30
0.0
 11
-145.34558383654471
 21
176.74695975519199
 31
0.0
  0
LINE
  5
8BD
  8
0
  6
CONTINUOUS
 10
435.56516888247307
 20
176.78508756696789
 30
0.0
 11
435.05973233825722
 21
176.44958742317161
 31
0.0
  0
LINE
  5
8BE
  8
0
  6
CONTINUOUS
 10
436.98530983838452
 20
176.78508756696789
 30
0.0
 11
436.66261206668901
 21
176.44958742317161
 31
0.0
  0
LINE
  5
8BF
  8
0
  6
CONTINUOUS
 10
435.05973233825722
 20
176.44958742317161
 30
0.0
 11
434.36664337566498
 21
176.1830252313151
 31
0.0
  0
LINE
  5
8C0
  8
0
  6
CONTINUOUS
 10
436.66261206668901
 20
176.44958742317161
 30
0.0
 11
436.40622163908142
 21
176.1830252313151
 31
0.0
  0
LINE
  5
8C1
  8
0
  6
CONTINUOUS
 10
434.36664337566498
 20
176.1830252313151
 30
0.0
 11
433.94867638350382
 21
176.09248017533719
 31
0.0
  0
LINE
  5
8C2
  8
0
  6
CONTINUOUS
 10
436.40622163908142
 20
176.1830252313151
 30
0.0
 11
436.31913169786259
 21
176.09248017533719
 31
0.0
  0
LINE
  5
8C3
  8
0
  6
CONTINUOUS
 10
341.41226629806567
 20
176.74695975519199
 30
0.0
 11
342.05412193184611
 21
175.87586996649
 31
0.0
  0
LINE
  5
8C4
  8
0
  6
CONTINUOUS
 10
342.65441616345578
 20
176.74695975519199
 30
0.0
 11
346.44931983277132
 21
175.87586996649
 31
0.0
  0
LINE
  5
8C5
  8
0
  6
CONTINUOUS
 10
192.4538277002346
 20
176.74695975519199
 30
0.0
 11
188.6404807442504
 21
175.87586996649
 31
0.0
  0
LINE
  5
8C6
  8
0
  6
CONTINUOUS
 10
193.69597756562601
 20
176.74695975519199
 30
0.0
 11
193.05412193184571
 21
175.87586996649
 31
0.0
  0
LINE
  5
8C7
  8
0
  6
CONTINUOUS
 10
97.412266298065546
 20
176.74695975519199
 30
0.0
 11
98.054121931845927
 21
175.87586996649
 31
0.0
  0
LINE
  5
8C8
  8
0
  6
CONTINUOUS
 10
98.654416163456872
 20
176.74695975519199
 30
0.0
 11
102.4677631194412
 21
175.87586996649
 31
0.0
  0
LINE
  5
8C9
  8
0
  6
CONTINUOUS
 10
-51.546172299768777
 20
176.74695975519199
 30
0.0
 11
-55.359519255753142
 21
175.87586996649
 31
0.0
  0
LINE
  5
8CA
  8
0
  6
CONTINUOUS
 10
-50.304022434374232
 20
176.74695975519199
 30
0.0
 11
-50.945878068154549
 21
175.87586996649
 31
0.0
  0
LINE
  5
8CB
  8
0
  6
CONTINUOUS
 10
-146.58773370193481
 20
176.74695975519199
 30
0.0
 11
-145.9458780681544
 21
175.87586996649
 31
0.0
  0
LINE
  5
8CC
  8
0
  6
CONTINUOUS
 10
-145.3455838365403
 20
176.74695975519199
 30
0.0
 11
-141.53223688055581
 21
175.87586996649
 31
0.0
  0
LINE
  5
8CD
  8
0
  6
CONTINUOUS
 10
433.94867638350382
 20
176.09248017533719
 30
0.0
 11
431.49538861208629
 21
175.5610193596298
 31
0.0
  0
LINE
  5
8CE
  8
0
  6
CONTINUOUS
 10
436.31913169786259
 20
176.09248017533719
 30
0.0
 11
435.51847714362691
 21
175.5610193596298
 31
0.0
  0
LINE
  5
8CF
  8
0
  6
CONTINUOUS
 10
431.49538861208629
 20
175.5610193596298
 30
0.0
 11
429.90299819793597
 21
175.2160565231093
 31
0.0
  0
LINE
  5
8D0
  8
0
  6
CONTINUOUS
 10
435.51847714362691
 20
175.5610193596298
 30
0.0
 11
434.62153848615333
 21
175.2160565231093
 31
0.0
  0
LINE
  5
8D1
  8
0
  6
CONTINUOUS
 10
342.05412193184611
 20
175.87586996649
 30
0.0
 11
353.2924630149746
 21
173.27501336653489
 31
0.0
  0
LINE
  5
8D2
  8
0
  6
CONTINUOUS
 10
346.44931983277132
 20
175.87586996649
 30
0.0
 11
357.7799546106632
 21
173.27501336653489
 31
0.0
  0
LINE
  5
8D3
  8
0
  6
CONTINUOUS
 10
188.6404807442504
 20
175.87586996649
 30
0.0
 11
176.9695734204804
 21
173.20986335550771
 31
0.0
  0
LINE
  5
8D4
  8
0
  6
CONTINUOUS
 10
193.05412193184469
 20
175.87586996649
 30
0.0
 11
181.4697775009235
 21
173.20986335550771
 31
0.0
  0
LINE
  5
8D5
  8
0
  6
CONTINUOUS
 10
98.054121931846652
 20
175.87586996649
 30
0.0
 11
109.6384663627681
 21
173.20986335550771
 31
0.0
  0
LINE
  5
8D6
  8
0
  6
CONTINUOUS
 10
102.4677631194412
 20
175.87586996649
 30
0.0
 11
114.13867044321189
 21
173.20986335550771
 31
0.0
  0
LINE
  5
8D7
  8
0
  6
CONTINUOUS
 10
-55.359519255753142
 20
175.87586996649
 30
0.0
 11
-67.030426579523805
 21
173.20986335550771
 31
0.0
  0
LINE
  5
8D8
  8
0
  6
CONTINUOUS
 10
-50.945878068158663
 20
175.87586996649
 30
0.0
 11
-62.530222499080601
 21
173.20986335550771
 31
0.0
  0
LINE
  5
8D9
  8
0
  6
CONTINUOUS
 10
-145.94587806815031
 20
175.87586996649
 30
0.0
 11
-134.3615336372286
 21
173.20986335550771
 31
0.0
  0
LINE
  5
8DA
  8
0
  6
CONTINUOUS
 10
-141.53223688055581
 20
175.87586996649
 30
0.0
 11
-129.86132955678471
 21
173.20986335550771
 31
0.0
  0
LINE
  5
8DB
  8
0
  6
CONTINUOUS
 10
429.90299819793597
 20
175.2160565231093
 30
0.0
 11
419.1995525860026
 21
172.89734691143099
 31
0.0
  0
LINE
  5
8DC
  8
0
  6
CONTINUOUS
 10
434.62153848615333
 20
175.2160565231093
 30
0.0
 11
423.90940386455969
 21
172.89734691143099
 31
0.0
  0
LINE
  5
8DD
  8
0
  6
CONTINUOUS
 10
353.2924630149746
 20
173.27501336653489
 30
0.0
 11
357.3162204050073
 21
172.34380689334861
 31
0.0
  0
LINE
  5
8DE
  8
0
  6
CONTINUOUS
 10
357.7799546106632
 20
173.27501336653489
 30
0.0
 11
364.47618105061531
 21
172.34380689334861
 31
0.0
  0
LINE
  5
8DF
  8
0
  6
CONTINUOUS
 10
176.96957342047941
 20
173.20986335550771
 30
0.0
 11
170.0353665935194
 21
172.26724102636081
 31
0.0
  0
LINE
  5
8E0
  8
0
  6
CONTINUOUS
 10
181.4697775009235
 20
173.20986335550771
 30
0.0
 11
177.37389053495261
 21
172.26724102636081
 31
0.0
  0
LINE
  5
8E1
  8
0
  6
CONTINUOUS
 10
109.6384663627681
 20
173.20986335550771
 30
0.0
 11
113.7343533287392
 21
172.26724102636081
 31
0.0
  0
LINE
  5
8E2
  8
0
  6
CONTINUOUS
 10
114.13867044321189
 20
173.20986335550771
 30
0.0
 11
121.0728772701724
 21
172.26724102636081
 31
0.0
  0
LINE
  5
8E3
  8
0
  6
CONTINUOUS
 10
-67.03042657952787
 20
173.20986335550771
 30
0.0
 11
-73.964633406487977
 21
172.26724102636081
 31
0.0
  0
LINE
  5
8E4
  8
0
  6
CONTINUOUS
 10
-62.530222499080601
 20
173.20986335550771
 30
0.0
 11
-66.626109465051812
 21
172.26724102636081
 31
0.0
  0
LINE
  5
8E5
  8
0
  6
CONTINUOUS
 10
-134.3615336372286
 20
173.20986335550771
 30
0.0
 11
-130.26564667125751
 21
172.26724102636081
 31
0.0
  0
LINE
  5
8E6
  8
0
  6
CONTINUOUS
 10
-129.86132955678181
 20
173.20986335550771
 30
0.0
 11
-122.92712272982089
 21
172.26724102636081
 31
0.0
  0
LINE
  5
8E7
  8
0
  6
CONTINUOUS
 10
419.1995525860026
 20
172.89734691143099
 30
0.0
 11
411.3336101749594
 21
171.90191542105251
 31
0.0
  0
LINE
  5
8E8
  8
0
  6
CONTINUOUS
 10
423.90940386455969
 20
172.89734691143099
 30
0.0
 11
419.3106407948755
 21
171.90191542105251
 31
0.0
  0
LINE
  5
8E9
  8
0
  6
CONTINUOUS
 10
357.3162204050073
 20
172.34380689334861
 30
0.0
 11
365.78183897262869
 21
171.15385901707791
 31
0.0
  0
LINE
  5
8EA
  8
0
  6
CONTINUOUS
 10
364.47618105061531
 20
172.34380689334861
 30
0.0
 11
373.03299488373221
 21
171.15385901707791
 31
0.0
  0
LINE
  5
8EB
  8
0
  6
CONTINUOUS
 10
170.0353665935194
 20
172.26724102636081
 30
0.0
 11
161.35762116097541
 21
171.08760551569711
 31
0.0
  0
LINE
  5
8EC
  8
0
  6
CONTINUOUS
 10
177.37389053495261
 20
172.26724102636081
 30
0.0
 11
168.75946387343009
 21
171.08760551569711
 31
0.0
  0
LINE
  5
8ED
  8
0
  6
CONTINUOUS
 10
113.7343533287392
 20
172.26724102636081
 30
0.0
 11
122.34877999026151
 21
171.08760551569711
 31
0.0
  0
LINE
  5
8EE
  8
0
  6
CONTINUOUS
 10
121.0728772701724
 20
172.26724102636081
 30
0.0
 11
129.75062270271701
 21
171.08760551569711
 31
0.0
  0
LINE
  5
8EF
  8
0
  6
CONTINUOUS
 10
-73.964633406487977
 20
172.26724102636081
 30
0.0
 11
-82.642378839032091
 21
171.08760551569711
 31
0.0
  0
LINE
  5
8F0
  8
0
  6
CONTINUOUS
 10
-66.626109465054839
 20
172.26724102636081
 30
0.0
 11
-75.240536126577325
 21
171.08760551569711
 31
0.0
  0
LINE
  5
8F1
  8
0
  6
CONTINUOUS
 10
-130.2656466712547
 20
172.26724102636081
 30
0.0
 11
-121.6512200097319
 21
171.08760551569711
 31
0.0
  0
LINE
  5
8F2
  8
0
  6
CONTINUOUS
 10
-122.92712272982089
 20
172.26724102636081
 30
0.0
 11
-114.2493772972757
 21
171.08760551569711
 31
0.0
  0
LINE
  5
8F3
  8
0
  6
CONTINUOUS
 10
411.3336101749594
 20
171.90191542105251
 30
0.0
 11
403.9215809074596
 21
170.96392643576351
 31
0.0
  0
LINE
  5
8F4
  8
0
  6
CONTINUOUS
 10
419.3106407948755
 20
171.90191542105251
 30
0.0
 11
411.86942864540163
 21
170.96392643576351
 31
0.0
  0
LINE
  5
8F5
  8
0
  6
CONTINUOUS
 10
365.78183897262869
 20
171.15385901707791
 30
0.0
 11
367.13307192916062
 21
170.96392643576351
 31
0.0
  0
LINE
  5
8F6
  8
0
  6
CONTINUOUS
 10
373.03299488373221
 20
171.15385901707791
 30
0.0
 11
376.83794595134719
 21
170.96392643576351
 31
0.0
  0
LINE
  5
8F7
  8
0
  6
CONTINUOUS
 10
411.86942864540163
 20
170.96392643576351
 30
0.0
 11
407.26188243725778
 21
170.38313025556661
 31
0.0
  0
LINE
  5
8F8
  8
0
  6
CONTINUOUS
 10
367.13307192916062
 20
170.96392643576351
 30
0.0
 11
371.26501671861462
 21
170.38313025556661
 31
0.0
  0
LINE
  5
8F9
  8
0
  6
CONTINUOUS
 10
-82.642378839049982
 20
171.08760551569711
 30
0.0
 11
-98.380109695645643
 21
170.38313025556661
 31
0.0
  0
LINE
  5
8FA
  8
0
  6
CONTINUOUS
 10
-75.240536126577325
 20
171.08760551569711
 30
0.0
 11
-80.385049332895875
 21
170.38313025556661
 31
0.0
  0
LINE
  5
8FB
  8
0
  6
CONTINUOUS
 10
-121.6512200097319
 20
171.08760551569711
 30
0.0
 11
-116.5067068034131
 21
170.38313025556661
 31
0.0
  0
LINE
  5
8FC
  8
0
  6
CONTINUOUS
 10
-114.2493772972595
 20
171.08760551569711
 30
0.0
 11
-98.511646440660996
 21
170.38313025556661
 31
0.0
  0
LINE
  5
8FD
  8
0
  6
CONTINUOUS
 10
161.35762116097251
 20
171.08760551569711
 30
0.0
 11
145.55412193184691
 21
170.38018623576031
 31
0.0
  0
LINE
  5
8FE
  8
0
  6
CONTINUOUS
 10
168.75946387343009
 20
171.08760551569711
 30
0.0
 11
163.5934516172085
 21
170.38018623576031
 31
0.0
  0
LINE
  5
8FF
  8
0
  6
CONTINUOUS
 10
122.34877999026151
 20
171.08760551569711
 30
0.0
 11
127.5147922464832
 21
170.38018623576031
 31
0.0
  0
LINE
  5
900
  8
0
  6
CONTINUOUS
 10
129.75062270271701
 20
171.08760551569711
 30
0.0
 11
145.55412193184691
 21
170.38018623576031
 31
0.0
  0
LINE
  5
901
  8
0
  6
CONTINUOUS
 10
-80.385049332895875
 20
170.38313025556661
 30
0.0
 11
-80.406548382799002
 21
170.38018623576031
 31
0.0
  0
LINE
  5
902
  8
0
  6
CONTINUOUS
 10
-116.5067068034131
 20
170.38313025556661
 30
0.0
 11
-116.48520775351
 21
170.38018623576031
 31
0.0
  0
LINE
  5
903
  8
0
  6
CONTINUOUS
 10
371.26501671861462
 20
170.38313025556661
 30
0.0
 11
372.7092827305047
 21
170.1801207223717
 31
0.0
  0
LINE
  5
904
  8
0
  6
CONTINUOUS
 10
407.26188243725778
 20
170.38313025556661
 30
0.0
 11
405.65137631345391
 21
170.1801207223717
 31
0.0
  0
LINE
  5
905
  8
0
  6
CONTINUOUS
 10
127.5147922464832
 20
170.38018623576031
 30
0.0
 11
129.54581495686679
 21
170.10206366228309
 31
0.0
  0
LINE
  5
906
  8
0
  6
CONTINUOUS
 10
163.5934516172085
 20
170.38018623576031
 30
0.0
 11
161.56242890682489
 21
170.10206366228309
 31
0.0
  0
LINE
  5
907
  8
0
  6
CONTINUOUS
 10
-116.48520775351
 20
170.38018623576031
 30
0.0
 11
-114.4541850431262
 21
170.10206366228309
 31
0.0
  0
LINE
  5
908
  8
0
  6
CONTINUOUS
 10
-80.406548382799002
 20
170.38018623576031
 30
0.0
 11
-82.437571093182655
 21
170.10206366228309
 31
0.0
  0
LINE
  5
909
  8
0
  6
CONTINUOUS
 10
403.88829893850811
 20
169.95787908691071
 30
0.0
 11
388.2939109126948
 21
169.38437948712129
 31
0.0
  0
LINE
  5
90A
  8
0
  6
CONTINUOUS
 10
388.2939109126948
 20
169.38437948712129
 30
0.0
 11
377.06189524048978
 21
169.95787908691071
 31
0.0
  0
LINE
  5
90B
  8
0
  6
CONTINUOUS
 10
372.7092827305047
 20
170.1801207223717
 30
0.0
 11
377.06189524048978
 21
169.95787908691071
 31
0.0
  0
LINE
  5
90C
  8
0
  6
CONTINUOUS
 10
405.65137631345391
 20
170.1801207223717
 30
0.0
 11
403.88829893850811
 21
169.95787908691071
 31
0.0
  0
LINE
  5
90D
  8
0
  6
CONTINUOUS
 10
-98.356232692500996
 20
169.38437948712129
 30
0.0
 11
-98.445878068176512
 21
169.38033787425721
 31
0.0
  0
LINE
  5
90E
  8
0
  6
CONTINUOUS
 10
-98.445878068176512
 20
169.38033787425721
 30
0.0
 11
-98.535523443807946
 21
169.38437948712129
 31
0.0
  0
LINE
  5
90F
  8
0
  6
CONTINUOUS
 10
145.6437673075213
 20
169.38437948712129
 30
0.0
 11
145.55412193184571
 21
169.38033787425721
 31
0.0
  0
LINE
  5
910
  8
0
  6
CONTINUOUS
 10
145.55412193184571
 20
169.38033787425721
 30
0.0
 11
145.46447655617021
 21
169.38437948712129
 31
0.0
  0
LINE
  5
911
  8
0
  6
CONTINUOUS
 10
129.54581495686679
 20
170.10206366228309
 30
0.0
 11
145.46447655617021
 21
169.38437948712129
 31
0.0
  0
LINE
  5
912
  8
0
  6
CONTINUOUS
 10
161.56242890682489
 20
170.10206366228309
 30
0.0
 11
145.6437673075213
 21
169.38437948712129
 31
0.0
  0
LINE
  5
913
  8
0
  6
CONTINUOUS
 10
-114.454185043111
 20
170.10206366228309
 30
0.0
 11
-98.535523443807946
 21
169.38437948712129
 31
0.0
  0
LINE
  5
914
  8
0
  6
CONTINUOUS
 10
-82.437571093197846
 20
170.10206366228309
 30
0.0
 11
-98.356232692500996
 21
169.38437948712129
 31
0.0
  0
ENDBLK
  5
916
  8
0
  0
ENDSEC
  0
SECTION
  2
ENTITIES
  0
CIRCLE
  5
246
  8
0
 10
-156.41654338549449
 20
187.10690435900401
 30
0.0
 40
2.5
1001
REVIT
1002
{
1070
     1
1000
538435
1002
}
1002
{
1070
     5
1000
515860
1002
}
1002
{
1070
     2
1000
-2005028
1002
}
  0
INSERT
  5
247
  8
0
  6
CONTINUOUS
  2
*U22
 10
0.0
 20
0.0
 30
0.0
1001
REVIT
1002
{
1070
     1
1000
538435
1002
}
1002
{
1070
     5
1000
515860
1002
}
1002
{
1070
     2
1000
-2005028
1002
}
1001
ACAD
1002
{
1000
R14_HATCH_DATA
1000
247
1011
1.0
1021
0.0
1031
0.0
1021
0.0
1031
0.0
1011
0.0
1021
0.0
1031
0.0
1021
1.0
1031
0.0
1011
0.0
1021
0.0
1031
0.0
1021
0.0
1031
1.0
1040
0.0
1010
0.0
1020
0.0
1030
1.0
1000
SOLID
1070
     1
1070
     0
1071
        1
1071
        0
1071
        1
1070
     2
1040
-156.41654338549449
1040
187.10690435900401
1040
2.5
1040
0.0
1040
6.2831853071795862
1070
     1
1071
        0
1070
     0
1070
     1
1071
        1
1040
0.0
1040
0.0
1040
0.0
1002
}
  0
LINE
  5
248
  8
0
 10
-156.41654338549449
 20
267.66040521256718
 30
0.0
 11
-239.82704577405889
 21
267.66040521256718
 31
0.0
1001
REVIT
1002
{
1070
     1
1000
538435
1002
}
1002
{
1070
     5
1000
515860
1002
}
1002
{
1070
     2
1000
-2005028
1002
}
  0
LINE
  5
249
  8
0
 10
-156.41654338549449
 20
187.10690435900401
 30
0.0
 11
-156.41654338549449
 21
267.66040521256718
 31
0.0
1001
REVIT
1002
{
1070
     1
1000
538435
1002
}
1002
{
1070
     5
1000
515860
1002
}
1002
{
1070
     2
1000
-2005028
1002
}
  0
INSERT
  5
24B
  8
0
  2
*U23
 10
0.0
 20
0.0
 30
0.0
  0
INSERT
  5
24D
  8
0
  2
*U24
 10
0.0
 20
0.0
 30
0.0
  0
CIRCLE
  5
24E
  8
0
 10
411.76202863496962
 20
206.65460540159771
 30
0.0
 40
2.4999999999999432
1001
REVIT
1002
{
1070
     1
1000
538453
1002
}
1002
{
1070
     5
1000
233011
1002
}
1002
{
1070
     2
1000
-2005028
1002
}
  0
INSERT
  5
24F
  8
0
  6
CONTINUOUS
  2
*U25
 10
0.0
 20
0.0
 30
0.0
1001
REVIT
1002
{
1070
     1
1000
538453
1002
}
1002
{
1070
     5
1000
233011
1002
}
1002
{
1070
     2
1000
-2005028
1002
}
1001
ACAD
1002
{
1000
R14_HATCH_DATA
1000
24F
1011
1.0
1021
0.0
1031
0.0
1021
0.0
1031
0.0
1011
0.0
1021
0.0
1031
0.0
1021
1.0
1031
0.0
1011
0.0
1021
0.0
1031
0.0
1021
0.0
1031
1.0
1040
0.0
1010
0.0
1020
0.0
1030
1.0
1000
SOLID
1070
     1
1070
     0
1071
        1
1071
        0
1071
        1
1070
     2
1040
411.76202863496962
1040
206.65460540159771
1040
2.4999999999999432
1040
0.0
1040
6.2831853071795862
1070
     1
1071
        0
1070
     0
1070
     1
1071
        1
1040
0.0
1040
0.0
1040
0.0
1002
}
  0
LINE
  5
250
  8
0
 10
411.76202863496962
 20
335.88052952567199
 30
0.0
 11
601.89550477534169
 21
335.8805295256721
 31
0.0
1001
REVIT
1002
{
1070
     1
1000
538453
1002
}
1002
{
1070
     5
1000
233011
1002
}
1002
{
1070
     2
1000
-2005028
1002
}
  0
LINE
  5
251
  8
0
 10
411.76202863496962
 20
206.65460540159771
 30
0.0
 11
411.76202863496962
 21
335.88052952567199
 31
0.0
1001
REVIT
1002
{
1070
     1
1000
538453
1002
}
1002
{
1070
     5
1000
233011
1002
}
1002
{
1070
     2
1000
-2005028
1002
}
  0
INSERT
  5
252
  8
0
  2
*U26
 10
0.0
 20
0.0
 30
0.0
  0
CIRCLE
  5
253
  8
0
 10
-149.82284575045739
 20
121.3128967476184
 30
0.0
 40
2.5
1001
REVIT
1002
{
1070
     1
1000
617054
1002
}
1002
{
1070
     5
1000
233013
1002
}
1002
{
1070
     2
1000
-2005028
1002
}
  0
INSERT
  5
254
  8
0
  6
CONTINUOUS
  2
*U27
 10
0.0
 20
0.0
 30
0.0
1001
REVIT
1002
{
1070
     1
1000
617054
1002
}
1002
{
1070
     5
1000
233013
1002
}
1002
{
1070
     2
1000
-2005028
1002
}
1001
ACAD
1002
{
1000
R14_HATCH_DATA
1000
254
1011
1.0
1021
0.0
1031
0.0
1021
0.0
1031
0.0
1011
0.0
1021
0.0
1031
0.0
1021
1.0
1031
0.0
1011
0.0
1021
0.0
1031
0.0
1021
0.0
1031
1.0
1040
0.0
1010
0.0
1020
0.0
1030
1.0
1000
SOLID
1070
     1
1070
     0
1071
        1
1071
        0
1071
        1
1070
     2
1040
-149.82284575045739
1040
121.3128967476184
1040
2.5
1040
0.0
1040
6.2831853071795862
1070
     1
1071
        0
1070
     0
1070
     1
1071
        1
1040
0.0
1040
0.0
1040
0.0
1002
}
  0
LINE
  5
255
  8
0
 10
-149.82284575045739
 20
79.501262015643761
 30
0.0
 11
-297.82704577405889
 21
79.501262015643761
 31
0.0
1001
REVIT
1002
{
1070
     1
1000
617054
1002
}
1002
{
1070
     5
1000
233013
1002
}
1002
{
1070
     2
1000
-2005028
1002
}
  0
LINE
  5
256
  8
0
 10
-149.82284575045739
 20
121.3128967476184
 30
0.0
 11
-149.82284575045739
 21
79.501262015643761
 31
0.0
1001
REVIT
1002
{
1070
     1
1000
617054
1002
}
1002
{
1070
     5
1000
233013
1002
}
1002
{
1070
     2
1000
-2005028
1002
}
  0
INSERT
  5
257
  8
0
  2
*U28
 10
0.0
 20
0.0
 30
0.0
  0
CIRCLE
  5
258
  8
0
 10
-96.528263785174957
 20
146.11250000000251
 30
0.0
 40
2.5000000000000142
1001
REVIT
1002
{
1070
     1
1000
617055
1002
}
1002
{
1070
     5
1000
233013
1002
}
1002
{
1070
     2
1000
-2005028
1002
}
  0
INSERT
  5
259
  8
0
  6
CONTINUOUS
  2
*U29
 10
0.0
 20
0.0
 30
0.0
1001
REVIT
1002
{
1070
     1
1000
617055
1002
}
1002
{
1070
     5
1000
233013
1002
}
1002
{
1070
     2
1000
-2005028
1002
}
1001
ACAD
1002
{
1000
R14_HATCH_DATA
1000
259
1011
1.0
1021
0.0
1031
0.0
1021
0.0
1031
0.0
1011
0.0
1021
0.0
1031
0.0
1021
1.0
1031
0.0
1011
0.0
1021
0.0
1031
0.0
1021
0.0
1031
1.0
1040
0.0
1010
0.0
1020
0.0
1030
1.0
1000
SOLID
1070
     1
1070
     0
1071
        1
1071
        0
1071
        1
1070
     2
1040
-96.528263785174957
1040
146.11250000000251
1040
2.5000000000000142
1040
0.0
1040
6.2831853071795862
1070
     1
1071
        0
1070
     0
1070
     1
1071
        1
1040
0.0
1040
0.0
1040
0.0
1002
}
  0
LINE
  5
25A
  8
0
 10
-96.528263785174957
 20
146.11250000000251
 30
0.0
 11
-316.20204577405889
 21
146.11250000000251
 31
0.0
1001
REVIT
1002
{
1070
     1
1000
617055
1002
}
1002
{
1070
     5
1000
233013
1002
}
1002
{
1070
     2
1000
-2005028
1002
}
  0
INSERT
  5
25B
  8
0
  2
*U30
 10
0.0
 20
0.0
 30
0.0
  0
CIRCLE
  5
25C
  8
0
 10
394.68212937990307
 20
-6.9864553579224378
 30
0.0
 40
2.4999999999999969
1001
REVIT
1002
{
1070
     1
1000
617057
1002
}
1002
{
1070
     5
1000
233013
1002
}
1002
{
1070
     2
1000
-2005028
1002
}
  0
INSERT
  5
25D
  8
0
  6
CONTINUOUS
  2
*U31
 10
0.0
 20
0.0
 30
0.0
1001
REVIT
1002
{
1070
     1
1000
617057
1002
}
1002
{
1070
     5
1000
233013
1002
}
1002
{
1070
     2
1000
-2005028
1002
}
1001
ACAD
1002
{
1000
R14_HATCH_DATA
1000
25D
1011
1.0
1021
0.0
1031
0.0
1021
0.0
1031
0.0
1011
0.0
1021
0.0
1031
0.0
1021
1.0
1031
0.0
1011
0.0
1021
0.0
1031
0.0
1021
0.0
1031
1.0
1040
0.0
1010
0.0
1020
0.0
1030
1.0
1000
SOLID
1070
     1
1070
     0
1071
        1
1071
        0
1071
        1
1070
     2
1040
394.68212937990307
1040
-6.9864553579224378
1040
2.4999999999999969
1040
0.0
1040
6.2831853071795862
1070
     1
1071
        0
1070
     0
1070
     1
1071
        1
1040
0.0
1040
0.0
1040
0.0
1002
}
  0
LINE
  5
25E
  8
0
 10
394.68212937990307
 20
-162.9930847885594
 30
0.0
 11
606.8828562433099
 21
-162.9930847885594
 31
0.0
1001
REVIT
1002
{
1070
     1
1000
617057
1002
}
1002
{
1070
     5
1000
233013
1002
}
1002
{
1070
     2
1000
-2005028
1002
}
  0
LINE
  5
25F
  8
0
 10
394.68212937990307
 20
-6.9864553579224378
 30
0.0
 11
394.68212937990307
 21
-162.9930847885594
 31
0.0
1001
REVIT
1002
{
1070
     1
1000
617057
1002
}
1002
{
1070
     5
1000
233013
1002
}
1002
{
1070
     2
1000
-2005028
1002
}
  0
INSERT
  5
260
  8
0
  2
*U32
 10
0.0
 20
0.0
 30
0.0
  0
CIRCLE
  5
261
  8
0
 10
474.14739489672093
 20
246.15351470146669
 30
0.0
 40
2.5000000000000071
1001
REVIT
1002
{
1070
     1
1000
617058
1002
}
1002
{
1070
     5
1000
233013
1002
}
1002
{
1070
     2
1000
-2005028
1002
}
  0
INSERT
  5
262
  8
0
  6
CONTINUOUS
  2
*U33
 10
0.0
 20
0.0
 30
0.0
1001
REVIT
1002
{
1070
     1
1000
617058
1002
}
1002
{
1070
     5
1000
233013
1002
}
1002
{
1070
     2
1000
-2005028
1002
}
1001
ACAD
1002
{
1000
R14_HATCH_DATA
1000
262
1011
1.0
1021
0.0
1031
0.0
1021
0.0
1031
0.0
1011
0.0
1021
0.0
1031
0.0
1021
1.0
1031
0.0
1011
0.0
1021
0.0
1031
0.0
1021
0.0
1031
1.0
1040
0.0
1010
0.0
1020
0.0
1030
1.0
1000
SOLID
1070
     1
1070
     0
1071
        1
1071
        0
1071
        1
1070
     2
1040
474.14739489672093
1040
246.15351470146669
1040
2.5000000000000071
1040
0.0
1040
6.2831853071795862
1070
     1
1071
        0
1070
     0
1070
     1
1071
        1
1040
0.0
1040
0.0
1040
0.0
1002
}
  0
LINE
  5
263
  8
0
 10
538.02144983603125
 20
269.62883196145629
 30
0.0
 11
601.89550477534135
 21
269.62883196145629
 31
0.0
1001
REVIT
1002
{
1070
     1
1000
617058
1002
}
1002
{
1070
     5
1000
233013
1002
}
1002
{
1070
     2
1000
-2005028
1002
}
  0
LINE
  5
264
  8
0
 10
474.14739489672093
 20
246.15351470146669
 30
0.0
 11
538.02144983603125
 21
269.62883196145629
 31
0.0
1001
REVIT
1002
{
1070
     1
1000
617058
1002
}
1002
{
1070
     5
1000
233013
1002
}
1002
{
1070
     2
1000
-2005028
1002
}
  0
INSERT
  5
265
  8
0
  2
*U34
 10
0.0
 20
0.0
 30
0.0
  0
CIRCLE
  5
266
  8
0
 10
-138.3228457504575
 20
35.41466094986594
 30
0.0
 40
2.5
1001
REVIT
1002
{
1070
     1
1000
617060
1002
}
1002
{
1070
     5
1000
233013
1002
}
1002
{
1070
     2
1000
-2005028
1002
}
  0
INSERT
  5
267
  8
0
  6
CONTINUOUS
  2
*U35
 10
0.0
 20
0.0
 30
0.0
1001
REVIT
1002
{
1070
     1
1000
617060
1002
}
1002
{
1070
     5
1000
233013
1002
}
1002
{
1070
     2
1000
-2005028
1002
}
1001
ACAD
1002
{
1000
R14_HATCH_DATA
1000
267
1011
1.0
1021
0.0
1031
0.0
1021
0.0
1031
0.0
1011
0.0
1021
0.0
1031
0.0
1021
1.0
1031
0.0
1011
0.0
1021
0.0
1031
0.0
1021
0.0
1031
1.0
1040
0.0
1010
0.0
1020
0.0
1030
1.0
1000
SOLID
1070
     1
1070
     0
1071
        1
1071
        0
1071
        1
1070
     2
1040
-138.3228457504575
1040
35.41466094986594
1040
2.5
1040
0.0
1040
6.2831853071795862
1070
     1
1071
        0
1070
     0
1070
     1
1071
        1
1040
0.0
1040
0.0
1040
0.0
1002
}
  0
LINE
  5
268
  8
0
 10
-138.3228457504575
 20
35.41466094986594
 30
0.0
 11
-322.07704577405889
 21
35.41466094986594
 31
0.0
1001
REVIT
1002
{
1070
     1
1000
617060
1002
}
1002
{
1070
     5
1000
233013
1002
}
1002
{
1070
     2
1000
-2005028
1002
}
  0
INSERT
  5
269
  8
0
  2
*U36
 10
0.0
 20
0.0
 30
0.0
  0
CIRCLE
  5
26A
  8
0
 10
486.92870474013603
 20
-6.9864553579223534
 30
0.0
 40
2.4999999999999432
1001
REVIT
1002
{
1070
     1
1000
617061
1002
}
1002
{
1070
     5
1000
233013
1002
}
1002
{
1070
     2
1000
-2005028
1002
}
  0
INSERT
  5
26B
  8
0
  6
CONTINUOUS
  2
*U37
 10
0.0
 20
0.0
 30
0.0
1001
REVIT
1002
{
1070
     1
1000
617061
1002
}
1002
{
1070
     5
1000
233013
1002
}
1002
{
1070
     2
1000
-2005028
1002
}
1001
ACAD
1002
{
1000
R14_HATCH_DATA
1000
26B
1011
1.0
1021
0.0
1031
0.0
1021
0.0
1031
0.0
1011
0.0
1021
0.0
1031
0.0
1021
1.0
1031
0.0
1011
0.0
1021
0.0
1031
0.0
1021
0.0
1031
1.0
1040
0.0
1010
0.0
1020
0.0
1030
1.0
1000
SOLID
1070
     1
1070
     0
1071
        1
1071
        0
1071
        1
1070
     2
1040
486.92870474013603
1040
-6.9864553579223534
1040
2.4999999999999432
1040
0.0
1040
6.2831853071795862
1070
     1
1071
        0
1070
     0
1070
     1
1071
        1
1040
0.0
1040
0.0
1040
0.0
1002
}
  0
LINE
  5
26C
  8
0
 10
486.92870474013603
 20
-118.342492575291
 30
0.0
 11
606.8828562433099
 21
-118.342492575291
 31
0.0
1001
REVIT
1002
{
1070
     1
1000
617061
1002
}
1002
{
1070
     5
1000
233013
1002
}
1002
{
1070
     2
1000
-2005028
1002
}
  0
LINE
  5
26D
  8
0
 10
486.92870474013603
 20
-6.9864553579223534
 30
0.0
 11
486.92870474013603
 21
-118.342492575291
 31
0.0
1001
REVIT
1002
{
1070
     1
1000
617061
1002
}
1002
{
1070
     5
1000
233013
1002
}
1002
{
1070
     2
1000
-2005028
1002
}
  0
INSERT
  5
26E
  8
0
  2
*U38
 10
0.0
 20
0.0
 30
0.0
  0
CIRCLE
  5
26F
  8
0
 10
-110.88824945980789
 20
109.5412044374014
 30
0.0
 40
2.5
1001
REVIT
1002
{
1070
     1
1000
617063
1002
}
1002
{
1070
     5
1000
233013
1002
}
1002
{
1070
     2
1000
-2005028
1002
}
  0
INSERT
  5
270
  8
0
  6
CONTINUOUS
  2
*U39
 10
0.0
 20
0.0
 30
0.0
1001
REVIT
1002
{
1070
     1
1000
617063
1002
}
1002
{
1070
     5
1000
233013
1002
}
1002
{
1070
     2
1000
-2005028
1002
}
1001
ACAD
1002
{
1000
R14_HATCH_DATA
1000
270
1011
1.0
1021
0.0
1031
0.0
1021
0.0
1031
0.0
1011
0.0
1021
0.0
1031
0.0
1021
1.0
1031
0.0
1011
0.0
1021
0.0
1031
0.0
1021
0.0
1031
1.0
1040
0.0
1010
0.0
1020
0.0
1030
1.0
1000
SOLID
1070
     1
1070
     0
1071
        1
1071
        0
1071
        1
1070
     2
1040
-110.88824945980789
1040
109.5412044374014
1040
2.5
1040
0.0
1040
6.2831853071795862
1070
     1
1071
        0
1070
     0
1070
     1
1071
        1
1040
0.0
1040
0.0
1040
0.0
1002
}
  0
LINE
  5
271
  8
0
 10
-110.88824945980789
 20
-88.433300316956931
 30
0.0
 11
-157.82704577405889
 21
-88.433300316956931
 31
0.0
1001
REVIT
1002
{
1070
     1
1000
617063
1002
}
1002
{
1070
     5
1000
233013
1002
}
1002
{
1070
     2
1000
-2005028
1002
}
  0
LINE
  5
272
  8
0
 10
-110.88824945980789
 20
109.5412044374014
 30
0.0
 11
-110.88824945980789
 21
-88.433300316956917
 31
0.0
1001
REVIT
1002
{
1070
     1
1000
617063
1002
}
1002
{
1070
     5
1000
233013
1002
}
1002
{
1070
     2
1000
-2005028
1002
}
  0
INSERT
  5
273
  8
0
  2
*U40
 10
0.0
 20
0.0
 30
0.0
  0
CIRCLE
  5
274
  8
0
 10
341.68087520199077
 20
126.1606806023194
 30
0.0
 40
2.5
1001
REVIT
1002
{
1070
     1
1000
617466
1002
}
1002
{
1070
     5
1000
233013
1002
}
1002
{
1070
     2
1000
-2005028
1002
}
  0
INSERT
  5
275
  8
0
  6
CONTINUOUS
  2
*U41
 10
0.0
 20
0.0
 30
0.0
1001
REVIT
1002
{
1070
     1
1000
617466
1002
}
1002
{
1070
     5
1000
233013
1002
}
1002
{
1070
     2
1000
-2005028
1002
}
1001
ACAD
1002
{
1000
R14_HATCH_DATA
1000
275
1011
1.0
1021
0.0
1031
0.0
1021
0.0
1031
0.0
1011
0.0
1021
0.0
1031
0.0
1021
1.0
1031
0.0
1011
0.0
1021
0.0
1031
0.0
1021
0.0
1031
1.0
1040
0.0
1010
0.0
1020
0.0
1030
1.0
1000
SOLID
1070
     1
1070
     0
1071
        1
1071
        0
1071
        1
1070
     2
1040
341.68087520199077
1040
126.1606806023194
1040
2.5
1040
0.0
1040
6.2831853071795862
1070
     1
1071
        0
1070
     0
1070
     1
1071
        1
1040
0.0
1040
0.0
1040
0.0
1002
}
  0
LINE
  5
276
  8
0
 10
341.68087520199077
 20
-210.51380766573439
 30
0.0
 11
606.8828562433099
 21
-210.51380766573439
 31
0.0
1001
REVIT
1002
{
1070
     1
1000
617466
1002
}
1002
{
1070
     5
1000
233013
1002
}
1002
{
1070
     2
1000
-2005028
1002
}
  0
LINE
  5
277
  8
0
 10
341.68087520199077
 20
126.1606806023194
 30
0.0
 11
341.68087520199077
 21
-210.51380766573439
 31
0.0
1001
REVIT
1002
{
1070
     1
1000
617466
1002
}
1002
{
1070
     5
1000
233013
1002
}
1002
{
1070
     2
1000
-2005028
1002
}
  0
INSERT
  5
278
  8
0
  2
*U42
 10
0.0
 20
0.0
 30
0.0
  0
CIRCLE
  5
279
  8
0
 10
529.87447955717244
 20
196.53024298918669
 30
0.0
 40
2.5
1001
REVIT
1002
{
1070
     1
1000
653792
1002
}
1002
{
1070
     5
1000
233013
1002
}
1002
{
1070
     2
1000
-2005028
1002
}
  0
INSERT
  5
27A
  8
0
  6
CONTINUOUS
  2
*U43
 10
0.0
 20
0.0
 30
0.0
1001
REVIT
1002
{
1070
     1
1000
653792
1002
}
1002
{
1070
     5
1000
233013
1002
}
1002
{
1070
     2
1000
-2005028
1002
}
1001
ACAD
1002
{
1000
R14_HATCH_DATA
1000
27A
1011
1.0
1021
0.0
1031
0.0
1021
0.0
1031
0.0
1011
0.0
1021
0.0
1031
0.0
1021
1.0
1031
0.0
1011
0.0
1021
0.0
1031
0.0
1021
0.0
1031
1.0
1040
0.0
1010
0.0
1020
0.0
1030
1.0
1000
SOLID
1070
     1
1070
     0
1071
        1
1071
        0
1071
        1
1070
     2
1040
529.87447955717244
1040
196.53024298918669
1040
2.5
1040
0.0
1040
6.2831853071795862
1070
     1
1071
        0
1070
     0
1070
     1
1071
        1
1040
0.0
1040
0.0
1040
0.0
1002
}
  0
LINE
  5
27B
  8
0
 10
529.87447955717244
 20
196.53024298918669
 30
0.0
 11
598.44535624330967
 21
196.53024298918669
 31
0.0
1001
REVIT
1002
{
1070
     1
1000
653792
1002
}
1002
{
1070
     5
1000
233013
1002
}
1002
{
1070
     2
1000
-2005028
1002
}
  0
INSERT
  5
27C
  8
0
  2
*U44
 10
0.0
 20
0.0
 30
0.0
  0
LINE
  5
2E1
  8
0
 10
-220.17162953024689
 20
-24.999999999999861
 30
0.0
 11
-220.17162953024669
 21
96.446006858400025
 31
0.0
  0
LINE
  5
2E2
  8
0
 10
-220.17162953024641
 20
225.00000000000011
 30
0.0
 11
-220.17162953024669
 21
103.5539931416002
 31
0.0
  0
LINE
  5
2E3
  8
0
 10
-220.17162953024689
 20
-24.999999999999861
 30
0.0
 11
-220.17162953024669
 21
96.446006858400025
 31
0.0
  0
LINE
  5
2E4
  8
0
 10
-220.17162953024669
 20
96.446006858400025
 30
0.0
 11
-209.86401036936579
 21
98.263518223330806
 31
0.0
  0
LINE
  5
2E5
  8
0
 10
-209.86401036936579
 20
98.263518223330806
 30
0.0
 11
-230.47924869112751
 21
101.73648177666939
 31
0.0
  0
LINE
  5
2E6
  8
0
 10
-230.47924869112751
 20
101.73648177666939
 30
0.0
 11
-220.17162953024669
 21
103.5539931416002
 31
0.0
  0
LINE
  5
2E7
  8
0
 10
-220.17162953024669
 20
103.5539931416002
 30
0.0
 11
-220.17162953024641
 21
225.00000000000011
 31
0.0
  0
LINE
  5
2E8
  8
0
 10
70.000000000000171
 20
-218.41902815239609
 30
0.0
 11
-26.446006858399731
 21
-218.41902815239609
 31
0.0
  0
LINE
  5
2E9
  8
0
 10
-129.9999999999998
 20
-218.41902815239609
 30
0.0
 11
-33.553993141599932
 21
-218.41902815239609
 31
0.0
  0
LINE
  5
2EA
  8
0
 10
70.000000000000171
 20
-218.41902815239609
 30
0.0
 11
-26.446006858399731
 21
-218.41902815239609
 31
0.0
  0
LINE
  5
2EB
  8
0
 10
-26.446006858399731
 20
-218.41902815239609
 30
0.0
 11
-28.263518223330522
 21
-208.1114089915153
 31
0.0
  0
LINE
  5
2EC
  8
0
 10
-28.263518223330522
 20
-208.11140899151519
 30
0.0
 11
-31.736481776669141
 21
-228.726647313277
 31
0.0
  0
LINE
  5
2ED
  8
0
 10
-31.736481776669141
 20
-228.726647313277
 30
0.0
 11
-33.553993141599932
 21
-218.41902815239609
 31
0.0
  0
LINE
  5
2EE
  8
0
 10
-33.553993141599932
 20
-218.41902815239609
 30
0.0
 11
-129.9999999999998
 21
-218.41902815239609
 31
0.0
  0
LINE
  5
2EF
  8
0
 10
432.53138219878582
 20
-7.0000000000004361
 30
0.0
 11
432.53138219878582
 21
-1.00000000000027
 31
0.0
1001
REVIT
1002
{
1070
     3
1000
211597
1002
}
  0
LINE
  5
2F0
  8
0
 10
432.53138219878582
 20
-1.00000000000027
 30
0.0
 11
5.3082411351715564
 21
-1.00000000000027
 31
0.0
1001
REVIT
1002
{
1070
     3
1000
211597
1002
}
  0
LINE
  5
2F1
  8
0
 10
5.3082411351715564
 20
-1.00000000000027
 30
0.0
 11
5.3082411351715564
 21
-7.0000000000004361
 31
0.0
1001
REVIT
1002
{
1070
     3
1000
211597
1002
}
  0
LINE
  5
2F2
  8
0
 10
5.3082411351715564
 20
-7.0000000000004361
 30
0.0
 11
432.53138219878582
 21
-7.0000000000004361
 31
0.0
1001
REVIT
1002
{
1070
     3
1000
211597
1002
}
  0
ARC
  5
2F3
  8
0
 10
471.99999999999909
 20
97.99999999999801
 30
0.0
 40
2.0000000000000031
 50
0.0000000000002036
 51
90.0
1001
REVIT
1002
{
1070
     3
1000
224526
1002
}
  0
ARC
  5
2F4
  8
0
 10
425.9999999999992
 20
97.999999999998096
 30
0.0
 40
2.0000000000000031
 50
90.0
 51
179.9999999999998
1001
REVIT
1002
{
1070
     3
1000
224526
1002
}
  0
ARC
  5
2F5
  8
0
 10
425.99999999999932
 20
-48.000000000001947
 30
0.0
 40
2.0000000000000031
 50
179.9999999999998
 51
270.0
1001
REVIT
1002
{
1070
     3
1000
224526
1002
}
  0
ARC
  5
2F6
  8
0
 10
471.9999999999992
 20
-48.000000000001961
 30
0.0
 40
1.9999999999999969
 50
270.0
 51
0.0000000000002036
1001
REVIT
1002
{
1070
     3
1000
224526
1002
}
  0
LINE
  5
2F7
  8
0
 10
471.99999999999909
 20
99.999999999998096
 30
0.0
 11
425.99999999999932
 21
99.999999999998096
 31
0.0
1001
REVIT
1002
{
1070
     3
1000
224526
1002
}
  0
LINE
  5
2F8
  8
0
 10
423.99999999999932
 20
97.999999999998096
 30
0.0
 11
423.99999999999932
 21
-1.00000000000027
 31
0.0
1001
REVIT
1002
{
1070
     3
1000
224526
1002
}
  0
LINE
  5
2F9
  8
0
 10
423.99999999999932
 20
-7.0000000000003944
 30
0.0
 11
423.99999999999932
 21
-48.000000000001947
 31
0.0
1001
REVIT
1002
{
1070
     3
1000
224526
1002
}
  0
LINE
  5
2FA
  8
0
 10
425.9999999999992
 20
-50.000000000001982
 30
0.0
 11
471.99999999999932
 21
-50.000000000001982
 31
0.0
1001
REVIT
1002
{
1070
     3
1000
224526
1002
}
  0
LINE
  5
2FB
  8
0
 10
473.99999999999932
 20
-48.000000000001961
 30
0.0
 11
473.99999999999932
 21
97.99999999999801
 31
0.0
1001
REVIT
1002
{
1070
     3
1000
224526
1002
}
  0
LINE
  5
2FC
  8
0
 10
425.99999999999898
 20
97.999999999998266
 30
0.0
 11
471.99999999999932
 21
-48.00000000000189
 31
0.0
  0
LINE
  5
2FD
  8
0
 10
471.99999999999932
 20
97.999999999998266
 30
0.0
 11
425.99999999999932
 21
-48.000000000001961
 31
0.0
  0
LINE
  5
2FE
  8
0
 10
476.00000000000102
 20
253.57145973909161
 30
0.0
 11
471.99999999999972
 21
253.57145973909161
 31
0.0
1001
REVIT
1002
{
1070
     3
1000
211597
1002
}
  0
LINE
  5
2FF
  8
0
 10
474.50000000000148
 20
224.82145973909161
 30
0.0
 11
474.50000000000148
 21
252.82145973909161
 31
0.0
1001
REVIT
1002
{
1070
     3
1000
211597
1002
}
  0
LINE
  5
300
  8
0
 10
474.00000000000028
 20
222.82145973909161
 30
0.0
 11
474.50000000000148
 21
224.82145973909161
 31
0.0
1001
REVIT
1002
{
1070
     3
1000
211597
1002
}
  0
LINE
  5
301
  8
0
 10
473.50000000000142
 20
224.82145973909161
 30
0.0
 11
474.00000000000028
 21
222.82145973909161
 31
0.0
1001
REVIT
1002
{
1070
     3
1000
211597
1002
}
  0
LINE
  5
302
  8
0
 10
473.50000000000142
 20
252.82145973909161
 30
0.0
 11
473.50000000000142
 21
224.82145973909161
 31
0.0
1001
REVIT
1002
{
1070
     3
1000
211597
1002
}
  0
LINE
  5
303
  8
0
 10
472.30013645888999
 20
252.82145973909161
 30
0.0
 11
473.50000000000142
 21
252.82145973909161
 31
0.0
1001
REVIT
1002
{
1070
     3
1000
211597
1002
}
  0
LINE
  5
304
  8
0
 10
474.50000000000148
 20
252.82145973909161
 30
0.0
 11
475.69986354111239
 21
252.82145973909161
 31
0.0
1001
REVIT
1002
{
1070
     3
1000
211597
1002
}
  0
LINE
  5
305
  8
0
 10
476.00000000000102
 20
253.57145973909161
 30
0.0
 11
475.69986354111239
 21
252.82145973909161
 31
0.0
1001
REVIT
1002
{
1070
     3
1000
211597
1002
}
  0
LINE
  5
306
  8
0
 10
471.99999999999972
 20
253.57145973909161
 30
0.0
 11
472.30013645888999
 21
252.82145973909161
 31
0.0
1001
REVIT
1002
{
1070
     3
1000
211597
1002
}
  0
INSERT
  5
307
  8
0
  6
CONTINUOUS
  2
*U45
 10
0.0
 20
0.0
 30
0.0
1001
ACAD
1002
{
1000
R14_HATCH_DATA
1000
307
1011
1.0
1021
0.0
1031
0.0
1021
0.0
1031
0.0
1011
0.0
1021
0.0
1031
0.0
1021
1.0
1031
0.0
1011
0.0
1021
0.0
1031
0.0
1021
0.0
1031
1.0
1040
0.0
1010
0.0
1020
0.0
1030
1.0
1000
SOLID
1070
     1
1070
     0
1071
        1
1071
        0
1071
       98
1070
     1
1040
512.06930462069715
1040
150.15402125677451
1040
515.63602537071404
1040
153.92981099849709
1070
     1
1040
515.63602537071404
1040
153.92981099849709
1040
518.82579255016083
1040
157.9332778652014
1070
     1
1040
518.82579255016083
1040
157.9332778652014
1040
521.63860615903775
1040
162.16442185688749
1070
     1
1040
521.63860615903764
1040
162.16442185688749
1040
524.08970472902865
1040
166.6579290329073
1070
     1
1040
524.08970472902865
1040
166.6579290329073
1040
526.29350898333712
1040
171.7594843731608
1070
     1
1040
526.29350898333712
1040
171.7594843731608
1040
527.81532556225045
1040
176.22391658183611
1070
     1
1040
527.81532556225045
1040
176.22391658183611
1040
529.12088446719315
1040
181.74588205821141
1070
     1
1040
529.12088446719315
1040
181.74588205821141
1040
529.83149999019838
1040
186.2898695449332
1070
     1
1040
529.83149999019838
1040
186.2898695449332
1040
530.18802247487906
1040
191.39598182911479
1070
     1
1040
530.18802247487906
1040
191.39598182911479
1040
530.09454002076734
1040
196.51367193027619
1070
     1
1040
530.09454002076723
1040
196.51367193027619
1040
529.56082742017213
1040
201.6426883606081
1070
     1
1040
529.56082742017213
1040
201.6426883606081
1040
528.59864806915755
1040
206.669984038926
1070
     1
1040
528.59864806915755
1040
206.669984038926
1040
527.19848836777999
1040
211.59330037564371
1070
     1
1040
527.19848836777999
1040
211.59330037564371
1040
525.36986191598305
1040
216.41489596034771
1070
     1
1040
525.36986191598305
1040
216.41489596034771
1040
523.15307290966075
1040
221.0284994806126
1070
     1
1040
523.15307290966075
1040
221.0284994806126
1040
520.53950265610695
1040
225.42949271742759
1070
     1
1040
520.53950265610695
1040
225.42949271742759
1040
517.53776984802744
1040
229.62249388980359
1070
     1
1040
517.53776984802744
1040
229.62249388980359
1040
514.21403475943555
1040
233.51508634234941
1070
     1
1040
514.21403475943555
1040
233.51508634234941
1040
510.56114770864718
1040
237.10059985298321
1070
     1
1040
510.56114770864713
1040
237.10059985298309
1040
506.58625837734661
1040
240.38570464378651
1070
     1
1040
506.58625837734661
1040
240.3857046437866
1040
502.3769760845982
1040
243.29799472561371
1070
     1
1040
502.3769760845982
1040
243.29799472561371
1040
497.92809641054339
1040
245.82919218660629
1070
     1
1040
497.92809641054339
1040
245.82919218660629
1040
493.2448237750412
1040
247.98757493862271
1070
     1
1040
493.2448237750412
1040
247.9875749386226
1040
488.43038075673252
1040
249.7255707280917
1070
     1
1040
488.43038075673252
1040
249.7255707280917
1040
483.48185487163789
1040
251.0338453572509
1070
     1
1040
483.48185487163789
1040
251.0338453572509
1040
478.40215860373689
1040
251.921733023863
1070
     1
1040
478.40215860373689
1040
251.921733023863
1040
473.30325198361032
1040
252.36966406764421
1070
     1
1040
473.30325198361032
1040
252.36966406764421
1040
468.18470846799511
1040
252.36786976955659
1070
     1
1040
468.18470846799511
1040
252.36786976955659
1040
463.04695460015409
1040
251.92611884863831
1070
     1
1040
463.04695460015409
1040
251.92611884863831
1040
458.0032300404572
1040
251.05414780172021
1070
     1
1040
458.0032300404572
1040
251.05414780172021
1040
453.05562259903138
1040
249.7424040972179
1070
     1
1040
453.05562259903138
1040
249.7424040972179
1040
448.20204446574968
1040
248.0004402667158
1070
     1
1040
448.20204446574968
1040
248.0004402667158
1040
443.54947187060083
1040
245.86665040179889
1070
     1
1040
443.54947187060083
1040
245.86665040179889
1040
439.10236790500142
1040
243.33233446650149
1070
     1
1040
439.10236790500142
1040
243.33233446650149
1040
434.85626947753451
1040
240.4061924967892
1070
     1
1040
434.85626947753451
1040
240.4061924967892
1040
430.90476354393871
1040
237.15271869214439
1070
     1
1040
430.90476354393883
1040
237.15271869214439
1040
427.02713446719321
1040
233.29948991931781
1070
     1
1040
427.02713446719321
1040
233.29948991931789
1040
423.89861131761802
1040
229.64923954172249
1070
     1
1040
423.89861131761802
1040
229.64923954172249
1040
420.91138766211401
1040
225.49280046809821
1070
     1
1040
420.91138766211401
1040
225.49280046809821
1040
418.3009035742474
1040
221.08997594652701
1070
     1
1040
418.3009035742474
1040
221.08997594652701
1040
416.05897569710191
1040
216.44611784400871
1070
     1
1040
416.05897569710191
1040
216.44611784400871
1040
414.23501767677851
1040
211.6635800155276
1070
     1
1040
414.23501767677851
1040
211.6635800155276
1040
412.8383100420524
1040
206.7392832409769
1070
     1
1040
412.8383100420524
1040
206.7392832409769
1040
411.85957226414871
1040
201.6763067404635
1070
     1
1040
411.85957226414871
1040
201.6763067404635
1040
411.32037640284511
1040
196.58624202929261
1070
     1
1040
411.32037640284511
1040
196.58624202929261
1040
411.2279131447346
1040
191.50628627923291
1070
     1
1040
411.2279131447346
1040
191.50628627923291
1040
411.57499180322412
1040
186.39924231851589
1070
     1
1040
411.57499180322412
1040
186.39924231851589
1040
412.36161237831419
1040
181.26511014714109
1070
     1
1040
412.36161237831419
1040
181.26511014714109
1040
413.34221898416791
1040
181.46109658686609
1070
     1
1040
413.3422189841678
1040
181.46109658686609
1040
412.56870362865828
1040
186.51004724452059
1070
     1
1040
412.5687036286584
1040
186.51004724452059
1040
412.22752428041412
1040
191.53232989057801
1070
     1
1040
412.22752428041412
1040
191.53232989057801
1040
412.31868093943501
1040
196.52794452503809
1070
     1
1040
412.31868093943501
1040
196.52794452503809
1040
412.84925094869732
1040
201.5334857822582
1070
     1
1040
412.84925094869732
1040
201.5334857822582
1040
413.8121569652244
1040
206.5123590278813
1070
     1
1040
413.8121569652244
1040
206.5123590278813
1040
415.18616696008769
1040
211.35478035883531
1070
     1
1040
415.18616696008769
1040
211.3547803588354
1040
416.98041287481811
1040
216.0577187392455
1070
     1
1040
416.98041287481811
1040
216.0577187392455
1040
419.18576276788451
1040
220.62420520498671
1070
     1
1040
419.18576276788451
1040
220.62420520498671
1040
421.75358878576338
1040
224.95354896061141
1070
     1
1040
421.75358878576338
1040
224.95354896061141
1040
424.69194268896479
1040
229.0404823038412
1070
     1
1040
424.69194268896479
1040
229.0404823038412
1040
427.99277271697878
1040
232.8902729369544
1070
     1
1040
427.99277271697878
1040
232.8902729369544
1040
431.583295734751
1040
236.41803317133929
1070
     1
1040
431.583295734751
1040
236.41803317133929
1040
435.46994675528128
1040
239.61660967614179
1070
     1
1040
435.46994675528128
1040
239.61660967614179
1040
439.6462907655702
1040
242.49315578221581
1070
     1
1040
439.6462907655702
1040
242.49315578221581
1040
444.02023959156679
1040
244.98424379351229
1070
     1
1040
444.02023959156679
1040
244.98424379351241
1040
448.596182671755
1040
247.0813114460548
1070
     1
1040
448.596182671755
1040
247.0813114460548
1040
453.36973056765089
1040
248.7929210038196
1070
     1
1040
453.36973056765089
1040
248.7929210038196
1040
458.23562678975219
1040
250.0813315626873
1070
     1
1040
458.23562678975219
1040
250.0813315626873
1040
463.19592269139019
1040
250.9371425118205
1070
     1
1040
463.19592269139019
1040
250.9371425118205
1040
468.24856691923338
1040
251.36975446205659
1070
     1
1040
468.24856691923338
1040
251.36975446205659
1040
473.282148923786
1040
251.36962834178851
1070
     1
1040
473.282148923786
1040
251.36962834178851
1040
478.29624527176162
1040
250.9271516467193
1070
     1
1040
478.29624527176162
1040
250.9271516467193
1040
483.29127939644661
1040
250.05193688114591
1070
     1
1040
483.29127939644661
1040
250.05193688114591
1040
488.15711104820389
1040
248.76328248635241
1070
     1
1040
488.15711104820389
1040
248.7632824863523
1040
492.89087022457471
1040
247.05200463848911
1070
     1
1040
492.89087022457471
1040
247.05200463848911
1040
497.49542692801759
1040
244.9272871614057
1070
     1
1040
497.49542692801759
1040
244.9272871614057
1040
501.8692509162708
1040
242.43597996793409
1070
     1
1040
501.8692509162708
1040
242.43597996793409
1040
506.00721687365842
1040
239.56993992146539
1070
     1
1040
506.00721687365842
1040
239.56993992146539
1040
509.91445011585631
1040
236.3373101586084
1070
     1
1040
509.91445011585631
1040
236.3373101586084
1040
513.50479634762962
1040
232.80937000202209
1070
     1
1040
513.50479634762962
1040
232.80937000202209
1040
516.77121648931995
1040
228.97955965809879
1070
     1
1040
516.77121648931995
1040
228.97955965809891
1040
519.72074962058593
1040
224.8544389204464
1070
     1
1040
519.72074962058593
1040
224.8544389204464
1040
522.28835868516626
1040
220.52496649254641
1070
     1
1040
522.28835868516626
1040
220.52496649254641
1040
524.46555992121489
1040
215.98660306613269
1070
     1
1040
524.46555992121489
1040
215.98660306613269
1040
526.26083709057798
1040
211.24388794947129
1070
     1
1040
526.26083709057798
1040
211.24388794947129
1040
527.63460442253552
1040
206.40139777084329
1070
     1
1040
527.63460442253552
1040
206.40139777084329
1040
528.57749882795872
1040
201.45691620523061
1070
     1
1040
528.57749882795872
1040
201.45691620523061
1040
529.09888339597615
1040
196.4126595776512
1070
     1
1040
529.09888339597615
1040
196.4126595776512
1040
529.18726162325117
1040
191.37985349143989
1070
     1
1040
529.18726162325117
1040
191.37985349143989
1040
528.83301504634267
1040
186.3587522999471
1070
     1
1040
528.83301504634267
1040
186.3587522999471
1040
528.04576212869222
1040
181.3491016498223
1070
     1
1040
528.04576212869222
1040
181.3491016498223
1040
526.84286175728869
1040
176.46136408434899
1070
     1
1040
526.84286175728869
1040
176.46136408434899
1040
525.21508106539943
1040
171.6982476852279
1070
     1
1040
525.21508106539943
1040
171.6982476852279
1040
523.17165291975732
1040
167.05704437075849
1070
     1
1040
523.17165291975732
1040
167.05704437075849
1040
520.7576348075504
1040
162.64009243912059
1070
     1
1040
520.75763480755063
1040
162.64009243912059
1040
517.98804589117503
1040
158.48150465637451
1070
     1
1040
517.98804589117503
1040
158.48150465637451
1040
514.84786700823452
1040
154.54716825646011
1070
     1
1040
514.8478670082344
1040
154.54716825646011
1040
511.33709815872902
1040
150.83708323937711
1070
     1
1040
511.33709815872902
1040
150.83708323937711
1040
512.06930462069715
1040
150.15402125677451
1071
        0
1070
     0
1070
     1
1071
        1
1040
470.70770542660807
1040
192.92630331078189
1040
0.0
1002
}
  0
LINE
  5
308
  8
0
 10
412.36161237831351
 20
181.26511014714089
 30
0.0
 11
413.34221898416718
 21
181.46109658686589
 31
0.0
1001
REVIT
1002
{
1070
     3
1000
476644
1002
}
  0
ARC
  5
309
  8
0
 10
470.70770542660807
 20
192.92630331078189
 30
0.0
 40
58.500000000000021
 50
313.9889426266289
 51
191.30235441163629
1001
REVIT
1002
{
1070
     3
1000
476644
1002
}
  0
LINE
  5
30A
  8
0
 10
511.33709815872811
 20
150.83708323937699
 30
0.0
 11
512.06930462069647
 21
150.15402125677431
 31
0.0
1001
REVIT
1002
{
1070
     3
1000
476644
1002
}
  0
ARC
  5
30B
  8
0
 10
470.70770542660807
 20
192.92630331078189
 30
0.0
 40
59.500000000000057
 50
314.03940481774129
 51
191.3023544116341
1001
REVIT
1002
{
1070
     3
1000
476644
1002
}
  0
ARC
  5
30C
  8
0
 10
496.99999999999977
 20
238.0606704296371
 30
0.0
 40
2.0
 50
0.0
 51
90.0
1001
REVIT
1002
{
1070
     3
1000
224526
1002
}
  0
ARC
  5
30D
  8
0
 10
450.99999999999989
 20
238.0606704296371
 30
0.0
 40
2.0
 50
90.0
 51
180.0
1001
REVIT
1002
{
1070
     3
1000
224526
1002
}
  0
ARC
  5
30E
  8
0
 10
451.0
 20
185.0606704296371
 30
0.0
 40
1.999999999999996
 50
180.0
 51
270.0
1001
REVIT
1002
{
1070
     3
1000
224526
1002
}
  0
ARC
  5
30F
  8
0
 10
496.99999999999989
 20
185.0606704296371
 30
0.0
 40
1.9999999999999989
 50
270.0
 51
0.0
1001
REVIT
1002
{
1070
     3
1000
224526
1002
}
  0
LINE
  5
310
  8
0
 10
496.99999999999977
 20
240.0606704296371
 30
0.0
 11
450.99999999999989
 21
240.0606704296371
 31
0.0
1001
REVIT
1002
{
1070
     3
1000
224526
1002
}
  0
LINE
  5
311
  8
0
 10
448.99999999999989
 20
238.0606704296371
 30
0.0
 11
448.99999999999989
 21
185.0606704296371
 31
0.0
1001
REVIT
1002
{
1070
     3
1000
224526
1002
}
  0
LINE
  5
312
  8
0
 10
450.99999999999989
 20
183.0606704296371
 30
0.0
 11
497.0
 21
183.0606704296371
 31
0.0
1001
REVIT
1002
{
1070
     3
1000
224526
1002
}
  0
LINE
  5
313
  8
0
 10
499.0
 20
185.0606704296371
 30
0.0
 11
499.0
 21
238.0606704296371
 31
0.0
1001
REVIT
1002
{
1070
     3
1000
224526
1002
}
  0
LINE
  5
314
  8
0
 10
450.99999999999977
 20
238.0606704296373
 30
0.0
 11
497.0
 21
185.0606704296371
 31
0.0
  0
LINE
  5
315
  8
0
 10
497.0
 20
238.0606704296373
 30
0.0
 11
451.0
 21
185.0606704296371
 31
0.0
  0
LINE
  5
316
  8
0
 10
443.95602130370531
 20
218.2125000000004
 30
0.0
 11
443.95602130370531
 21
126.0606704296371
 31
0.0
1001
REVIT
1002
{
1070
     3
1000
3443
1002
}
  0
LINE
  5
317
  8
0
 10
443.95602130370509
 20
126.0606704296371
 30
0.0
 11
409.28935463703817
 21
126.0606704296371
 31
0.0
1001
REVIT
1002
{
1070
     3
1000
3443
1002
}
  0
LINE
  5
318
  8
0
 10
342.46488824437262
 20
126.060670429637
 30
0.0
 11
313.95602130370509
 21
126.0606704296371
 31
0.0
1001
REVIT
1002
{
1070
     3
1000
3443
1002
}
  0
LINE
  5
319
  8
0
 10
388.15414337100231
 20
126.060670429637
 30
0.0
 11
397.79720331051863
 21
137.55282175615679
 31
0.0
1001
REVIT
1002
{
1070
     3
1000
3443
1002
}
  0
LINE
  5
31A
  8
0
 10
409.28935463703817
 20
126.0606704296371
 30
0.0
 11
397.79720331051863
 21
137.55282175615679
 31
0.0
1001
REVIT
1002
{
1070
     3
1000
3443
1002
}
  0
LINE
  5
31B
  8
0
 10
388.15414337100231
 20
126.060670429637
 30
0.0
 11
364.13155491103902
 21
126.0606704296371
 31
0.0
1001
REVIT
1002
{
1070
     3
1000
3443
1002
}
  0
LINE
  5
31C
  8
0
 10
342.46488824437262
 20
126.060670429637
 30
0.0
 11
352.35042772284169
 21
137.8417976178344
 31
0.0
1001
REVIT
1002
{
1070
     3
1000
3443
1002
}
  0
LINE
  5
31D
  8
0
 10
364.13155491103902
 20
126.0606704296371
 30
0.0
 11
352.35042772284169
 21
137.8417976178344
 31
0.0
1001
REVIT
1002
{
1070
     3
1000
3443
1002
}
  0
LINE
  5
31E
  8
0
 10
313.95602130370509
 20
126.0606704296371
 30
0.0
 11
323.84156078217421
 21
137.84179761783449
 31
0.0
1001
REVIT
1002
{
1070
     3
1000
3443
1002
}
  0
LINE
  5
31F
  8
0
 10
500.99999999999989
 20
104.9999999999997
 30
0.0
 11
500.99999999999989
 21
116.4999999999998
 31
0.0
  0
LINE
  5
320
  8
0
 10
500.99999999999989
 20
116.4999999999998
 30
0.0
 11
-222.5
 21
116.4999999999998
 31
0.0
  0
LINE
  5
321
  8
0
 10
-222.5
 20
116.4999999999998
 30
0.0
 11
-222.5
 21
104.9999999999997
 31
0.0
  0
LINE
  5
322
  8
0
 10
-222.5
 20
104.9999999999997
 30
0.0
 11
500.99999999999989
 21
104.9999999999997
 31
0.0
  0
LINE
  5
323
  8
0
 10
-222.5
 20
104.9999999999997
 30
0.0
 11
500.99999999999989
 21
104.9999999999997
 31
0.0
  0
LINE
  5
324
  8
0
 10
-222.5
 20
116.4999999999998
 30
0.0
 11
-222.5
 21
104.9999999999997
 31
0.0
  0
LINE
  5
325
  8
0
 10
500.99999999999989
 20
116.4999999999998
 30
0.0
 11
-222.5
 21
116.4999999999998
 31
0.0
  0
LINE
  5
326
  8
0
 10
500.99999999999989
 20
104.9999999999997
 30
0.0
 11
500.99999999999989
 21
116.4999999999998
 31
0.0
  0
ARC
  5
327
  8
0
 10
48.000000000001137
 20
73.000000000000455
 30
0.0
 40
1.9999999999999969
 50
0.0
 51
90.000000000000185
1001
REVIT
1002
{
1070
     3
1000
224526
1002
}
  0
ARC
  5
328
  8
0
 10
2.0000000000011968
 20
73.000000000000526
 30
0.0
 40
2.0
 50
89.999999999999801
 51
179.9999999999996
1001
REVIT
1002
{
1070
     3
1000
224526
1002
}
  0
ARC
  5
329
  8
0
 10
2.000000000001207
 20
2.0000000000004898
 30
0.0
 40
1.999999999999994
 50
180.0
 51
269.99999999999977
1001
REVIT
1002
{
1070
     3
1000
224526
1002
}
  0
ARC
  5
32A
  8
0
 10
48.000000000001208
 20
2.0000000000004832
 30
0.0
 40
1.9999999999999949
 50
269.9999999999996
 51
0.0
1001
REVIT
1002
{
1070
     3
1000
224526
1002
}
  0
LINE
  5
32B
  8
0
 10
48.000000000001137
 20
75.000000000000526
 30
0.0
 11
2.000000000001207
 21
75.000000000000526
 31
0.0
1001
REVIT
1002
{
1070
     3
1000
224526
1002
}
  0
LINE
  5
32C
  8
0
 10
0.0000000000011973
 20
73.00000000000054
 30
0.0
 11
0.0000000000011973
 21
2.0000000000004969
 31
0.0
1001
REVIT
1002
{
1070
     3
1000
224526
1002
}
  0
LINE
  5
32D
  8
0
 10
2.0000000000011928
 20
0.0000000000004832
 30
0.0
 11
48.000000000001208
 21
0.0000000000004832
 31
0.0
1001
REVIT
1002
{
1070
     3
1000
224526
1002
}
  0
LINE
  5
32E
  8
0
 10
50.000000000001201
 20
2.0000000000004832
 30
0.0
 11
50.000000000001201
 21
73.000000000000455
 31
0.0
1001
REVIT
1002
{
1070
     3
1000
224526
1002
}
  0
LINE
  5
32F
  8
0
 10
2.0000000000010369
 20
73.000000000000711
 30
0.0
 11
48.000000000001243
 21
2.0000000000005538
 31
0.0
  0
LINE
  5
330
  8
0
 10
48.000000000001243
 20
73.000000000000711
 30
0.0
 11
2.000000000001239
 21
2.0000000000004832
 31
0.0
  0
LINE
  5
331
  8
0
  6
DASH
 10
498.37499999999989
 20
121.40484873185029
 30
0.0
 11
-220.17162953024669
 21
121.40484873185039
 31
0.0
1001
REVIT
1002
{
1070
     3
1000
217411
1002
}
  0
LINE
  5
332
  8
0
  6
DASH
 10
2.5000000000000742
 20
-2.072339171135444
 30
0.0
 11
2.4999999999996501
 21
-218.41902815239609
 31
0.0
1001
REVIT
1002
{
1070
     3
1000
217411
1002
}
  0
INSERT
  5
333
  8
0
  6
CONTINUOUS
  2
*X46
 10
0.0
 20
0.0
 30
0.0
1001
ACAD
1000
HATCH
1002
{
1070
    19
1000
FP_1
1040
1.0
1040
0.0
1000
R14_HATCH_DATA
1000
333
1011
1.0
1021
0.0
1031
0.0
1021
0.0
1031
0.0
1011
0.0
1021
0.0
1031
0.0
1021
1.0
1031
0.0
1011
0.0
1021
0.0
1031
0.0
1021
0.0
1031
1.0
1040
0.0
1010
0.0
1020
0.0
1030
1.0
1000
FP_1
1070
     0
1070
     0
1071
        1
1071
        0
1071
        4
1070
     1
1040
27.808241135170821
1040
-218.41902815239669
1040
52.808241135170753
1040
-218.41902815239649
1070
     1
1040
52.808241135170753
1040
-218.41902815239649
1040
52.808241135170007
1040
-9.0000000000002558
1070
     1
1040
52.808241135170007
1040
-9.0000000000002558
1040
27.808241135170011
1040
-9.0000000000002558
1070
     1
1040
27.808241135170011
1040
-9.0000000000002558
1040
27.808241135170821
1040
-218.41902815239669
1071
        0
1070
     0
1070
     2
1040
0.0
1040
1.0
1070
     0
1070
     1
1040
0.0
1040
0.0002411351715637
1040
-0.0000281523961405
1040
0.0
1040
15.0
1070
     0
1071
        1
1040
40.308241135171563
1040
-218.41902815239609
1040
0.0
1002
}
  0
LINE
  5
334
  8
0
 10
52.808241135169993
 20
-9.0000000000002558
 30
0.0
 11
27.80824113516999
 21
-9.0000000000003126
 31
0.0
1001
REVIT
1002
{
1070
     3
1000
224526
1002
}
  0
LINE
  5
335
  8
0
 10
27.80824113516999
 20
-9.0000000000003126
 30
0.0
 11
27.80824113517069
 21
-218.41902815239649
 31
0.0
1001
REVIT
1002
{
1070
     3
1000
224526
1002
}
  0
LINE
  5
336
  8
0
 10
52.808241135170682
 20
-218.41902815239641
 30
0.0
 11
52.808241135169993
 21
-9.0000000000002558
 31
0.0
1001
REVIT
1002
{
1070
     3
1000
224526
1002
}
  0
INSERT
  5
337
  8
0
  6
CONTINUOUS
  2
*U47
 10
0.0
 20
0.0
 30
0.0
1001
ACAD
1002
{
1000
R14_HATCH_DATA
1000
337
1011
1.0
1021
0.0
1031
0.0
1021
0.0
1031
0.0
1011
0.0
1021
0.0
1031
0.0
1021
1.0
1031
0.0
1011
0.0
1021
0.0
1031
0.0
1021
0.0
1031
1.0
1040
0.0
1010
0.0
1020
0.0
1030
1.0
1000
SOLID
1070
     1
1070
     0
1071
        1
1071
        0
1071
      110
1070
     1
1040
145.55412193184571
1040
169.38033787425721
1040
161.56242890682489
1040
170.10206366228309
1070
     1
1040
161.56242890682489
1040
170.10206366228309
1040
177.37389053495261
1040
172.26724102636081
1070
     1
1040
177.37389053495261
1040
172.26724102636081
1040
193.05412193184591
1040
175.87586996649031
1070
     1
1040
193.05412193184591
1040
175.87586996649031
1040
200.05412193184421
1040
185.37586996648909
1070
     1
1040
200.05412193184421
1040
185.37586996648909
1040
214.72708808086881
1040
190.50474017323211
1070
     1
1040
214.72708808086881
1040
190.50474017323211
1040
229.56357115538131
1040
194.35139282828931
1070
     1
1040
229.56357115538131
1040
194.35139282828931
1040
244.5635711553814
1040
196.9158279316608
1070
     1
1040
244.5635711553814
1040
196.9158279316608
1040
259.83609936452763
1040
198.19804548334659
1070
     1
1040
259.83609936452763
1040
198.19804548334659
1040
275.2721444991617
1040
198.1980454833467
1070
     1
1040
275.2721444991617
1040
198.1980454833467
1040
290.5446727083081
1040
196.915827931661
1070
     1
1040
290.5446727083081
1040
196.915827931661
1040
305.54467270830821
1040
194.35139282828979
1070
     1
1040
305.54467270830821
1040
194.35139282828979
1040
320.38115578282071
1040
190.50474017323279
1070
     1
1040
320.38115578282071
1040
190.50474017323279
1040
335.05412193184662
1040
185.3758699664896
1070
     1
1040
335.05412193184651
1040
185.3758699664896
1040
342.05412193184611
1040
175.87586996649
1070
     1
1040
342.05412193184611
1040
175.87586996649
1040
357.31622040500719
1040
172.34380689334861
1070
     1
1040
357.3162204050073
1040
172.34380689334861
1040
372.7092827305047
1040
170.1801207223717
1070
     1
1040
372.7092827305047
1040
170.1801207223717
1040
388.29391091269468
1040
169.38437948712129
1070
     1
1040
388.2939109126948
1040
169.38437948712129
1040
403.88829893850811
1040
169.95787908691071
1070
     1
1040
403.88829893850811
1040
169.95787908691071
1040
419.3106407948755
1040
171.90191542105251
1070
     1
1040
419.3106407948755
1040
171.90191542105251
1040
434.62153848615333
1040
175.2160565231093
1070
     1
1040
434.62153848615333
1040
175.2160565231093
1040
435.51847714362691
1040
175.5610193596298
1070
     1
1040
435.51847714362691
1040
175.5610193596298
1040
436.31913169786259
1040
176.09248017533719
1070
     1
1040
436.31913169786259
1040
176.09248017533719
1040
436.98530983838452
1040
176.78508756696789
1070
     1
1040
436.98530983838452
1040
176.78508756696789
1040
437.48523396242928
1040
177.6058032205585
1070
     1
1040
437.48523396242928
1040
177.6058032205585
1040
437.79505700979018
1040
178.51547788392719
1070
     1
1040
437.7950570097903
1040
178.51547788392719
1040
437.90000000000038
1040
179.47071883921359
1070
     1
1040
437.90000000000038
1040
179.47071883921359
1040
437.90000000000038
1040
185.59412692079559
1070
     1
1040
437.90000000000038
1040
185.59412692079559
1040
436.90000000000038
1040
185.59412692079559
1070
     1
1040
436.90000000000038
1040
185.59412692079559
1040
436.90000000000038
1040
179.47071883921359
1070
     1
1040
436.90000000000038
1040
179.47071883921359
1040
436.81890768938342
1040
178.73257810103769
1070
     1
1040
436.81890768938342
1040
178.73257810103769
1040
436.5794989709683
1040
178.02964767934381
1070
     1
1040
436.5794989709683
1040
178.02964767934381
1040
436.19319396602441
1040
177.3954583106601
1070
     1
1040
436.19319396602441
1040
177.3954583106601
1040
435.67841994834851
1040
176.86026168985461
1070
     1
1040
435.67841994834851
1040
176.86026168985461
1040
435.05973233825722
1040
176.44958742317161
1070
     1
1040
435.05973233825722
1040
176.44958742317161
1040
434.36664337566498
1040
176.1830252313151
1070
     1
1040
434.36664337566498
1040
176.1830252313151
1040
419.1995525860026
1040
172.89734691143099
1070
     1
1040
419.1995525860026
1040
172.89734691143099
1040
403.9215809074596
1040
170.96392643576351
1070
     1
1040
403.9215809074596
1040
170.96392643576351
1040
388.47313266135041
1040
170.38313025556661
1070
     1
1040
388.47313266135041
1040
170.38313025556661
1040
373.03299488373221
1040
171.15385901707791
1070
     1
1040
373.03299488373221
1040
171.15385901707791
1040
357.7799546106632
1040
173.27501336653489
1070
     1
1040
357.7799546106632
1040
173.27501336653489
1040
342.65441616345578
1040
176.74695975519199
1070
     1
1040
342.65441616345578
1040
176.74695975519199
1040
335.6903778703292
1040
186.198154581578
1070
     1
1040
335.6903778703292
1040
186.198154581578
1040
320.88186356560033
1040
191.3970803899318
1070
     1
1040
320.88186356560033
1040
191.3970803899318
1040
305.90691130895988
1040
195.29627474619721
1070
     1
1040
305.90691130895988
1040
195.29627474619721
1040
290.76552110040802
1040
197.89573765037409
1070
     1
1040
290.76552110040802
1040
197.89573765037409
1040
275.34673430533701
1040
199.1954691024626
1070
     1
1040
275.34673430533701
1040
199.1954691024626
1040
259.76150955835459
1040
199.1954691024626
1070
     1
1040
259.7615095583547
1040
199.1954691024626
1040
244.34272276328369
1040
197.89573765037409
1070
     1
1040
244.3427227632836
1040
197.89573765037409
1040
229.20133255473169
1040
195.2962747461971
1070
     1
1040
229.20133255473169
1040
195.2962747461971
1040
214.2263802980913
1040
191.39708038993169
1070
     1
1040
214.2263802980913
1040
191.39708038993169
1040
199.4178659933626
1040
186.198154581578
1070
     1
1040
199.4178659933626
1040
186.198154581578
1040
192.4538277002373
1040
176.74695975519259
1070
     1
1040
192.4538277002373
1040
176.74695975519259
1040
176.96957342048191
1040
173.20986335550799
1070
     1
1040
176.96957342048191
1040
173.20986335550799
1040
161.35762116097689
1040
171.08760551569731
1070
     1
1040
161.35762116097689
1040
171.08760551569731
1040
145.55412193184691
1040
170.38018623576031
1070
     1
1040
145.55412193184691
1040
170.38018623576031
1040
129.75062270271701
1040
171.08760551569711
1070
     1
1040
129.75062270271701
1040
171.08760551569711
1040
114.13867044321189
1040
173.20986335550771
1070
     1
1040
114.13867044321189
1040
173.20986335550771
1040
98.65441616345538
1040
176.74695975519231
1070
     1
1040
98.65441616345538
1040
176.74695975519231
1040
91.690377870329087
1040
186.198154581578
1070
     1
1040
91.690377870329087
1040
186.198154581578
1040
76.881863565600213
1040
191.39708038993169
1070
     1
1040
76.881863565600213
1040
191.39708038993169
1040
61.9069113089597
1040
195.2962747461971
1070
     1
1040
61.9069113089597
1040
195.2962747461971
1040
46.765521100407852
1040
197.89573765037409
1070
     1
1040
46.765521100407852
1040
197.89573765037409
1040
31.346734305336899
1040
199.1954691024626
1070
     1
1040
31.346734305336899
1040
199.1954691024626
1040
15.761509558354421
1040
199.1954691024626
1070
     1
1040
15.761509558354421
1040
199.1954691024626
1040
0.3427227632834615
1040
197.89573765037409
1070
     1
1040
0.3427227632834615
1040
197.89573765037409
1040
-14.798667445268389
1040
195.2962747461971
1070
     1
1040
-14.798667445268389
1040
195.2962747461971
1040
-29.773619701908839
1040
191.39708038993169
1070
     1
1040
-29.773619701908839
1040
191.39708038993169
1040
-44.582134006637723
1040
186.198154581578
1070
     1
1040
-44.582134006637723
1040
186.198154581578
1040
-51.546172299762297
1040
176.7469597551935
1070
     1
1040
-51.546172299762297
1040
176.7469597551935
1040
-67.030426579517837
1040
173.20986335550899
1070
     1
1040
-67.030426579517837
1040
173.20986335550899
1040
-82.642378839023294
1040
171.0876055156983
1070
     1
1040
-82.642378839023294
1040
171.0876055156983
1040
-98.445878068153334
1040
170.38018623576141
1070
     1
1040
-98.445878068153334
1040
170.38018623576141
1040
-114.2493772972837
1040
171.08760551569819
1070
     1
1040
-114.2493772972837
1040
171.08760551569819
1040
-129.86132955678889
1040
173.2098633555087
1070
     1
1040
-129.86132955678889
1040
173.2098633555087
1040
-145.34558383654559
1040
176.74695975519319
1070
     1
1040
-145.34558383654559
1040
176.74695975519319
1040
-152.3096221296712
1040
186.198154581578
1070
     1
1040
-152.3096221296712
1040
186.198154581578
1040
-164.2279880812423
1040
190.5029002417742
1070
     1
1040
-164.2279880812423
1040
190.5029002417742
1040
-176.29704322308419
1040
193.95847004721401
1070
     1
1040
-176.29704322308419
1040
193.95847004721401
1040
-188.51678755519669
1040
196.5648639978975
1070
     1
1040
-188.51678755519669
1040
196.5648639978975
1040
-200.8872210775798
1040
198.3220820938246
1070
     1
1040
-200.8872210775798
1040
198.32208209382469
1040
-213.40834379023369
1040
199.23012433499559
1070
     1
1040
-213.40834379023369
1040
199.23012433499551
1040
-226.08015569315819
1040
199.2889907214101
1070
     1
1040
-226.08015569315819
1040
199.2889907214101
1040
-226.08015569315941
1040
198.28851245268501
1070
     1
1040
-226.08015569315941
1040
198.28851245268501
1040
-213.5207757558386
1040
198.2338912431689
1070
     1
1040
-213.5207757558386
1040
198.2338912431689
1040
-201.10952928511219
1040
197.34027568504621
1070
     1
1040
-201.10952928511219
1040
197.34027568504621
1040
-188.84641628098089
1040
195.607665778317
1070
     1
1040
-188.84641628098089
1040
195.607665778317
1040
-176.73143674344431
1040
193.0360615229813
1070
     1
1040
-176.73143674344431
1040
193.03606152298121
1040
-164.76459067250241
1040
189.62546291903891
1070
     1
1040
-164.76459067250241
1040
189.62546291903891
1040
-152.94587806815409
1040
185.3758699664896
1070
     1
1040
-152.94587806815409
1040
185.3758699664896
1040
-145.9458780681552
1040
175.87586996649111
1070
     1
1040
-145.9458780681552
1040
175.87586996649111
1040
-130.26564667126161
1040
172.26724102636169
1070
     1
1040
-130.26564667126161
1040
172.26724102636169
1040
-114.45418504313371
1040
170.10206366228411
1070
     1
1040
-114.45418504313371
1040
170.10206366228419
1040
-98.445878068154471
1040
169.38033787425829
1070
     1
1040
-98.445878068154471
1040
169.3803378742582
1040
-82.437571093175166
1040
170.10206366228411
1070
     1
1040
-82.437571093175166
1040
170.10206366228419
1040
-66.626109465047364
1040
172.2672410263618
1070
     1
1040
-66.626109465047364
1040
172.2672410263618
1040
-50.945878068153718
1040
175.87586996649119
1070
     1
1040
-50.945878068153718
1040
175.87586996649111
1040
-43.945878068155992
1040
185.37586996648909
1070
     1
1040
-43.945878068155992
1040
185.37586996648909
1040
-29.272911919131271
1040
190.50474017323211
1070
     1
1040
-29.272911919131271
1040
190.50474017323211
1040
-14.436428844618939
1040
194.35139282828939
1070
     1
1040
-14.436428844618939
1040
194.35139282828939
1040
0.5635711553812257
1040
196.9158279316608
1070
     1
1040
0.5635711553812257
1040
196.9158279316608
1040
15.83609936452762
1040
198.19804548334659
1070
     1
1040
15.83609936452762
1040
198.19804548334659
1040
31.272144499161641
1040
198.1980454833467
1070
     1
1040
31.272144499161641
1040
198.1980454833467
1040
46.544672708307992
1040
196.915827931661
1070
     1
1040
46.544672708307992
1040
196.915827931661
1040
61.544672708308148
1040
194.3513928282897
1070
     1
1040
61.544672708308148
1040
194.3513928282897
1040
76.381155782820656
1040
190.5047401732327
1070
     1
1040
76.381155782820656
1040
190.5047401732327
1040
91.054121931846282
1040
185.37586996648949
1070
     1
1040
91.054121931846282
1040
185.37586996648949
1040
98.054121931845785
1040
175.8758699664902
1070
     1
1040
98.054121931845785
1040
175.8758699664902
1040
113.7343533287392
1040
172.26724102636081
1070
     1
1040
113.7343533287392
1040
172.26724102636081
1040
129.54581495686679
1040
170.10206366228309
1070
     1
1040
129.54581495686679
1040
170.10206366228309
1040
145.55412193184571
1040
169.38033787425721
1071
        0
1070
     0
1070
     1
1071
        1
1040
437.90000000000009
1040
223.11250000000049
1040
0.0
1002
}
  0
LINE
  5
338
  8
0
 10
437.90000000000009
 20
185.59412692079539
 30
0.0
 11
436.89999999999998
 21
185.59412692079539
 31
0.0
1001
REVIT
1002
{
1070
     3
1000
476644
1002
}
  0
LINE
  5
339
  8
0
 10
436.89999999999998
 20
185.59412692079539
 30
0.0
 11
436.89999999999998
 21
179.4707188392133
 31
0.0
1001
REVIT
1002
{
1070
     3
1000
476644
1002
}
  0
ARC
  5
33A
  8
0
 10
433.5
 20
179.4707188392133
 30
0.0
 40
3.399999999999948
 50
284.76737004574022
 51
0.0
1001
REVIT
1002
{
1070
     3
1000
476644
1002
}
  0
ARC
  5
33B
  8
0
 10
389.55412193184571
 20
346.18356344794421
 30
0.0
 40
175.80769343830309
 50
254.5280202875303
 51
284.76737004574022
1001
REVIT
1002
{
1070
     3
1000
476644
1002
}
  0
LINE
  5
33C
  8
0
 10
342.65441616345549
 20
176.7469597551918
 30
0.0
 11
335.69037787032892
 21
186.1981545815778
 31
0.0
1001
REVIT
1002
{
1070
     3
1000
476644
1002
}
  0
ARC
  5
33D
  8
0
 10
267.55412193184571
 20
16.63548300359906
 30
0.0
 40
182.74038679497181
 50
68.108000327179482
 51
111.8919996728205
1001
REVIT
1002
{
1070
     3
1000
476644
1002
}
  0
LINE
  5
33E
  8
0
 10
199.41786599336231
 20
186.19815458157771
 30
0.0
 11
192.45382770023599
 21
176.74695975519211
 31
0.0
1001
REVIT
1002
{
1070
     3
1000
476644
1002
}
  0
ARC
  5
33F
  8
0
 10
145.5541219318456
 20
346.1835634479387
 30
0.0
 40
175.8076934382976
 50
254.5280202875299
 51
285.4719797124701
1001
REVIT
1002
{
1070
     3
1000
476644
1002
}
  0
LINE
  5
340
  8
0
 10
98.654416163455323
 20
176.74695975519211
 30
0.0
 11
91.690377870329087
 21
186.19815458157771
 31
0.0
1001
REVIT
1002
{
1070
     3
1000
476644
1002
}
  0
ARC
  5
341
  8
0
 10
23.55412193184571
 20
16.63548300359912
 30
0.0
 40
182.74038679497181
 50
68.108000327179482
 51
111.8919996728205
1001
REVIT
1002
{
1070
     3
1000
476644
1002
}
  0
LINE
  5
342
  8
0
 10
-44.582134006637652
 20
186.1981545815778
 30
0.0
 11
-51.546172299763327
 21
176.7469597551929
 31
0.0
1001
REVIT
1002
{
1070
     3
1000
476644
1002
}
  0
ARC
  5
343
  8
0
 10
-98.445878068154343
 20
346.18356344794881
 30
0.0
 40
175.80769343830659
 50
254.5280202875303
 51
285.4719797124697
1001
REVIT
1002
{
1070
     3
1000
476644
1002
}
  0
LINE
  5
344
  8
0
 10
-145.34558383654539
 20
176.74695975519299
 30
0.0
 11
-152.30962212967111
 21
186.1981545815778
 31
0.0
1001
REVIT
1002
{
1070
     3
1000
476644
1002
}
  0
ARC
  5
345
  8
0
 10
-220.44587806815409
 20
16.6354830035996
 30
0.0
 40
182.7403867949713
 50
68.108000327179482
 51
91.766831638607115
1001
REVIT
1002
{
1070
     3
1000
476644
1002
}
  0
LINE
  5
346
  8
0
 10
-226.08015569315799
 20
199.28899072140979
 30
0.0
 11
-226.08015569315799
 21
198.28851245268481
 31
0.0
1001
REVIT
1002
{
1070
     3
1000
476644
1002
}
  0
ARC
  5
347
  8
0
 10
-220.4458780681544
 20
16.635483003598178
 30
0.0
 40
181.74038679497289
 50
68.197464968812398
 51
91.776556480496424
1001
REVIT
1002
{
1070
     3
1000
476644
1002
}
  0
LINE
  5
348
  8
0
 10
-152.94587806815389
 20
185.37586996648929
 30
0.0
 11
-145.945878068155
 21
175.87586996649091
 31
0.0
1001
REVIT
1002
{
1070
     3
1000
476644
1002
}
  0
ARC
  5
349
  8
0
 10
-98.445878068154343
 20
346.18356344794898
 30
0.0
 40
176.8076934383069
 50
254.41584394575011
 51
285.58415605424989
1001
REVIT
1002
{
1070
     3
1000
476644
1002
}
  0
LINE
  5
34A
  8
0
 10
-50.945878068153661
 20
175.87586996649091
 30
0.0
 11
-43.945878068154848
 21
185.3758699664894
 31
0.0
1001
REVIT
1002
{
1070
     3
1000
476644
1002
}
  0
ARC
  5
34B
  8
0
 10
23.55412193184566
 20
16.635483003599258
 30
0.0
 40
181.7403867949717
 50
68.197464968812398
 51
111.8025350311876
1001
REVIT
1002
{
1070
     3
1000
476644
1002
}
  0
LINE
  5
34C
  8
0
 10
91.054121931846225
 20
185.37586996648929
 30
0.0
 11
98.054121931845714
 21
175.87586996649
 31
0.0
1001
REVIT
1002
{
1070
     3
1000
476644
1002
}
  0
ARC
  5
34D
  8
0
 10
145.5541219318456
 20
346.18356344793909
 30
0.0
 40
176.807693438298
 50
254.41584394575011
 51
285.58415605424989
1001
REVIT
1002
{
1070
     3
1000
476644
1002
}
  0
LINE
  5
34E
  8
0
 10
193.05412193184571
 20
175.87586996649009
 30
0.0
 11
200.0541219318452
 21
185.37586996648929
 31
0.0
1001
REVIT
1002
{
1070
     3
1000
476644
1002
}
  0
ARC
  5
34F
  8
0
 10
267.55412193184571
 20
16.635483003598981
 30
0.0
 40
181.7403867949719
 50
68.197464968812398
 51
111.8025350311876
1001
REVIT
1002
{
1070
     3
1000
476644
1002
}
  0
LINE
  5
350
  8
0
 10
335.05412193184611
 20
185.3758699664894
 30
0.0
 11
342.05412193184588
 21
175.8758699664898
 31
0.0
1001
REVIT
1002
{
1070
     3
1000
476644
1002
}
  0
ARC
  5
351
  8
0
 10
389.5541219318456
 20
346.18356344794358
 30
0.0
 40
176.80769343830249
 50
254.41584394575011
 51
284.76737004574022
1001
REVIT
1002
{
1070
     3
1000
476644
1002
}
  0
ARC
  5
352
  8
0
 10
433.5
 20
179.4707188392133
 30
0.0
 40
4.3999999999999568
 50
284.76737004574022
 51
0.0
1001
REVIT
1002
{
1070
     3
1000
476644
1002
}
  0
LINE
  5
353
  8
0
 10
437.90000000000009
 20
179.4707188392133
 30
0.0
 11
437.90000000000009
 21
185.59412692079539
 31
0.0
1001
REVIT
1002
{
1070
     3
1000
476644
1002
}
  0
LINE
  5
354
  8
0
 10
309.43671334287012
 20
126.1125000000027
 30
0.0
 11
309.43671334287012
 21
166.11250000000291
 31
0.0
1001
REVIT
1002
{
1070
     3
1000
211597
1002
}
  0
LINE
  5
355
  8
0
 10
309.43671334287012
 20
166.11250000000291
 30
0.0
 11
-220.17162953024669
 21
166.11250000000291
 31
0.0
1001
REVIT
1002
{
1070
     3
1000
211597
1002
}
  0
LINE
  5
356
  8
0
 10
-220.17162953024669
 20
126.1125000000027
 30
0.0
 11
309.43671334287012
 21
126.1125000000027
 31
0.0
1001
REVIT
1002
{
1070
     3
1000
211597
1002
}
  0
ARC
  5
357
  8
0
 10
496.99999999999949
 20
-48.000000000001897
 30
0.0
 40
2.0000000000000022
 50
270.0
 51
0.0
1001
REVIT
1002
{
1070
     3
1000
224526
1002
}
  0
ARC
  5
358
  8
0
 10
496.99999999999977
 20
97.999999999998025
 30
0.0
 40
1.999999999999998
 50
359.99999999999977
 51
90.0
1001
REVIT
1002
{
1070
     3
1000
224526
1002
}
  0
ARC
  5
359
  8
0
 10
475.99999999999977
 20
97.999999999998053
 30
0.0
 40
2.0
 50
90.0
 51
179.9999999999992
1001
REVIT
1002
{
1070
     3
1000
224526
1002
}
  0
ARC
  5
35A
  8
0
 10
475.99999999999949
 20
-48.000000000001961
 30
0.0
 40
2.0
 50
179.9999999999996
 51
270.0
1001
REVIT
1002
{
1070
     3
1000
224526
1002
}
  0
LINE
  5
35B
  8
0
 10
498.99999999999949
 20
-48.000000000001933
 30
0.0
 11
498.99999999999977
 21
97.99999999999801
 31
0.0
1001
REVIT
1002
{
1070
     3
1000
224526
1002
}
  0
LINE
  5
35C
  8
0
 10
496.99999999999977
 20
99.999999999997996
 30
0.0
 11
475.99999999999977
 21
99.99999999999801
 31
0.0
1001
REVIT
1002
{
1070
     3
1000
224526
1002
}
  0
LINE
  5
35D
  8
0
 10
475.99999999999949
 20
-50.000000000001933
 30
0.0
 11
496.99999999999949
 21
-50.000000000001961
 31
0.0
1001
REVIT
1002
{
1070
     3
1000
224526
1002
}
  0
LINE
  5
35E
  8
0
 10
497.0
 20
97.999999999998195
 30
0.0
 11
475.99999999999972
 21
-48.00000000000199
 31
0.0
  0
LINE
  5
35F
  8
0
 10
496.99999999999972
 20
-48.000000000002018
 30
0.0
 11
475.99999999999977
 21
97.99999999999801
 31
0.0
  0
ARC
  5
360
  8
0
 10
496.99999999999972
 20
181.06067042963701
 30
0.0
 40
2.0
 50
0.0
 51
90.0
1001
REVIT
1002
{
1070
     3
1000
224526
1002
}
  0
ARC
  5
361
  8
0
 10
450.99999999999977
 20
181.0606704296371
 30
0.0
 40
2.0
 50
90.0
 51
180.0
1001
REVIT
1002
{
1070
     3
1000
224526
1002
}
  0
ARC
  5
362
  8
0
 10
450.99999999999977
 20
128.06067042963701
 30
0.0
 40
1.999999999999996
 50
180.0
 51
270.0
1001
REVIT
1002
{
1070
     3
1000
224526
1002
}
  0
ARC
  5
363
  8
0
 10
496.99999999999977
 20
128.06067042963701
 30
0.0
 40
1.9999999999999989
 50
270.0
 51
0.0
1001
REVIT
1002
{
1070
     3
1000
224526
1002
}
  0
LINE
  5
364
  8
0
 10
448.99999999999989
 20
181.0606704296371
 30
0.0
 11
448.99999999999989
 21
128.06067042963701
 31
0.0
1001
REVIT
1002
{
1070
     3
1000
224526
1002
}
  0
LINE
  5
365
  8
0
 10
450.99999999999977
 20
126.060670429637
 30
0.0
 11
496.99999999999989
 21
126.060670429637
 31
0.0
1001
REVIT
1002
{
1070
     3
1000
224526
1002
}
  0
LINE
  5
366
  8
0
 10
498.99999999999989
 20
128.06067042963701
 30
0.0
 11
498.99999999999989
 21
181.06067042963701
 31
0.0
1001
REVIT
1002
{
1070
     3
1000
224526
1002
}
  0
LINE
  5
367
  8
0
 10
450.99999999999977
 20
181.06067042963721
 30
0.0
 11
496.99999999999989
 21
128.0606704296371
 31
0.0
  0
LINE
  5
368
  8
0
 10
496.99999999999989
 20
181.06067042963721
 30
0.0
 11
450.99999999999989
 21
128.06067042963701
 31
0.0
  0
ARC
  5
369
  8
0
 10
-2.0000000000000071
 20
-3.0000000000000488
 30
0.0
 40
1.9999999999999969
 50
0.0000000000002036
 51
90.0
1001
REVIT
1002
{
1070
     3
1000
224526
1002
}
  0
ARC
  5
36A
  8
0
 10
-97.999999999999943
 20
-2.9999999999999818
 30
0.0
 40
1.999999999999996
 50
90.0
 51
179.9999999999998
1001
REVIT
1002
{
1070
     3
1000
224526
1002
}
  0
ARC
  5
36B
  8
0
 10
-97.999999999999943
 20
-49.0
 30
0.0
 40
1.999999999999992
 50
179.9999999999998
 51
269.9999999999996
1001
REVIT
1002
{
1070
     3
1000
224526
1002
}
  0
ARC
  5
36C
  8
0
 10
-1.9999999999999429
 20
-49.000000000000021
 30
0.0
 40
2.0000000000000071
 50
269.9999999999996
 51
0.0
1001
REVIT
1002
{
1070
     3
1000
224526
1002
}
  0
LINE
  5
36D
  8
0
 10
-2.0000000000000071
 20
-0.9999999999999786
 30
0.0
 11
-97.999999999999943
 21
-0.9999999999999786
 31
0.0
1001
REVIT
1002
{
1070
     3
1000
224526
1002
}
  0
LINE
  5
36E
  8
0
 10
-99.999999999999943
 20
-2.9999999999999711
 30
0.0
 11
-99.999999999999943
 21
-49.0
 31
0.0
1001
REVIT
1002
{
1070
     3
1000
224526
1002
}
  0
LINE
  5
36F
  8
0
 10
-97.999999999999943
 20
-51.000000000000007
 30
0.0
 11
-1.9999999999999429
 21
-51.000000000000007
 31
0.0
1001
REVIT
1002
{
1070
     3
1000
224526
1002
}
  0
LINE
  5
370
  8
0
 10
0.0000000000000639
 20
-49.000000000000021
 30
0.0
 11
0.0000000000000639
 21
-3.0000000000000488
 31
0.0
1001
REVIT
1002
{
1070
     3
1000
224526
1002
}
  0
LINE
  5
371
  8
0
 10
-98.000000000000114
 20
-2.9999999999998042
 30
0.0
 11
-1.9999999999999141
 21
-48.999999999999943
 31
0.0
  0
LINE
  5
372
  8
0
 10
-1.9999999999999141
 20
-2.9999999999998042
 30
0.0
 11
-97.999999999999901
 21
-49.000000000000007
 31
0.0
  0
LINE
  5
373
  8
0
 10
423.99999999999932
 20
100.0000000000004
 30
0.0
 11
-220.17162953024669
 21
100.0000000000004
 31
0.0
1001
REVIT
1002
{
1070
     3
1000
206265
1002
}
  0
LINE
  5
374
  8
0
 10
-220.17162953024669
 20
0.0000000000003055
 30
0.0
 11
0.0000000000013074
 21
0.0000000000003055
 31
0.0
1001
REVIT
1002
{
1070
     3
1000
206265
1002
}
  0
LINE
  5
375
  8
0
 10
50.000000000001272
 20
0.0000000000003055
 30
0.0
 11
423.99999999999932
 21
0.0000000000003055
 31
0.0
1001
REVIT
1002
{
1070
     3
1000
206265
1002
}
  0
LINE
  5
376
  8
0
 10
0.0000000000000995
 20
-218.41902815239661
 30
0.0
 11
0.0000000000004263
 21
-51.000000000000057
 31
0.0
1001
REVIT
1002
{
1070
     3
1000
206265
1002
}
  0
LINE
  5
377
  8
0
 10
-99.999999999999744
 20
-50.999999999999872
 30
0.0
 11
-100.0
 21
-218.41902815239641
 31
0.0
1001
REVIT
1002
{
1070
     3
1000
206265
1002
}
  0
VIEWPORT
  5
2D0
 67
     1
  8
0
 10
143.41473388671869
 20
99.790247440338135
 30
0.0
 40
334.673629294997
 41
222.15178063964851
 68
     1
 69
     1
1001
ACAD
1000
MVIEW
1002
{
1070
    16
1010
0.0
1020
0.0
1030
0.0
1010
0.0
1020
0.0
1030
1.0
1040
0.0
1040
222.15178063964851
1040
143.41473388671869
1040
99.790247440338135
1040
50.0
1040
0.0
1040
0.0
1070
     0
1070
   100
1070
     1
1070
     1
1070
     0
1070
     0
1070
     0
1070
     0
1040
0.0
1040
0.0
1040
0.0
1040
10.0
1040
10.0
1040
10.0
1040
10.0
1070
     0
1002
{
1002
}
1002
}
  0
VIEWPORT
  5
2D4
 67
     1
  8
0
 10
143.3724060058594
 20
99.832585573196425
 30
0.0
 40
229.39584960937501
 41
159.73213691711419
 68
     2
 69
     2
1001
ACAD
1000
MVIEW
1002
{
1070
    16
1010
0.0
1020
0.0
1030
0.0
1010
0.0
1020
0.0
1030
1.0
1040
0.0
1040
893.52635495021775
1040
271.64764383810058
1040
35.657161890856401
1040
50.0
1040
0.0
1040
0.0
1070
     0
1070
  1000
1070
     1
1070
     1
1070
     0
1070
     0
1070
     0
1070
     0
1040
0.0
1040
0.0
1040
0.0
1040
1.0
1040
1.0
1040
0.0
1040
0.0
1070
     0
1002
{
1002
}
1002
}
  0
ENDSEC
  0
EOF
