  0
SECTION
  2
HEADER
  9
$ACADVER
  1
AC1009
  9
$INSBASE
 10
0.0
 20
0.0
 30
0.0
  9
$EXTMIN
 10
-742.5164161583715
 20
-361.36359308439881
 30
0.0
  9
$EXTMAX
 10
389.39766093091282
 20
381.62786700340791
 30
0.0
  9
$LIMMIN
 10
0.0
 20
0.0
  9
$LIMMAX
 10
12.0
 20
9.0
  9
$ORTHOMODE
 70
     0
  9
$REGENMODE
 70
     1
  9
$FILLMODE
 70
     1
  9
$QTEXTMODE
 70
     0
  9
$MIRRTEXT
 70
     0
  9
$DRAGMODE
 70
     2
  9
$LTSCALE
 40
1.0
  9
$OSMODE
 70
     0
  9
$ATTMODE
 70
     1
  9
$TEXTSIZE
 40
0.2
  9
$TRACEWID
 40
0.05
  9
$TEXTSTYLE
  7
STANDARD
  9
$CLAYER
  8
0
  9
$CELTYPE
  6
BYLAYER
  9
$CECOLOR
 62
   256
  9
$DIMSCALE
 40
1.0
  9
$DIMASZ
 40
0.18
  9
$DIMEXO
 40
0.0625
  9
$DIMDLI
 40
0.38
  9
$DIMRND
 40
0.0
  9
$DIMDLE
 40
0.0
  9
$DIMEXE
 40
0.18
  9
$DIMTP
 40
0.0
  9
$DIMTM
 40
0.0
  9
$DIMTXT
 40
0.18
  9
$DIMCEN
 40
0.09
  9
$DIMTSZ
 40
0.0
  9
$DIMTOL
 70
     0
  9
$DIMLIM
 70
     0
  9
$DIMTIH
 70
     1
  9
$DIMTOH
 70
     1
  9
$DIMSE1
 70
     0
  9
$DIMSE2
 70
     0
  9
$DIMTAD
 70
     0
  9
$DIMZIN
 70
     0
  9
$DIMBLK
  1

  9
$DIMASO
 70
     1
  9
$DIMSHO
 70
     1
  9
$DIMPOST
  1

  9
$DIMAPOST
  1

  9
$DIMALT
 70
     0
  9
$DIMALTD
 70
     2
  9
$DIMALTF
 40
25.399999999999999
  9
$DIMLFAC
 40
1.0
  9
$DIMTOFL
 70
     0
  9
$DIMTVP
 40
0.0
  9
$DIMTIX
 70
     0
  9
$DIMSOXD
 70
     0
  9
$DIMSAH
 70
     0
  9
$DIMBLK1
  1

  9
$DIMBLK2
  1

  9
$DIMSTYLE
  2
STANDARD
  9
$DIMCLRD
 70
     0
  9
$DIMCLRE
 70
     0
  9
$DIMCLRT
 70
     0
  9
$DIMTFAC
 40
1.0
  9
$DIMGAP
 40
0.09
  9
$LUNITS
 70
     2
  9
$LUPREC
 70
     4
  9
$SKETCHINC
 40
0.1
  9
$FILLETRAD
 40
0.0
  9
$AUNITS
 70
     0
  9
$AUPREC
 70
     0
  9
$MENU
  1
.
  9
$ELEVATION
 40
0.0
  9
$PELEVATION
 40
0.0
  9
$THICKNESS
 40
0.0
  9
$LIMCHECK
 70
     0
  9
$BLIPMODE
 70
     0
  9
$CHAMFERA
 40
0.0
  9
$CHAMFERB
 40
0.0
  9
$SKPOLY
 70
     0
  9
$TDCREATE
 40
2458206.6265509259
  9
$TDUPDATE
 40
2458206.646871123
  9
$TDINDWG
 40
0.0001022685
  9
$TDUSRTIMER
 40
0.0001022685
  9
$USRTIMER
 70
     1
  9
$ANGBASE
 50
0.0
  9
$ANGDIR
 70
     0
  9
$PDMODE
 70
     0
  9
$PDSIZE
 40
0.0
  9
$PLINEWID
 40
0.0
  9
$COORDS
 70
     2
  9
$SPLFRAME
 70
     0
  9
$SPLINETYPE
 70
     6
  9
$SPLINESEGS
 70
     8
  9
$ATTDIA
 70
     1
  9
$ATTREQ
 70
     0
  9
$HANDLING
 70
     1
  9
$HANDSEED
  5
446
  9
$SURFTAB1
 70
     6
  9
$SURFTAB2
 70
     6
  9
$SURFTYPE
 70
     6
  9
$SURFU
 70
     6
  9
$SURFV
 70
     6
  9
$UCSNAME
  2

  9
$UCSORG
 10
0.0
 20
0.0
 30
0.0
  9
$UCSXDIR
 10
1.0
 20
0.0
 30
0.0
  9
$UCSYDIR
 10
0.0
 20
1.0
 30
0.0
  9
$PUCSNAME
  2

  9
$PUCSORG
 10
0.0
 20
0.0
 30
0.0
  9
$PUCSXDIR
 10
1.0
 20
0.0
 30
0.0
  9
$PUCSYDIR
 10
0.0
 20
1.0
 30
0.0
  9
$USERI1
 70
     0
  9
$USERI2
 70
     0
  9
$USERI3
 70
     0
  9
$USERI4
 70
     0
  9
$USERI5
 70
     0
  9
$USERR1
 40
0.0
  9
$USERR2
 40
0.0
  9
$USERR3
 40
0.0
  9
$USERR4
 40
0.0
  9
$USERR5
 40
0.0
  9
$WORLDVIEW
 70
     1
  9
$SHADEDGE
 70
     3
  9
$SHADEDIF
 70
    70
  9
$TILEMODE
 70
     1
  9
$MAXACTVP
 70
    64
  9
$PLIMCHECK
 70
     0
  9
$PEXTMIN
 10
25.699999999999989
 20
19.5
 30
0.0
  9
$PEXTMAX
 10
231.30000000000001
 20
175.5
 30
0.0
  9
$PLIMMIN
 10
-20.0
 20
-7.5
  9
$PLIMMAX
 10
277.0
 20
202.5
  9
$UNITMODE
 70
     0
  9
$VISRETAIN
 70
     1
  9
$PLINEGEN
 70
     0
  9
$PSLTSCALE
 70
     1
  0
ENDSEC
  0
SECTION
  2
TABLES
  0
TABLE
  2
VPORT
 70
     1
  0
VPORT
  2
*ACTIVE
 70
     0
 10
0.0
 20
0.0
 11
1.0
 21
1.0
 12
293.47462776207539
 22
10.1321369595048
 13
0.0
 23
0.0
 14
1.0
 24
1.0
 15
0.0
 25
0.0
 16
0.0
 26
0.0
 36
1.0
 17
0.0
 27
0.0
 37
0.0
 40
742.99146008780701
 41
2.7949852507374628
 42
50.0
 43
0.0
 44
0.0
 50
0.0
 51
0.0
 71
     0
 72
  1000
 73
     1
 74
     1
 75
     0
 76
     0
 77
     0
 78
     0
  0
ENDTAB
  0
TABLE
  2
LTYPE
 70
     2
  0
LTYPE
  2
CONTINUOUS
 70
     0
  3
Solid line
 72
    65
 73
     0
 40
0.0
  0
LTYPE
  2
DASH
 70
     0
  3

 72
    65
 73
     2
 40
6.3499999999999996
 49
3.1749999999999998
 49
-3.1749999999999998
  0
ENDTAB
  0
TABLE
  2
LAYER
 70
     6
  0
LAYER
  2
0
 70
     0
 62
     7
  6
CONTINUOUS
  0
ENDTAB
  0
TABLE
  2
STYLE
 70
     8
  0
STYLE
  2
STANDARD
 70
     0
 40
0.0
 41
1.0
 50
0.0
 71
     0
 42
0.2
  3
txt
  4

  0
STYLE
  2
ARIAL
 70
     0
 40
12.5
 41
1.0
 50
0.0
 71
     0
 42
0.2
  3
txt
  4

  0
ENDTAB
  0
TABLE
  2
VIEW
 70
     1
  0
ENDTAB
  0
TABLE
  2
UCS
 70
     0
  0
ENDTAB
  0
TABLE
  2
APPID
 70
     6
  0
APPID
  2
ACAD
 70
     0
  0
APPID
  2
ACADANNOTATIVE
 70
     0
  0
APPID
  2
REVIT
 70
     0
  0
APPID
  2
ACAD_PSEXT
 70
     0
  0
APPID
  2
ACAD_NAV_VCDISPLAY
 70
     0
  0
APPID
  2
ACAD_MLEADERVER
 70
     0
  0
ENDTAB
  0
TABLE
  2
DIMSTYLE
 70
     2
  0
DIMSTYLE
  2
STANDARD
 70
     0
  3

  4

  5

  6

  7

 40
1.0
 41
0.18
 42
0.0625
 43
0.38
 44
0.18
 45
0.0
 46
0.0
 47
0.0
 48
0.0
140
0.18
141
0.09
142
0.0
143
25.399999999999999
144
1.0
145
0.0
146
1.0
147
0.09
 71
     0
 72
     0
 73
     1
 74
     1
 75
     0
 76
     0
 77
     0
 78
     0
170
     0
171
     2
172
     0
173
     0
174
     0
175
     0
176
     0
177
     0
178
     0
  0
ENDTAB
  0
ENDSEC
  0
SECTION
  2
BLOCKS
  0
BLOCK
  8
0
  2
$MODEL_SPACE
 70
     0
 10
0.0
 20
0.0
 30
0.0
  3
$MODEL_SPACE
  1

  0
ENDBLK
  5
72
  8
0
  0
BLOCK
 67
     1
  8
0
  2
$PAPER_SPACE
 70
     0
 10
0.0
 20
0.0
 30
0.0
  3
$PAPER_SPACE
  1

  0
ENDBLK
  5
76
 67
     1
  8
0
  0
BLOCK
  8
0
  2
*U22
 70
     1
 10
0.0
 20
0.0
 30
0.0
  3
*U22
  1

  0
SOLID
  5
2FE
  8
0
  6
CONTINUOUS
 10
-12.440567390306001
 20
31.79937405739604
 30
0.0
 11
-13.397275971218731
 21
31.609072888674259
 31
0.0
 12
-11.483858809393279
 22
31.609072888674259
 32
0.0
 13
-11.483858809393279
 23
31.609072888674259
 33
0.0
210
0.0
220
0.0
230
1.0
  0
SOLID
  5
2FF
  8
0
  6
CONTINUOUS
 10
-13.397275971218731
 20
31.609072888674259
 30
0.0
 11
-14.20833434327238
 21
31.067141010362409
 31
0.0
 12
-10.672800437339641
 22
31.067141010362409
 32
0.0
 13
-10.672800437339641
 23
31.067141010362409
 33
0.0
210
0.0
220
0.0
230
1.0
  0
SOLID
  5
300
  8
0
  6
CONTINUOUS
 10
13.397275971218731
 20
31.609072888674259
 30
0.0
 11
11.483858809393279
 21
31.609072888674259
 31
0.0
 12
10.672800437339641
 22
31.067141010362409
 32
0.0
 13
10.672800437339641
 23
31.067141010362409
 33
0.0
210
0.0
220
0.0
230
-1.0
  0
SOLID
  5
301
  8
0
  6
CONTINUOUS
 10
-14.20833434327238
 20
31.067141010362409
 30
0.0
 11
-14.750266221584219
 21
30.256082638308769
 31
0.0
 12
-10.130868559027791
 22
30.256082638308769
 32
0.0
 13
-10.130868559027791
 23
30.256082638308769
 33
0.0
  0
SOLID
  5
302
  8
0
  6
CONTINUOUS
 10
14.20833434327238
 20
31.067141010362409
 30
0.0
 11
10.672800437339641
 21
31.067141010362409
 31
0.0
 12
10.130868559027791
 22
30.256082638308769
 32
0.0
 13
10.130868559027791
 23
30.256082638308769
 33
0.0
210
0.0
220
0.0
230
-1.0
  0
SOLID
  5
303
  8
0
  6
CONTINUOUS
 10
-14.750266221584219
 20
30.256082638308769
 30
0.0
 11
-14.940567390306001
 21
29.29937405739604
 31
0.0
 12
-9.9405673903060077
 22
29.29937405739604
 32
0.0
 13
-9.9405673903060077
 23
29.29937405739604
 33
0.0
210
0.0
220
0.0
230
1.0
  0
SOLID
  5
304
  8
0
  6
CONTINUOUS
 10
14.750266221584219
 20
30.256082638308769
 30
0.0
 11
10.130868559027791
 21
30.256082638308769
 31
0.0
 12
9.9405673903060077
 22
29.29937405739604
 32
0.0
 13
9.9405673903060077
 23
29.29937405739604
 33
0.0
210
0.0
220
0.0
230
-1.0
  0
SOLID
  5
305
  8
0
  6
CONTINUOUS
 10
-14.940567390306001
 20
29.29937405739604
 30
0.0
 11
-14.750266221584219
 21
28.342665476483312
 31
0.0
 12
-10.130868559027791
 22
28.342665476483312
 32
0.0
 13
-10.130868559027791
 23
28.342665476483312
 33
0.0
210
0.0
220
0.0
230
1.0
  0
SOLID
  5
306
  8
0
  6
CONTINUOUS
 10
14.940567390306001
 20
29.29937405739604
 30
0.0
 11
9.9405673903060077
 21
29.29937405739604
 31
0.0
 12
10.130868559027791
 22
28.342665476483312
 32
0.0
 13
10.130868559027791
 23
28.342665476483312
 33
0.0
210
0.0
220
0.0
230
-1.0
  0
SOLID
  5
307
  8
0
  6
CONTINUOUS
 10
-14.750266221584219
 20
28.342665476483312
 30
0.0
 11
-14.20833434327238
 21
27.531607104429671
 31
0.0
 12
-10.672800437339641
 22
27.531607104429671
 32
0.0
 13
-10.672800437339641
 23
27.531607104429671
 33
0.0
210
0.0
220
0.0
230
1.0
  0
SOLID
  5
308
  8
0
  6
CONTINUOUS
 10
14.750266221584219
 20
28.342665476483312
 30
0.0
 11
10.130868559027791
 21
28.342665476483312
 31
0.0
 12
10.672800437339641
 22
27.531607104429671
 32
0.0
 13
10.672800437339641
 23
27.531607104429671
 33
0.0
210
0.0
220
0.0
230
-1.0
  0
SOLID
  5
309
  8
0
  6
CONTINUOUS
 10
13.397275971218731
 20
26.989675226117821
 30
0.0
 11
11.483858809393301
 21
26.989675226117821
 31
0.0
 12
12.440567390306001
 22
26.79937405739604
 32
0.0
 13
12.440567390306001
 23
26.79937405739604
 33
0.0
210
0.0
220
0.0
230
-1.0
  0
SOLID
  5
30A
  8
0
  6
CONTINUOUS
 10
-14.20833434327238
 20
27.531607104429671
 30
0.0
 11
-13.397275971218731
 21
26.989675226117821
 31
0.0
 12
-11.48385880939329
 22
26.989675226117821
 32
0.0
 13
-11.48385880939329
 23
26.989675226117821
 33
0.0
210
0.0
220
0.0
230
1.0
  0
SOLID
  5
30B
  8
0
  6
CONTINUOUS
 10
14.20833434327238
 20
27.531607104429671
 30
0.0
 11
10.672800437339641
 21
27.531607104429671
 31
0.0
 12
11.48385880939329
 22
26.989675226117821
 32
0.0
 13
11.48385880939329
 23
26.989675226117821
 33
0.0
210
0.0
220
0.0
230
-1.0
  0
LINE
  5
30C
  8
0
  6
CONTINUOUS
 10
-12.440567390306001
 20
31.79937405739604
 30
0.0
 11
-13.397275971218731
 21
31.609072888674259
 31
0.0
  0
LINE
  5
30D
  8
0
  6
CONTINUOUS
 10
-11.483858809393279
 20
31.609072888674259
 30
0.0
 11
-12.440567390306001
 21
31.79937405739604
 31
0.0
  0
LINE
  5
30E
  8
0
  6
CONTINUOUS
 10
-13.397275971218731
 20
31.609072888674259
 30
0.0
 11
-14.20833434327238
 21
31.067141010362409
 31
0.0
  0
LINE
  5
30F
  8
0
  6
CONTINUOUS
 10
-11.483858809393279
 20
31.609072888674259
 30
0.0
 11
-10.672800437339641
 21
31.067141010362409
 31
0.0
  0
LINE
  5
310
  8
0
  6
CONTINUOUS
 10
-14.20833434327238
 20
31.067141010362409
 30
0.0
 11
-14.750266221584219
 21
30.256082638308769
 31
0.0
  0
LINE
  5
311
  8
0
  6
CONTINUOUS
 10
-10.672800437339641
 20
31.067141010362409
 30
0.0
 11
-10.130868559027791
 21
30.256082638308769
 31
0.0
  0
LINE
  5
312
  8
0
  6
CONTINUOUS
 10
-14.750266221584219
 20
30.256082638308769
 30
0.0
 11
-14.940567390306001
 21
29.29937405739604
 31
0.0
  0
LINE
  5
313
  8
0
  6
CONTINUOUS
 10
-10.130868559027791
 20
30.256082638308769
 30
0.0
 11
-9.9405673903060077
 21
29.29937405739604
 31
0.0
  0
LINE
  5
314
  8
0
  6
CONTINUOUS
 10
-14.940567390306001
 20
29.29937405739604
 30
0.0
 11
-14.750266221584219
 21
28.342665476483312
 31
0.0
  0
LINE
  5
315
  8
0
  6
CONTINUOUS
 10
-9.9405673903060077
 20
29.29937405739604
 30
0.0
 11
-10.130868559027791
 21
28.342665476483312
 31
0.0
  0
LINE
  5
316
  8
0
  6
CONTINUOUS
 10
-14.750266221584219
 20
28.342665476483312
 30
0.0
 11
-14.20833434327238
 21
27.531607104429671
 31
0.0
  0
LINE
  5
317
  8
0
  6
CONTINUOUS
 10
-10.130868559027791
 20
28.342665476483312
 30
0.0
 11
-10.672800437339641
 21
27.531607104429671
 31
0.0
  0
LINE
  5
318
  8
0
  6
CONTINUOUS
 10
-11.483858809393301
 20
26.989675226117821
 30
0.0
 11
-12.440567390306001
 21
26.79937405739604
 31
0.0
  0
LINE
  5
319
  8
0
  6
CONTINUOUS
 10
-12.440567390306001
 20
26.79937405739604
 30
0.0
 11
-13.397275971218731
 21
26.989675226117821
 31
0.0
  0
LINE
  5
31A
  8
0
  6
CONTINUOUS
 10
-14.20833434327238
 20
27.531607104429671
 30
0.0
 11
-13.397275971218731
 21
26.989675226117821
 31
0.0
  0
LINE
  5
31B
  8
0
  6
CONTINUOUS
 10
-10.672800437339641
 20
27.531607104429671
 30
0.0
 11
-11.48385880939329
 21
26.989675226117821
 31
0.0
  0
ENDBLK
  5
31D
  8
0
  0
BLOCK
  8
0
  2
*U23
 70
     1
 10
0.0
 20
0.0
 30
0.0
  3
*U23
  1

  0
TEXT
  5
31F
  8
0
 10
-680.02155477376095
 20
50.576871457513668
 30
0.0
 40
12.5
  1
Tilcor CF Shake Panel
  7
ARIAL
  0
TEXT
  5
320
  8
0
 10
-680.72926282287426
 20
30.956498381418101
 30
0.0
 40
12.5
  1
upstand
  7
ARIAL
  0
ENDBLK
  5
322
  8
0
  0
BLOCK
  8
0
  2
*U24
 70
     1
 10
0.0
 20
0.0
 30
0.0
  3
*U24
  1

  0
SOLID
  5
324
  8
0
  6
CONTINUOUS
 10
-12.44056739030604
 20
259.11584549561678
 30
0.0
 11
-13.397275971218759
 21
258.92554432689502
 31
0.0
 12
-11.48385880939332
 22
258.92554432689502
 32
0.0
 13
-11.48385880939332
 23
258.92554432689502
 33
0.0
210
0.0
220
0.0
230
1.0
  0
SOLID
  5
325
  8
0
  6
CONTINUOUS
 10
-13.397275971218759
 20
258.92554432689502
 30
0.0
 11
-14.20833434327241
 21
258.38361244858322
 31
0.0
 12
-10.672800437339671
 22
258.38361244858322
 32
0.0
 13
-10.672800437339671
 23
258.38361244858322
 33
0.0
210
0.0
220
0.0
230
1.0
  0
SOLID
  5
326
  8
0
  6
CONTINUOUS
 10
13.397275971218759
 20
258.92554432689502
 30
0.0
 11
11.48385880939332
 21
258.92554432689502
 31
0.0
 12
10.672800437339671
 22
258.38361244858322
 32
0.0
 13
10.672800437339671
 23
258.38361244858322
 33
0.0
210
0.0
220
0.0
230
-1.0
  0
SOLID
  5
327
  8
0
  6
CONTINUOUS
 10
-14.20833434327241
 20
258.38361244858322
 30
0.0
 11
-14.75026622158426
 21
257.57255407652951
 31
0.0
 12
-10.130868559027819
 22
257.57255407652951
 32
0.0
 13
-10.130868559027819
 23
257.57255407652951
 33
0.0
210
0.0
220
0.0
230
1.0
  0
SOLID
  5
328
  8
0
  6
CONTINUOUS
 10
14.20833434327241
 20
258.38361244858322
 30
0.0
 11
10.672800437339671
 21
258.38361244858322
 31
0.0
 12
10.130868559027819
 22
257.57255407652951
 32
0.0
 13
10.130868559027819
 23
257.57255407652951
 33
0.0
210
0.0
220
0.0
230
-1.0
  0
SOLID
  5
329
  8
0
  6
CONTINUOUS
 10
-14.75026622158426
 20
257.57255407652951
 30
0.0
 11
-14.94056739030604
 21
256.61584549561678
 31
0.0
 12
-9.9405673903060432
 22
256.61584549561678
 32
0.0
 13
-9.9405673903060432
 23
256.61584549561678
 33
0.0
210
0.0
220
0.0
230
1.0
  0
SOLID
  5
32A
  8
0
  6
CONTINUOUS
 10
14.75026622158426
 20
257.57255407652951
 30
0.0
 11
10.130868559027819
 21
257.57255407652951
 31
0.0
 12
9.9405673903060432
 22
256.61584549561678
 32
0.0
 13
9.9405673903060432
 23
256.61584549561678
 33
0.0
210
0.0
220
0.0
230
-1.0
  0
SOLID
  5
32B
  8
0
  6
CONTINUOUS
 10
-14.94056739030604
 20
256.61584549561678
 30
0.0
 11
-14.75026622158426
 21
255.65913691470399
 31
0.0
 12
-10.130868559027819
 22
255.65913691470399
 32
0.0
 13
-10.130868559027819
 23
255.65913691470399
 33
0.0
210
0.0
220
0.0
230
1.0
  0
SOLID
  5
32C
  8
0
  6
CONTINUOUS
 10
14.94056739030604
 20
256.61584549561678
 30
0.0
 11
9.9405673903060432
 21
256.61584549561678
 31
0.0
 12
10.130868559027819
 22
255.65913691470399
 32
0.0
 13
10.130868559027819
 23
255.65913691470399
 33
0.0
210
0.0
220
0.0
230
-1.0
  0
SOLID
  5
32D
  8
0
  6
CONTINUOUS
 10
-14.75026622158426
 20
255.65913691470399
 30
0.0
 11
-14.20833434327241
 21
254.8480785426504
 31
0.0
 12
-10.672800437339671
 22
254.8480785426504
 32
0.0
 13
-10.672800437339671
 23
254.8480785426504
 33
0.0
210
0.0
220
0.0
230
1.0
  0
SOLID
  5
32E
  8
0
  6
CONTINUOUS
 10
14.75026622158426
 20
255.65913691470399
 30
0.0
 11
10.130868559027819
 21
255.65913691470399
 31
0.0
 12
10.672800437339671
 22
254.8480785426504
 32
0.0
 13
10.672800437339671
 23
254.8480785426504
 33
0.0
210
0.0
220
0.0
230
-1.0
  0
SOLID
  5
32F
  8
0
  6
CONTINUOUS
 10
13.397275971218759
 20
254.3061466643386
 30
0.0
 11
11.48385880939332
 21
254.3061466643386
 31
0.0
 12
12.44056739030604
 22
254.11584549561681
 32
0.0
 13
12.44056739030604
 23
254.11584549561681
 33
0.0
210
0.0
220
0.0
230
-1.0
  0
SOLID
  5
330
  8
0
  6
CONTINUOUS
 10
-14.20833434327241
 20
254.8480785426504
 30
0.0
 11
-13.397275971218759
 21
254.3061466643386
 31
0.0
 12
-11.48385880939332
 22
254.3061466643386
 32
0.0
 13
-11.48385880939332
 23
254.3061466643386
 33
0.0
210
0.0
220
0.0
230
1.0
  0
SOLID
  5
331
  8
0
  6
CONTINUOUS
 10
14.20833434327241
 20
254.8480785426504
 30
0.0
 11
10.672800437339671
 21
254.8480785426504
 31
0.0
 12
11.48385880939332
 22
254.3061466643386
 32
0.0
 13
11.48385880939332
 23
254.3061466643386
 33
0.0
210
0.0
220
0.0
230
-1.0
  0
LINE
  5
332
  8
0
  6
CONTINUOUS
 10
-12.44056739030604
 20
259.11584549561678
 30
0.0
 11
-13.397275971218759
 21
258.92554432689502
 31
0.0
  0
LINE
  5
333
  8
0
  6
CONTINUOUS
 10
-11.48385880939332
 20
258.92554432689502
 30
0.0
 11
-12.44056739030604
 21
259.11584549561678
 31
0.0
  0
LINE
  5
334
  8
0
  6
CONTINUOUS
 10
-13.397275971218759
 20
258.92554432689502
 30
0.0
 11
-14.20833434327241
 21
258.38361244858322
 31
0.0
  0
LINE
  5
335
  8
0
  6
CONTINUOUS
 10
-11.48385880939332
 20
258.92554432689502
 30
0.0
 11
-10.672800437339671
 21
258.38361244858322
 31
0.0
  0
LINE
  5
336
  8
0
  6
CONTINUOUS
 10
-14.20833434327241
 20
258.38361244858322
 30
0.0
 11
-14.75026622158426
 21
257.57255407652951
 31
0.0
  0
LINE
  5
337
  8
0
  6
CONTINUOUS
 10
-10.672800437339671
 20
258.38361244858322
 30
0.0
 11
-10.130868559027819
 21
257.57255407652951
 31
0.0
  0
LINE
  5
338
  8
0
  6
CONTINUOUS
 10
-14.75026622158426
 20
257.57255407652951
 30
0.0
 11
-14.94056739030604
 21
256.61584549561678
 31
0.0
  0
LINE
  5
339
  8
0
  6
CONTINUOUS
 10
-10.130868559027819
 20
257.57255407652951
 30
0.0
 11
-9.9405673903060432
 21
256.61584549561678
 31
0.0
  0
LINE
  5
33A
  8
0
  6
CONTINUOUS
 10
-14.94056739030604
 20
256.61584549561678
 30
0.0
 11
-14.75026622158426
 21
255.65913691470399
 31
0.0
  0
LINE
  5
33B
  8
0
  6
CONTINUOUS
 10
-9.9405673903060432
 20
256.61584549561678
 30
0.0
 11
-10.130868559027819
 21
255.65913691470399
 31
0.0
  0
LINE
  5
33C
  8
0
  6
CONTINUOUS
 10
-14.75026622158426
 20
255.65913691470399
 30
0.0
 11
-14.20833434327241
 21
254.8480785426504
 31
0.0
  0
LINE
  5
33D
  8
0
  6
CONTINUOUS
 10
-10.130868559027819
 20
255.65913691470399
 30
0.0
 11
-10.672800437339671
 21
254.8480785426504
 31
0.0
  0
LINE
  5
33E
  8
0
  6
CONTINUOUS
 10
-11.48385880939332
 20
254.3061466643386
 30
0.0
 11
-12.44056739030604
 21
254.11584549561681
 31
0.0
  0
LINE
  5
33F
  8
0
  6
CONTINUOUS
 10
-12.44056739030604
 20
254.11584549561681
 30
0.0
 11
-13.397275971218759
 21
254.3061466643386
 31
0.0
  0
LINE
  5
340
  8
0
  6
CONTINUOUS
 10
-14.20833434327241
 20
254.8480785426504
 30
0.0
 11
-13.397275971218759
 21
254.3061466643386
 31
0.0
  0
LINE
  5
341
  8
0
  6
CONTINUOUS
 10
-10.672800437339671
 20
254.8480785426504
 30
0.0
 11
-11.48385880939332
 21
254.3061466643386
 31
0.0
  0
ENDBLK
  5
343
  8
0
  0
BLOCK
  8
0
  2
*U25
 70
     1
 10
0.0
 20
0.0
 30
0.0
  3
*U25
  1

  0
TEXT
  5
345
  8
0
 10
183.63154399872039
 20
250.8338775055868
 30
0.0
 40
12.5
  1
Stucco/Siding
  7
ARIAL
  0
ENDBLK
  5
347
  8
0
  0
BLOCK
  8
0
  2
*U26
 70
     1
 10
0.0
 20
0.0
 30
0.0
  3
*U26
  1

  0
SOLID
  5
349
  8
0
  6
CONTINUOUS
 10
-4.7631840265110723
 20
31.79937405739604
 30
0.0
 11
-5.7198926074237972
 21
31.609072888674259
 31
0.0
 12
-3.8064754455983469
 22
31.609072888674259
 32
0.0
 13
-3.8064754455983469
 23
31.609072888674259
 33
0.0
210
0.0
220
0.0
230
1.0
  0
SOLID
  5
34A
  8
0
  6
CONTINUOUS
 10
-5.7198926074237972
 20
31.609072888674259
 30
0.0
 11
-6.5309509794774421
 21
31.067141010362409
 31
0.0
 12
-2.9954170735447021
 22
31.067141010362409
 32
0.0
 13
-2.9954170735447021
 23
31.067141010362409
 33
0.0
210
0.0
220
0.0
230
1.0
  0
SOLID
  5
34B
  8
0
  6
CONTINUOUS
 10
5.7198926074237972
 20
31.609072888674259
 30
0.0
 11
3.8064754455983469
 21
31.609072888674259
 31
0.0
 12
2.9954170735447021
 22
31.067141010362409
 32
0.0
 13
2.9954170735447021
 23
31.067141010362409
 33
0.0
210
0.0
220
0.0
230
-1.0
  0
SOLID
  5
34C
  8
0
  6
CONTINUOUS
 10
-6.5309509794774421
 20
31.067141010362409
 30
0.0
 11
-7.0728828577892902
 21
30.256082638308769
 31
0.0
 12
-2.453485195232854
 22
30.256082638308769
 32
0.0
 13
-2.453485195232854
 23
30.256082638308769
 33
0.0
  0
SOLID
  5
34D
  8
0
  6
CONTINUOUS
 10
6.5309509794774421
 20
31.067141010362409
 30
0.0
 11
2.9954170735447021
 21
31.067141010362409
 31
0.0
 12
2.453485195232854
 22
30.256082638308769
 32
0.0
 13
2.453485195232854
 23
30.256082638308769
 33
0.0
210
0.0
220
0.0
230
-1.0
  0
SOLID
  5
34E
  8
0
  6
CONTINUOUS
 10
-7.0728828577892902
 20
30.256082638308769
 30
0.0
 11
-7.2631840265110732
 21
29.29937405739604
 31
0.0
 12
-2.2631840265110701
 22
29.29937405739604
 32
0.0
 13
-2.2631840265110701
 23
29.29937405739604
 33
0.0
210
0.0
220
0.0
230
1.0
  0
SOLID
  5
34F
  8
0
  6
CONTINUOUS
 10
7.0728828577892902
 20
30.256082638308769
 30
0.0
 11
2.453485195232854
 21
30.256082638308769
 31
0.0
 12
2.2631840265110701
 22
29.29937405739604
 32
0.0
 13
2.2631840265110701
 23
29.29937405739604
 33
0.0
210
0.0
220
0.0
230
-1.0
  0
SOLID
  5
350
  8
0
  6
CONTINUOUS
 10
-7.2631840265110732
 20
29.29937405739604
 30
0.0
 11
-7.0728828577892902
 21
28.342665476483312
 31
0.0
 12
-2.453485195232854
 22
28.342665476483312
 32
0.0
 13
-2.453485195232854
 23
28.342665476483312
 33
0.0
210
0.0
220
0.0
230
1.0
  0
SOLID
  5
351
  8
0
  6
CONTINUOUS
 10
7.2631840265110732
 20
29.29937405739604
 30
0.0
 11
2.2631840265110701
 21
29.29937405739604
 31
0.0
 12
2.453485195232854
 22
28.342665476483312
 32
0.0
 13
2.453485195232854
 23
28.342665476483312
 33
0.0
210
0.0
220
0.0
230
-1.0
  0
SOLID
  5
352
  8
0
  6
CONTINUOUS
 10
-7.0728828577892902
 20
28.342665476483312
 30
0.0
 11
-6.5309509794774421
 21
27.531607104429671
 31
0.0
 12
-2.9954170735447021
 22
27.531607104429671
 32
0.0
 13
-2.9954170735447021
 23
27.531607104429671
 33
0.0
210
0.0
220
0.0
230
1.0
  0
SOLID
  5
353
  8
0
  6
CONTINUOUS
 10
7.0728828577892902
 20
28.342665476483312
 30
0.0
 11
2.453485195232854
 21
28.342665476483312
 31
0.0
 12
2.9954170735447021
 22
27.531607104429671
 32
0.0
 13
2.9954170735447021
 23
27.531607104429671
 33
0.0
210
0.0
220
0.0
230
-1.0
  0
SOLID
  5
354
  8
0
  6
CONTINUOUS
 10
5.7198926074237972
 20
26.989675226117821
 30
0.0
 11
3.8064754455983469
 21
26.989675226117821
 31
0.0
 12
4.7631840265110723
 22
26.79937405739604
 32
0.0
 13
4.7631840265110723
 23
26.79937405739604
 33
0.0
210
0.0
220
0.0
230
-1.0
  0
SOLID
  5
355
  8
0
  6
CONTINUOUS
 10
-6.5309509794774421
 20
27.531607104429671
 30
0.0
 11
-5.7198926074237972
 21
26.989675226117821
 31
0.0
 12
-3.8064754455983469
 22
26.989675226117821
 32
0.0
 13
-3.8064754455983469
 23
26.989675226117821
 33
0.0
210
0.0
220
0.0
230
1.0
  0
SOLID
  5
356
  8
0
  6
CONTINUOUS
 10
6.5309509794774421
 20
27.531607104429671
 30
0.0
 11
2.9954170735447021
 21
27.531607104429671
 31
0.0
 12
3.8064754455983469
 22
26.989675226117821
 32
0.0
 13
3.8064754455983469
 23
26.989675226117821
 33
0.0
210
0.0
220
0.0
230
-1.0
  0
LINE
  5
357
  8
0
  6
CONTINUOUS
 10
-4.7631840265110723
 20
31.79937405739604
 30
0.0
 11
-5.7198926074237972
 21
31.609072888674259
 31
0.0
  0
LINE
  5
358
  8
0
  6
CONTINUOUS
 10
-3.8064754455983469
 20
31.609072888674259
 30
0.0
 11
-4.7631840265110723
 21
31.79937405739604
 31
0.0
  0
LINE
  5
359
  8
0
  6
CONTINUOUS
 10
-5.7198926074237972
 20
31.609072888674259
 30
0.0
 11
-6.5309509794774421
 21
31.067141010362409
 31
0.0
  0
LINE
  5
35A
  8
0
  6
CONTINUOUS
 10
-3.8064754455983469
 20
31.609072888674259
 30
0.0
 11
-2.9954170735447021
 21
31.067141010362409
 31
0.0
  0
LINE
  5
35B
  8
0
  6
CONTINUOUS
 10
-6.5309509794774421
 20
31.067141010362409
 30
0.0
 11
-7.0728828577892902
 21
30.256082638308769
 31
0.0
  0
LINE
  5
35C
  8
0
  6
CONTINUOUS
 10
-2.9954170735447021
 20
31.067141010362409
 30
0.0
 11
-2.453485195232854
 21
30.256082638308769
 31
0.0
  0
LINE
  5
35D
  8
0
  6
CONTINUOUS
 10
-7.0728828577892902
 20
30.256082638308769
 30
0.0
 11
-7.2631840265110732
 21
29.29937405739604
 31
0.0
  0
LINE
  5
35E
  8
0
  6
CONTINUOUS
 10
-2.453485195232854
 20
30.256082638308769
 30
0.0
 11
-2.2631840265110701
 21
29.29937405739604
 31
0.0
  0
LINE
  5
35F
  8
0
  6
CONTINUOUS
 10
-7.2631840265110732
 20
29.29937405739604
 30
0.0
 11
-7.0728828577892902
 21
28.342665476483312
 31
0.0
  0
LINE
  5
360
  8
0
  6
CONTINUOUS
 10
-2.2631840265110701
 20
29.29937405739604
 30
0.0
 11
-2.453485195232854
 21
28.342665476483312
 31
0.0
  0
LINE
  5
361
  8
0
  6
CONTINUOUS
 10
-7.0728828577892902
 20
28.342665476483312
 30
0.0
 11
-6.5309509794774421
 21
27.531607104429671
 31
0.0
  0
LINE
  5
362
  8
0
  6
CONTINUOUS
 10
-2.453485195232854
 20
28.342665476483312
 30
0.0
 11
-2.9954170735447021
 21
27.531607104429671
 31
0.0
  0
LINE
  5
363
  8
0
  6
CONTINUOUS
 10
-3.8064754455983469
 20
26.989675226117821
 30
0.0
 11
-4.7631840265110723
 21
26.79937405739604
 31
0.0
  0
LINE
  5
364
  8
0
  6
CONTINUOUS
 10
-4.7631840265110723
 20
26.79937405739604
 30
0.0
 11
-5.7198926074237972
 21
26.989675226117821
 31
0.0
  0
LINE
  5
365
  8
0
  6
CONTINUOUS
 10
-6.5309509794774421
 20
27.531607104429671
 30
0.0
 11
-5.7198926074237972
 21
26.989675226117821
 31
0.0
  0
LINE
  5
366
  8
0
  6
CONTINUOUS
 10
-2.9954170735447021
 20
27.531607104429671
 30
0.0
 11
-3.8064754455983469
 21
26.989675226117821
 31
0.0
  0
ENDBLK
  5
368
  8
0
  0
BLOCK
  8
0
  2
*U27
 70
     1
 10
0.0
 20
0.0
 30
0.0
  3
*U27
  1

  0
TEXT
  5
36A
  8
0
 10
183.04320839162619
 20
-36.45039478889732
 30
0.0
 40
12.5
  1
Underlay
  7
ARIAL
  0
ENDBLK
  5
36C
  8
0
  0
BLOCK
  8
0
  2
*U28
 70
     1
 10
0.0
 20
0.0
 30
0.0
  3
*U28
  1

  0
SOLID
  5
36E
  8
0
  6
CONTINUOUS
 10
-27.753346810145459
 20
56.546392683306813
 30
0.0
 11
-28.710055391058191
 21
56.356091514585032
 31
0.0
 12
-26.796638229232741
 22
56.356091514585032
 32
0.0
 13
-26.796638229232741
 23
56.356091514585032
 33
0.0
  0
SOLID
  5
36F
  8
0
  6
CONTINUOUS
 10
-28.710055391058191
 20
56.356091514585032
 30
0.0
 11
-29.521113763111831
 21
55.814159636273182
 31
0.0
 12
-25.98557985717909
 22
55.814159636273182
 32
0.0
 13
-25.98557985717909
 23
55.814159636273182
 33
0.0
210
0.0
220
0.0
230
1.0
  0
SOLID
  5
370
  8
0
  6
CONTINUOUS
 10
28.710055391058191
 20
56.356091514585032
 30
0.0
 11
26.796638229232741
 21
56.356091514585032
 31
0.0
 12
25.98557985717909
 22
55.814159636273182
 32
0.0
 13
25.98557985717909
 23
55.814159636273182
 33
0.0
210
0.0
220
0.0
230
-1.0
  0
SOLID
  5
371
  8
0
  6
CONTINUOUS
 10
-29.521113763111831
 20
55.814159636273182
 30
0.0
 11
-30.063045641423681
 21
55.003101264219538
 31
0.0
 12
-25.44364797886724
 22
55.003101264219538
 32
0.0
 13
-25.44364797886724
 23
55.003101264219538
 33
0.0
  0
SOLID
  5
372
  8
0
  6
CONTINUOUS
 10
29.521113763111831
 20
55.814159636273182
 30
0.0
 11
25.98557985717909
 21
55.814159636273182
 31
0.0
 12
25.44364797886724
 22
55.003101264219538
 32
0.0
 13
25.44364797886724
 23
55.003101264219538
 33
0.0
210
0.0
220
0.0
230
-1.0
  0
SOLID
  5
373
  8
0
  6
CONTINUOUS
 10
-30.063045641423681
 20
55.003101264219538
 30
0.0
 11
-30.253346810145459
 21
54.046392683306813
 31
0.0
 12
-25.253346810145459
 22
54.046392683306813
 32
0.0
 13
-25.253346810145459
 23
54.046392683306813
 33
0.0
210
0.0
220
0.0
230
1.0
  0
SOLID
  5
374
  8
0
  6
CONTINUOUS
 10
30.063045641423681
 20
55.003101264219538
 30
0.0
 11
25.44364797886724
 21
55.003101264219538
 31
0.0
 12
25.253346810145459
 22
54.046392683306813
 32
0.0
 13
25.253346810145459
 23
54.046392683306813
 33
0.0
210
0.0
220
0.0
230
-1.0
  0
SOLID
  5
375
  8
0
  6
CONTINUOUS
 10
-30.253346810145459
 20
54.046392683306813
 30
0.0
 11
-30.063045641423681
 21
53.089684102394081
 31
0.0
 12
-25.44364797886724
 22
53.089684102394081
 32
0.0
 13
-25.44364797886724
 23
53.089684102394081
 33
0.0
210
0.0
220
0.0
230
1.0
  0
SOLID
  5
376
  8
0
  6
CONTINUOUS
 10
30.253346810145459
 20
54.046392683306813
 30
0.0
 11
25.253346810145459
 21
54.046392683306813
 31
0.0
 12
25.44364797886724
 22
53.089684102394081
 32
0.0
 13
25.44364797886724
 23
53.089684102394081
 33
0.0
210
0.0
220
0.0
230
-1.0
  0
SOLID
  5
377
  8
0
  6
CONTINUOUS
 10
-30.063045641423681
 20
53.089684102394081
 30
0.0
 11
-29.521113763111831
 21
52.278625730340451
 31
0.0
 12
-25.98557985717909
 22
52.278625730340451
 32
0.0
 13
-25.98557985717909
 23
52.278625730340451
 33
0.0
210
0.0
220
0.0
230
1.0
  0
SOLID
  5
378
  8
0
  6
CONTINUOUS
 10
30.063045641423681
 20
53.089684102394081
 30
0.0
 11
25.44364797886724
 21
53.089684102394081
 31
0.0
 12
25.98557985717909
 22
52.278625730340451
 32
0.0
 13
25.98557985717909
 23
52.278625730340451
 33
0.0
210
0.0
220
0.0
230
-1.0
  0
SOLID
  5
379
  8
0
  6
CONTINUOUS
 10
28.710055391058191
 20
51.736693852028601
 30
0.0
 11
26.796638229232741
 21
51.736693852028601
 31
0.0
 12
27.753346810145459
 22
51.546392683306813
 32
0.0
 13
27.753346810145459
 23
51.546392683306813
 33
0.0
210
0.0
220
0.0
230
-1.0
  0
SOLID
  5
37A
  8
0
  6
CONTINUOUS
 10
-29.521113763111831
 20
52.278625730340451
 30
0.0
 11
-28.710055391058191
 21
51.736693852028601
 31
0.0
 12
-26.796638229232741
 22
51.736693852028601
 32
0.0
 13
-26.796638229232741
 23
51.736693852028601
 33
0.0
  0
SOLID
  5
37B
  8
0
  6
CONTINUOUS
 10
29.521113763111831
 20
52.278625730340451
 30
0.0
 11
25.98557985717909
 21
52.278625730340451
 31
0.0
 12
26.796638229232741
 22
51.736693852028601
 32
0.0
 13
26.796638229232741
 23
51.736693852028601
 33
0.0
210
0.0
220
0.0
230
-1.0
  0
LINE
  5
37C
  8
0
  6
CONTINUOUS
 10
-27.753346810145459
 20
56.546392683306813
 30
0.0
 11
-28.710055391058191
 21
56.356091514585032
 31
0.0
  0
LINE
  5
37D
  8
0
  6
CONTINUOUS
 10
-26.796638229232741
 20
56.356091514585032
 30
0.0
 11
-27.753346810145459
 21
56.546392683306813
 31
0.0
  0
LINE
  5
37E
  8
0
  6
CONTINUOUS
 10
-28.710055391058191
 20
56.356091514585032
 30
0.0
 11
-29.521113763111831
 21
55.814159636273182
 31
0.0
  0
LINE
  5
37F
  8
0
  6
CONTINUOUS
 10
-26.796638229232741
 20
56.356091514585032
 30
0.0
 11
-25.98557985717909
 21
55.814159636273182
 31
0.0
  0
LINE
  5
380
  8
0
  6
CONTINUOUS
 10
-29.521113763111831
 20
55.814159636273182
 30
0.0
 11
-30.063045641423681
 21
55.003101264219538
 31
0.0
  0
LINE
  5
381
  8
0
  6
CONTINUOUS
 10
-25.98557985717909
 20
55.814159636273182
 30
0.0
 11
-25.44364797886724
 21
55.003101264219538
 31
0.0
  0
LINE
  5
382
  8
0
  6
CONTINUOUS
 10
-30.063045641423681
 20
55.003101264219538
 30
0.0
 11
-30.253346810145459
 21
54.046392683306813
 31
0.0
  0
LINE
  5
383
  8
0
  6
CONTINUOUS
 10
-25.44364797886724
 20
55.003101264219538
 30
0.0
 11
-25.253346810145459
 21
54.046392683306813
 31
0.0
  0
LINE
  5
384
  8
0
  6
CONTINUOUS
 10
-30.253346810145459
 20
54.046392683306813
 30
0.0
 11
-30.063045641423681
 21
53.089684102394081
 31
0.0
  0
LINE
  5
385
  8
0
  6
CONTINUOUS
 10
-25.253346810145459
 20
54.046392683306813
 30
0.0
 11
-25.44364797886724
 21
53.089684102394081
 31
0.0
  0
LINE
  5
386
  8
0
  6
CONTINUOUS
 10
-30.063045641423681
 20
53.089684102394081
 30
0.0
 11
-29.521113763111831
 21
52.278625730340451
 31
0.0
  0
LINE
  5
387
  8
0
  6
CONTINUOUS
 10
-25.44364797886724
 20
53.089684102394081
 30
0.0
 11
-25.98557985717909
 21
52.278625730340451
 31
0.0
  0
LINE
  5
388
  8
0
  6
CONTINUOUS
 10
-26.796638229232741
 20
51.736693852028601
 30
0.0
 11
-27.753346810145459
 21
51.546392683306813
 31
0.0
  0
LINE
  5
389
  8
0
  6
CONTINUOUS
 10
-27.753346810145459
 20
51.546392683306813
 30
0.0
 11
-28.710055391058191
 21
51.736693852028601
 31
0.0
  0
LINE
  5
38A
  8
0
  6
CONTINUOUS
 10
-29.521113763111831
 20
52.278625730340451
 30
0.0
 11
-28.710055391058191
 21
51.736693852028601
 31
0.0
  0
LINE
  5
38B
  8
0
  6
CONTINUOUS
 10
-25.98557985717909
 20
52.278625730340451
 30
0.0
 11
-26.796638229232741
 21
51.736693852028601
 31
0.0
  0
ENDBLK
  5
38D
  8
0
  0
BLOCK
  8
0
  2
*U29
 70
     1
 10
0.0
 20
0.0
 30
0.0
  3
*U29
  1

  0
TEXT
  5
38F
  8
0
 10
183.5889109837135
 20
21.47841902050126
 30
0.0
 40
12.5
  1
715 US Side Flashing
  7
ARIAL
  0
ENDBLK
  5
391
  8
0
  0
BLOCK
  8
0
  2
*U30
 70
     1
 10
0.0
 20
0.0
 30
0.0
  3
*U30
  1

  0
SOLID
  5
393
  8
0
  6
CONTINUOUS
 10
45.87844951896728
 20
99.105583799739719
 30
0.0
 11
44.921740938054548
 21
98.915282631017945
 31
0.0
 12
46.835158099879997
 22
98.915282631017945
 32
0.0
 13
46.835158099879997
 23
98.915282631017945
 33
0.0
210
0.0
220
0.0
230
1.0
  0
SOLID
  5
394
  8
0
  6
CONTINUOUS
 10
44.921740938054548
 20
98.915282631017945
 30
0.0
 11
44.110682566000911
 21
98.373350752706074
 31
0.0
 12
47.646216471933641
 22
98.373350752706074
 32
0.0
 13
47.646216471933641
 23
98.373350752706074
 33
0.0
210
0.0
220
0.0
230
1.0
  0
SOLID
  5
395
  8
0
  6
CONTINUOUS
 10
-44.921740938054548
 20
98.915282631017945
 30
0.0
 11
-46.835158099879997
 21
98.915282631017945
 31
0.0
 12
-47.646216471933641
 22
98.373350752706074
 32
0.0
 13
-47.646216471933641
 23
98.373350752706074
 33
0.0
210
0.0
220
0.0
230
-1.0
  0
SOLID
  5
396
  8
0
  6
CONTINUOUS
 10
44.110682566000911
 20
98.373350752706074
 30
0.0
 11
43.568750687689061
 21
97.562292380652451
 31
0.0
 12
48.188148350245498
 22
97.562292380652451
 32
0.0
 13
48.188148350245498
 23
97.562292380652451
 33
0.0
210
0.0
220
0.0
230
1.0
  0
SOLID
  5
397
  8
0
  6
CONTINUOUS
 10
-44.110682566000911
 20
98.373350752706074
 30
0.0
 11
-47.646216471933641
 21
98.373350752706074
 31
0.0
 12
-48.188148350245498
 22
97.562292380652451
 32
0.0
 13
-48.188148350245498
 23
97.562292380652451
 33
0.0
210
0.0
220
0.0
230
-1.0
  0
SOLID
  5
398
  8
0
  6
CONTINUOUS
 10
43.568750687689061
 20
97.562292380652451
 30
0.0
 11
43.37844951896728
 21
96.605583799739719
 31
0.0
 12
48.37844951896728
 22
96.605583799739719
 32
0.0
 13
48.37844951896728
 23
96.605583799739719
 33
0.0
210
0.0
220
0.0
230
1.0
  0
SOLID
  5
399
  8
0
  6
CONTINUOUS
 10
-43.568750687689061
 20
97.562292380652451
 30
0.0
 11
-48.188148350245498
 21
97.562292380652451
 31
0.0
 12
-48.37844951896728
 22
96.605583799739719
 32
0.0
 13
-48.37844951896728
 23
96.605583799739719
 33
0.0
210
0.0
220
0.0
230
-1.0
  0
SOLID
  5
39A
  8
0
  6
CONTINUOUS
 10
43.37844951896728
 20
96.605583799739719
 30
0.0
 11
43.568750687689061
 21
95.648875218826987
 31
0.0
 12
48.188148350245498
 22
95.648875218826987
 32
0.0
 13
48.188148350245498
 23
95.648875218826987
 33
0.0
210
0.0
220
0.0
230
1.0
  0
SOLID
  5
39B
  8
0
  6
CONTINUOUS
 10
-43.37844951896728
 20
96.605583799739719
 30
0.0
 11
-48.37844951896728
 21
96.605583799739719
 31
0.0
 12
-48.188148350245498
 22
95.648875218826987
 32
0.0
 13
-48.188148350245498
 23
95.648875218826987
 33
0.0
210
0.0
220
0.0
230
-1.0
  0
SOLID
  5
39C
  8
0
  6
CONTINUOUS
 10
43.568750687689061
 20
95.648875218826987
 30
0.0
 11
44.110682566000911
 21
94.83781684677335
 31
0.0
 12
47.646216471933641
 22
94.83781684677335
 32
0.0
 13
47.646216471933641
 23
94.83781684677335
 33
0.0
210
0.0
220
0.0
230
1.0
  0
SOLID
  5
39D
  8
0
  6
CONTINUOUS
 10
-43.568750687689061
 20
95.648875218826987
 30
0.0
 11
-48.188148350245498
 21
95.648875218826987
 31
0.0
 12
-47.646216471933641
 22
94.83781684677335
 32
0.0
 13
-47.646216471933641
 23
94.83781684677335
 33
0.0
210
0.0
220
0.0
230
-1.0
  0
SOLID
  5
39E
  8
0
  6
CONTINUOUS
 10
-44.921740938054548
 20
94.295884968461479
 30
0.0
 11
-46.835158099879997
 21
94.295884968461479
 31
0.0
 12
-45.87844951896728
 22
94.105583799739719
 32
0.0
 13
-45.87844951896728
 23
94.105583799739719
 33
0.0
210
0.0
220
0.0
230
-1.0
  0
SOLID
  5
39F
  8
0
  6
CONTINUOUS
 10
44.110682566000911
 20
94.83781684677335
 30
0.0
 11
44.921740938054548
 21
94.295884968461479
 31
0.0
 12
46.835158099879997
 22
94.295884968461479
 32
0.0
 13
46.835158099879997
 23
94.295884968461479
 33
0.0
210
0.0
220
0.0
230
1.0
  0
SOLID
  5
3A0
  8
0
  6
CONTINUOUS
 10
-44.110682566000911
 20
94.83781684677335
 30
0.0
 11
-47.646216471933641
 21
94.83781684677335
 31
0.0
 12
-46.835158099879997
 22
94.295884968461479
 32
0.0
 13
-46.835158099879997
 23
94.295884968461479
 33
0.0
210
0.0
220
0.0
230
-1.0
  0
LINE
  5
3A1
  8
0
  6
CONTINUOUS
 10
45.87844951896728
 20
99.105583799739719
 30
0.0
 11
44.921740938054548
 21
98.915282631017945
 31
0.0
  0
LINE
  5
3A2
  8
0
  6
CONTINUOUS
 10
46.835158099879997
 20
98.915282631017945
 30
0.0
 11
45.87844951896728
 21
99.105583799739719
 31
0.0
  0
LINE
  5
3A3
  8
0
  6
CONTINUOUS
 10
44.921740938054548
 20
98.915282631017945
 30
0.0
 11
44.110682566000911
 21
98.373350752706074
 31
0.0
  0
LINE
  5
3A4
  8
0
  6
CONTINUOUS
 10
46.835158099879997
 20
98.915282631017945
 30
0.0
 11
47.646216471933641
 21
98.373350752706074
 31
0.0
  0
LINE
  5
3A5
  8
0
  6
CONTINUOUS
 10
44.110682566000911
 20
98.373350752706074
 30
0.0
 11
43.568750687689061
 21
97.562292380652451
 31
0.0
  0
LINE
  5
3A6
  8
0
  6
CONTINUOUS
 10
47.646216471933641
 20
98.373350752706074
 30
0.0
 11
48.188148350245498
 21
97.562292380652451
 31
0.0
  0
LINE
  5
3A7
  8
0
  6
CONTINUOUS
 10
43.568750687689061
 20
97.562292380652451
 30
0.0
 11
43.37844951896728
 21
96.605583799739719
 31
0.0
  0
LINE
  5
3A8
  8
0
  6
CONTINUOUS
 10
48.188148350245498
 20
97.562292380652451
 30
0.0
 11
48.37844951896728
 21
96.605583799739719
 31
0.0
  0
LINE
  5
3A9
  8
0
  6
CONTINUOUS
 10
43.37844951896728
 20
96.605583799739719
 30
0.0
 11
43.568750687689061
 21
95.648875218826987
 31
0.0
  0
LINE
  5
3AA
  8
0
  6
CONTINUOUS
 10
48.37844951896728
 20
96.605583799739719
 30
0.0
 11
48.188148350245498
 21
95.648875218826987
 31
0.0
  0
LINE
  5
3AB
  8
0
  6
CONTINUOUS
 10
43.568750687689061
 20
95.648875218826987
 30
0.0
 11
44.110682566000911
 21
94.83781684677335
 31
0.0
  0
LINE
  5
3AC
  8
0
  6
CONTINUOUS
 10
48.188148350245498
 20
95.648875218826987
 30
0.0
 11
47.646216471933641
 21
94.83781684677335
 31
0.0
  0
LINE
  5
3AD
  8
0
  6
CONTINUOUS
 10
46.835158099879997
 20
94.295884968461479
 30
0.0
 11
45.87844951896728
 21
94.105583799739719
 31
0.0
  0
LINE
  5
3AE
  8
0
  6
CONTINUOUS
 10
45.87844951896728
 20
94.105583799739719
 30
0.0
 11
44.921740938054548
 21
94.295884968461479
 31
0.0
  0
LINE
  5
3AF
  8
0
  6
CONTINUOUS
 10
44.110682566000911
 20
94.83781684677335
 30
0.0
 11
44.921740938054548
 21
94.295884968461479
 31
0.0
  0
LINE
  5
3B0
  8
0
  6
CONTINUOUS
 10
47.646216471933641
 20
94.83781684677335
 30
0.0
 11
46.835158099879997
 21
94.295884968461479
 31
0.0
  0
ENDBLK
  5
3B2
  8
0
  0
BLOCK
  8
0
  2
*U31
 70
     1
 10
0.0
 20
0.0
 30
0.0
  3
*U31
  1

  0
TEXT
  5
3B4
  8
0
 10
183.63154399872039
 20
90.823615809709707
 30
0.0
 40
12.5
  1
Support nog
  7
ARIAL
  0
ENDBLK
  5
3B6
  8
0
  0
BLOCK
  8
0
  2
*U32
 70
     1
 10
0.0
 20
0.0
 30
0.0
  3
*U32
  1

  0
SOLID
  5
3B8
  8
0
  6
CONTINUOUS
 10
-365.18911232016762
 20
-118.21750920099321
 30
0.0
 11
-366.1458209010803
 21
-118.40781036971499
 31
0.0
 12
-364.23240373925489
 22
-118.40781036971499
 32
0.0
 13
-364.23240373925489
 23
-118.40781036971499
 33
0.0
210
0.0
220
0.0
230
1.0
  0
SOLID
  5
3B9
  8
0
  6
CONTINUOUS
 10
-366.1458209010803
 20
-118.40781036971499
 30
0.0
 11
-366.95687927313401
 21
-118.94974224802689
 31
0.0
 12
-363.42134536720118
 22
-118.94974224802689
 32
0.0
 13
-363.42134536720118
 23
-118.94974224802689
 33
0.0
210
0.0
220
0.0
230
1.0
  0
SOLID
  5
3BA
  8
0
  6
CONTINUOUS
 10
366.1458209010803
 20
-118.40781036971499
 30
0.0
 11
364.23240373925489
 21
-118.40781036971499
 31
0.0
 12
363.42134536720118
 22
-118.94974224802689
 32
0.0
 13
363.42134536720118
 23
-118.94974224802689
 33
0.0
210
0.0
220
0.0
230
-1.0
  0
SOLID
  5
3BB
  8
0
  6
CONTINUOUS
 10
-366.95687927313401
 20
-118.94974224802689
 30
0.0
 11
-367.49881115144592
 21
-119.7608006200805
 31
0.0
 12
-362.87941348888938
 22
-119.7608006200805
 32
0.0
 13
-362.87941348888938
 23
-119.7608006200805
 33
0.0
210
0.0
220
0.0
230
1.0
  0
SOLID
  5
3BC
  8
0
  6
CONTINUOUS
 10
366.95687927313401
 20
-118.94974224802689
 30
0.0
 11
363.42134536720118
 21
-118.94974224802689
 31
0.0
 12
362.87941348888938
 22
-119.7608006200805
 32
0.0
 13
362.87941348888938
 23
-119.7608006200805
 33
0.0
210
0.0
220
0.0
230
-1.0
  0
SOLID
  5
3BD
  8
0
  6
CONTINUOUS
 10
-367.49881115144592
 20
-119.7608006200805
 30
0.0
 11
-367.68911232016768
 21
-120.71750920099331
 31
0.0
 12
-362.68911232016762
 22
-120.71750920099331
 32
0.0
 13
-362.68911232016762
 23
-120.71750920099331
 33
0.0
210
0.0
220
0.0
230
1.0
  0
SOLID
  5
3BE
  8
0
  6
CONTINUOUS
 10
367.49881115144592
 20
-119.7608006200805
 30
0.0
 11
362.87941348888938
 21
-119.7608006200805
 31
0.0
 12
362.68911232016762
 22
-120.71750920099331
 32
0.0
 13
362.68911232016762
 23
-120.71750920099331
 33
0.0
210
0.0
220
0.0
230
-1.0
  0
SOLID
  5
3BF
  8
0
  6
CONTINUOUS
 10
-367.68911232016768
 20
-120.71750920099331
 30
0.0
 11
-367.49881115144592
 21
-121.67421778190599
 31
0.0
 12
-362.87941348888938
 22
-121.67421778190599
 32
0.0
 13
-362.87941348888938
 23
-121.67421778190599
 33
0.0
  0
SOLID
  5
3C0
  8
0
  6
CONTINUOUS
 10
367.68911232016768
 20
-120.71750920099331
 30
0.0
 11
362.68911232016762
 21
-120.71750920099331
 31
0.0
 12
362.87941348888938
 22
-121.67421778190599
 32
0.0
 13
362.87941348888938
 23
-121.67421778190599
 33
0.0
210
0.0
220
0.0
230
-1.0
  0
SOLID
  5
3C1
  8
0
  6
CONTINUOUS
 10
-367.49881115144592
 20
-121.67421778190599
 30
0.0
 11
-366.95687927313401
 21
-122.4852761539597
 31
0.0
 12
-363.42134536720118
 22
-122.4852761539597
 32
0.0
 13
-363.42134536720118
 23
-122.4852761539597
 33
0.0
210
0.0
220
0.0
230
1.0
  0
SOLID
  5
3C2
  8
0
  6
CONTINUOUS
 10
367.49881115144592
 20
-121.67421778190599
 30
0.0
 11
362.87941348888938
 21
-121.67421778190599
 31
0.0
 12
363.42134536720118
 22
-122.4852761539597
 32
0.0
 13
363.42134536720118
 23
-122.4852761539597
 33
0.0
210
0.0
220
0.0
230
-1.0
  0
SOLID
  5
3C3
  8
0
  6
CONTINUOUS
 10
366.1458209010803
 20
-123.0272080322715
 30
0.0
 11
364.23240373925489
 21
-123.0272080322715
 31
0.0
 12
365.18911232016762
 22
-123.21750920099331
 32
0.0
 13
365.18911232016762
 23
-123.21750920099331
 33
0.0
210
0.0
220
0.0
230
-1.0
  0
SOLID
  5
3C4
  8
0
  6
CONTINUOUS
 10
-366.95687927313401
 20
-122.4852761539597
 30
0.0
 11
-366.1458209010803
 21
-123.0272080322715
 31
0.0
 12
-364.23240373925489
 22
-123.0272080322715
 32
0.0
 13
-364.23240373925489
 23
-123.0272080322715
 33
0.0
210
0.0
220
0.0
230
1.0
  0
SOLID
  5
3C5
  8
0
  6
CONTINUOUS
 10
366.95687927313401
 20
-122.4852761539597
 30
0.0
 11
363.42134536720118
 21
-122.4852761539597
 31
0.0
 12
364.23240373925489
 22
-123.0272080322715
 32
0.0
 13
364.23240373925489
 23
-123.0272080322715
 33
0.0
210
0.0
220
0.0
230
-1.0
  0
LINE
  5
3C6
  8
0
  6
CONTINUOUS
 10
-365.18911232016762
 20
-118.21750920099321
 30
0.0
 11
-366.1458209010803
 21
-118.40781036971499
 31
0.0
  0
LINE
  5
3C7
  8
0
  6
CONTINUOUS
 10
-364.23240373925489
 20
-118.40781036971499
 30
0.0
 11
-365.18911232016762
 21
-118.21750920099321
 31
0.0
  0
LINE
  5
3C8
  8
0
  6
CONTINUOUS
 10
-366.1458209010803
 20
-118.40781036971499
 30
0.0
 11
-366.95687927313401
 21
-118.94974224802689
 31
0.0
  0
LINE
  5
3C9
  8
0
  6
CONTINUOUS
 10
-364.23240373925489
 20
-118.40781036971499
 30
0.0
 11
-363.42134536720118
 21
-118.94974224802689
 31
0.0
  0
LINE
  5
3CA
  8
0
  6
CONTINUOUS
 10
-366.95687927313401
 20
-118.94974224802689
 30
0.0
 11
-367.49881115144592
 21
-119.7608006200805
 31
0.0
  0
LINE
  5
3CB
  8
0
  6
CONTINUOUS
 10
-363.42134536720118
 20
-118.94974224802689
 30
0.0
 11
-362.87941348888938
 21
-119.7608006200805
 31
0.0
  0
LINE
  5
3CC
  8
0
  6
CONTINUOUS
 10
-367.49881115144592
 20
-119.7608006200805
 30
0.0
 11
-367.68911232016768
 21
-120.71750920099331
 31
0.0
  0
LINE
  5
3CD
  8
0
  6
CONTINUOUS
 10
-362.87941348888938
 20
-119.7608006200805
 30
0.0
 11
-362.68911232016762
 21
-120.71750920099331
 31
0.0
  0
LINE
  5
3CE
  8
0
  6
CONTINUOUS
 10
-367.68911232016768
 20
-120.71750920099331
 30
0.0
 11
-367.49881115144592
 21
-121.67421778190599
 31
0.0
  0
LINE
  5
3CF
  8
0
  6
CONTINUOUS
 10
-362.68911232016762
 20
-120.71750920099331
 30
0.0
 11
-362.87941348888938
 21
-121.67421778190599
 31
0.0
  0
LINE
  5
3D0
  8
0
  6
CONTINUOUS
 10
-367.49881115144592
 20
-121.67421778190599
 30
0.0
 11
-366.95687927313401
 21
-122.4852761539597
 31
0.0
  0
LINE
  5
3D1
  8
0
  6
CONTINUOUS
 10
-362.87941348888938
 20
-121.67421778190599
 30
0.0
 11
-363.42134536720118
 21
-122.4852761539597
 31
0.0
  0
LINE
  5
3D2
  8
0
  6
CONTINUOUS
 10
-364.23240373925489
 20
-123.0272080322715
 30
0.0
 11
-365.18911232016762
 21
-123.21750920099331
 31
0.0
  0
LINE
  5
3D3
  8
0
  6
CONTINUOUS
 10
-365.18911232016762
 20
-123.21750920099331
 30
0.0
 11
-366.1458209010803
 21
-123.0272080322715
 31
0.0
  0
LINE
  5
3D4
  8
0
  6
CONTINUOUS
 10
-366.95687927313401
 20
-122.4852761539597
 30
0.0
 11
-366.1458209010803
 21
-123.0272080322715
 31
0.0
  0
LINE
  5
3D5
  8
0
  6
CONTINUOUS
 10
-363.42134536720118
 20
-122.4852761539597
 30
0.0
 11
-364.23240373925489
 21
-123.0272080322715
 31
0.0
  0
ENDBLK
  5
3D7
  8
0
  0
BLOCK
  8
0
  2
*U33
 70
     1
 10
0.0
 20
0.0
 30
0.0
  3
*U33
  1

  0
TEXT
  5
3D9
  8
0
 10
-680.95948110391112
 20
-35.522492772039342
 30
0.0
 40
12.5
  1
Plywood underlay 15mm
  7
ARIAL
  0
TEXT
  5
3DA
  8
0
 10
-679.91923553774473
 20
-55.142865848134903
 30
0.0
 40
12.5
  1
thickness minimum
  7
ARIAL
  0
ENDBLK
  5
3DC
  8
0
  0
BLOCK
  8
0
  2
*U34
 70
     1
 10
0.0
 20
0.0
 30
0.0
  3
*U34
  1

  0
SOLID
  5
3DE
  8
0
  6
CONTINUOUS
 10
-334.32894492795327
 20
-94.742684022718507
 30
0.0
 11
-335.28565350886601
 21
-94.932985191440295
 31
0.0
 12
-333.3722363470406
 22
-94.932985191440295
 32
0.0
 13
-333.3722363470406
 23
-94.932985191440295
 33
0.0
  0
SOLID
  5
3DF
  8
0
  6
CONTINUOUS
 10
-335.28565350886601
 20
-94.932985191440295
 30
0.0
 11
-336.09671188091971
 21
-95.474917069752152
 31
0.0
 12
-332.56117797498689
 22
-95.474917069752152
 32
0.0
 13
-332.56117797498689
 23
-95.474917069752152
 33
0.0
210
0.0
220
0.0
230
1.0
  0
SOLID
  5
3E0
  8
0
  6
CONTINUOUS
 10
335.28565350886601
 20
-94.932985191440295
 30
0.0
 11
333.3722363470406
 21
-94.932985191440295
 31
0.0
 12
332.56117797498689
 22
-95.474917069752152
 32
0.0
 13
332.56117797498689
 23
-95.474917069752152
 33
0.0
210
0.0
220
0.0
230
-1.0
  0
SOLID
  5
3E1
  8
0
  6
CONTINUOUS
 10
-336.09671188091971
 20
-95.474917069752152
 30
0.0
 11
-336.63864375923151
 21
-96.285975441805775
 31
0.0
 12
-332.01924609667509
 22
-96.285975441805775
 32
0.0
 13
-332.01924609667509
 23
-96.285975441805775
 33
0.0
  0
SOLID
  5
3E2
  8
0
  6
CONTINUOUS
 10
336.09671188091971
 20
-95.474917069752152
 30
0.0
 11
332.56117797498689
 21
-95.474917069752152
 31
0.0
 12
332.01924609667509
 22
-96.285975441805775
 32
0.0
 13
332.01924609667509
 23
-96.285975441805775
 33
0.0
210
0.0
220
0.0
230
-1.0
  0
SOLID
  5
3E3
  8
0
  6
CONTINUOUS
 10
-336.63864375923151
 20
-96.285975441805775
 30
0.0
 11
-336.82894492795327
 21
-97.242684022718535
 31
0.0
 12
-331.82894492795327
 22
-97.242684022718535
 32
0.0
 13
-331.82894492795327
 23
-97.242684022718535
 33
0.0
210
0.0
220
0.0
230
1.0
  0
SOLID
  5
3E4
  8
0
  6
CONTINUOUS
 10
336.63864375923151
 20
-96.285975441805775
 30
0.0
 11
332.01924609667509
 21
-96.285975441805775
 31
0.0
 12
331.82894492795327
 22
-97.242684022718535
 32
0.0
 13
331.82894492795327
 23
-97.242684022718535
 33
0.0
210
0.0
220
0.0
230
-1.0
  0
SOLID
  5
3E5
  8
0
  6
CONTINUOUS
 10
-336.82894492795327
 20
-97.242684022718535
 30
0.0
 11
-336.63864375923151
 21
-98.199392603631253
 31
0.0
 12
-332.01924609667509
 22
-98.199392603631253
 32
0.0
 13
-332.01924609667509
 23
-98.199392603631253
 33
0.0
210
0.0
220
0.0
230
1.0
  0
SOLID
  5
3E6
  8
0
  6
CONTINUOUS
 10
336.82894492795327
 20
-97.242684022718535
 30
0.0
 11
331.82894492795327
 21
-97.242684022718535
 31
0.0
 12
332.01924609667509
 22
-98.199392603631253
 32
0.0
 13
332.01924609667509
 23
-98.199392603631253
 33
0.0
210
0.0
220
0.0
230
-1.0
  0
SOLID
  5
3E7
  8
0
  6
CONTINUOUS
 10
-336.63864375923151
 20
-98.199392603631253
 30
0.0
 11
-336.09671188091971
 21
-99.010450975684904
 31
0.0
 12
-332.56117797498689
 22
-99.010450975684904
 32
0.0
 13
-332.56117797498689
 23
-99.010450975684904
 33
0.0
210
0.0
220
0.0
230
1.0
  0
SOLID
  5
3E8
  8
0
  6
CONTINUOUS
 10
336.63864375923151
 20
-98.199392603631253
 30
0.0
 11
332.01924609667509
 21
-98.199392603631253
 31
0.0
 12
332.56117797498689
 22
-99.010450975684904
 32
0.0
 13
332.56117797498689
 23
-99.010450975684904
 33
0.0
210
0.0
220
0.0
230
-1.0
  0
SOLID
  5
3E9
  8
0
  6
CONTINUOUS
 10
335.28565350886601
 20
-99.552382853996747
 30
0.0
 11
333.3722363470406
 21
-99.552382853996747
 31
0.0
 12
334.32894492795327
 22
-99.742684022718535
 32
0.0
 13
334.32894492795327
 23
-99.742684022718535
 33
0.0
210
0.0
220
0.0
230
-1.0
  0
SOLID
  5
3EA
  8
0
  6
CONTINUOUS
 10
-336.09671188091971
 20
-99.010450975684904
 30
0.0
 11
-335.28565350886601
 21
-99.552382853996747
 31
0.0
 12
-333.3722363470406
 22
-99.552382853996747
 32
0.0
 13
-333.3722363470406
 23
-99.552382853996747
 33
0.0
210
0.0
220
0.0
230
1.0
  0
SOLID
  5
3EB
  8
0
  6
CONTINUOUS
 10
336.09671188091971
 20
-99.010450975684904
 30
0.0
 11
332.56117797498689
 21
-99.010450975684904
 31
0.0
 12
333.3722363470406
 22
-99.552382853996747
 32
0.0
 13
333.3722363470406
 23
-99.552382853996747
 33
0.0
210
0.0
220
0.0
230
-1.0
  0
LINE
  5
3EC
  8
0
  6
CONTINUOUS
 10
-334.32894492795327
 20
-94.742684022718507
 30
0.0
 11
-335.28565350886601
 21
-94.932985191440295
 31
0.0
  0
LINE
  5
3ED
  8
0
  6
CONTINUOUS
 10
-333.3722363470406
 20
-94.932985191440295
 30
0.0
 11
-334.32894492795327
 21
-94.742684022718507
 31
0.0
  0
LINE
  5
3EE
  8
0
  6
CONTINUOUS
 10
-335.28565350886601
 20
-94.932985191440295
 30
0.0
 11
-336.09671188091971
 21
-95.474917069752152
 31
0.0
  0
LINE
  5
3EF
  8
0
  6
CONTINUOUS
 10
-333.3722363470406
 20
-94.932985191440295
 30
0.0
 11
-332.56117797498689
 21
-95.474917069752152
 31
0.0
  0
LINE
  5
3F0
  8
0
  6
CONTINUOUS
 10
-336.09671188091971
 20
-95.474917069752152
 30
0.0
 11
-336.63864375923151
 21
-96.285975441805775
 31
0.0
  0
LINE
  5
3F1
  8
0
  6
CONTINUOUS
 10
-332.56117797498689
 20
-95.474917069752152
 30
0.0
 11
-332.01924609667509
 21
-96.285975441805775
 31
0.0
  0
LINE
  5
3F2
  8
0
  6
CONTINUOUS
 10
-336.63864375923151
 20
-96.285975441805775
 30
0.0
 11
-336.82894492795327
 21
-97.242684022718535
 31
0.0
  0
LINE
  5
3F3
  8
0
  6
CONTINUOUS
 10
-332.01924609667509
 20
-96.285975441805775
 30
0.0
 11
-331.82894492795327
 21
-97.242684022718535
 31
0.0
  0
LINE
  5
3F4
  8
0
  6
CONTINUOUS
 10
-336.82894492795327
 20
-97.242684022718535
 30
0.0
 11
-336.63864375923151
 21
-98.199392603631253
 31
0.0
  0
LINE
  5
3F5
  8
0
  6
CONTINUOUS
 10
-331.82894492795327
 20
-97.242684022718535
 30
0.0
 11
-332.01924609667509
 21
-98.199392603631253
 31
0.0
  0
LINE
  5
3F6
  8
0
  6
CONTINUOUS
 10
-336.63864375923151
 20
-98.199392603631253
 30
0.0
 11
-336.09671188091971
 21
-99.010450975684904
 31
0.0
  0
LINE
  5
3F7
  8
0
  6
CONTINUOUS
 10
-332.01924609667509
 20
-98.199392603631253
 30
0.0
 11
-332.56117797498689
 21
-99.010450975684904
 31
0.0
  0
LINE
  5
3F8
  8
0
  6
CONTINUOUS
 10
-333.3722363470406
 20
-99.552382853996747
 30
0.0
 11
-334.32894492795327
 21
-99.742684022718535
 31
0.0
  0
LINE
  5
3F9
  8
0
  6
CONTINUOUS
 10
-334.32894492795327
 20
-99.742684022718535
 30
0.0
 11
-335.28565350886601
 21
-99.552382853996747
 31
0.0
  0
LINE
  5
3FA
  8
0
  6
CONTINUOUS
 10
-336.09671188091971
 20
-99.010450975684904
 30
0.0
 11
-335.28565350886601
 21
-99.552382853996747
 31
0.0
  0
LINE
  5
3FB
  8
0
  6
CONTINUOUS
 10
-332.56117797498689
 20
-99.010450975684904
 30
0.0
 11
-333.3722363470406
 21
-99.552382853996747
 31
0.0
  0
ENDBLK
  5
3FD
  8
0
  0
BLOCK
  8
0
  2
*U35
 70
     1
 10
0.0
 20
0.0
 30
0.0
  3
*U35
  1

  0
TEXT
  5
3FF
  8
0
 10
-680.98506091291529
 20
0.3781003058409169
 30
0.0
 40
12.5
  1
Underlay
  7
ARIAL
  0
ENDBLK
  5
401
  8
0
  0
BLOCK
  8
0
  2
*U36
 70
     1
 10
0.0
 20
0.0
 30
0.0
  3
*U36
  1

  0
SOLID
  5
403
  8
0
  6
CONTINUOUS
 10
-418.97280582536399
 20
-182.33533862283059
 30
0.0
 11
-419.92951440627678
 21
-182.52563979155241
 31
0.0
 12
-418.01609724445137
 22
-182.52563979155241
 32
0.0
 13
-418.01609724445137
 23
-182.52563979155241
 33
0.0
210
0.0
220
0.0
230
1.0
  0
SOLID
  5
404
  8
0
  6
CONTINUOUS
 10
-419.92951440627678
 20
-182.52563979155241
 30
0.0
 11
-420.74057277833049
 21
-183.06757166986421
 31
0.0
 12
-417.20503887239772
 22
-183.06757166986421
 32
0.0
 13
-417.20503887239772
 23
-183.06757166986421
 33
0.0
210
0.0
220
0.0
230
1.0
  0
SOLID
  5
405
  8
0
  6
CONTINUOUS
 10
419.92951440627678
 20
-182.52563979155241
 30
0.0
 11
418.01609724445137
 21
-182.52563979155241
 31
0.0
 12
417.20503887239772
 22
-183.06757166986421
 32
0.0
 13
417.20503887239772
 23
-183.06757166986421
 33
0.0
210
0.0
220
0.0
230
-1.0
  0
SOLID
  5
406
  8
0
  6
CONTINUOUS
 10
-420.74057277833049
 20
-183.06757166986421
 30
0.0
 11
-421.28250465664229
 21
-183.87863004191789
 31
0.0
 12
-416.66310699408592
 22
-183.87863004191789
 32
0.0
 13
-416.66310699408592
 23
-183.87863004191789
 33
0.0
210
0.0
220
0.0
230
1.0
  0
SOLID
  5
407
  8
0
  6
CONTINUOUS
 10
420.74057277833049
 20
-183.06757166986421
 30
0.0
 11
417.20503887239772
 21
-183.06757166986421
 31
0.0
 12
416.66310699408592
 22
-183.87863004191789
 32
0.0
 13
416.66310699408592
 23
-183.87863004191789
 33
0.0
210
0.0
220
0.0
230
-1.0
  0
SOLID
  5
408
  8
0
  6
CONTINUOUS
 10
-421.28250465664229
 20
-183.87863004191789
 30
0.0
 11
-421.47280582536411
 21
-184.83533862283059
 31
0.0
 12
-416.47280582536399
 22
-184.83533862283059
 32
0.0
 13
-416.47280582536399
 23
-184.83533862283059
 33
0.0
210
0.0
220
0.0
230
1.0
  0
SOLID
  5
409
  8
0
  6
CONTINUOUS
 10
421.28250465664229
 20
-183.87863004191789
 30
0.0
 11
416.66310699408592
 21
-183.87863004191789
 31
0.0
 12
416.47280582536399
 22
-184.83533862283059
 32
0.0
 13
416.47280582536399
 23
-184.83533862283059
 33
0.0
210
0.0
220
0.0
230
-1.0
  0
SOLID
  5
40A
  8
0
  6
CONTINUOUS
 10
-421.47280582536411
 20
-184.83533862283059
 30
0.0
 11
-421.28250465664229
 21
-185.79204720374329
 31
0.0
 12
-416.66310699408592
 22
-185.79204720374329
 32
0.0
 13
-416.66310699408592
 23
-185.79204720374329
 33
0.0
  0
SOLID
  5
40B
  8
0
  6
CONTINUOUS
 10
421.47280582536411
 20
-184.83533862283059
 30
0.0
 11
416.47280582536399
 21
-184.83533862283059
 31
0.0
 12
416.66310699408592
 22
-185.79204720374329
 32
0.0
 13
416.66310699408592
 23
-185.79204720374329
 33
0.0
210
0.0
220
0.0
230
-1.0
  0
SOLID
  5
40C
  8
0
  6
CONTINUOUS
 10
-421.28250465664229
 20
-185.79204720374329
 30
0.0
 11
-420.74057277833049
 21
-186.603105575797
 31
0.0
 12
-417.20503887239772
 22
-186.603105575797
 32
0.0
 13
-417.20503887239772
 23
-186.603105575797
 33
0.0
210
0.0
220
0.0
230
1.0
  0
SOLID
  5
40D
  8
0
  6
CONTINUOUS
 10
421.28250465664229
 20
-185.79204720374329
 30
0.0
 11
416.66310699408592
 21
-185.79204720374329
 31
0.0
 12
417.20503887239772
 22
-186.603105575797
 32
0.0
 13
417.20503887239772
 23
-186.603105575797
 33
0.0
210
0.0
220
0.0
230
-1.0
  0
SOLID
  5
40E
  8
0
  6
CONTINUOUS
 10
419.92951440627678
 20
-187.1450374541088
 30
0.0
 11
418.01609724445137
 21
-187.1450374541088
 31
0.0
 12
418.97280582536399
 22
-187.33533862283059
 32
0.0
 13
418.97280582536399
 23
-187.33533862283059
 33
0.0
210
0.0
220
0.0
230
-1.0
  0
SOLID
  5
40F
  8
0
  6
CONTINUOUS
 10
-420.74057277833049
 20
-186.603105575797
 30
0.0
 11
-419.92951440627678
 21
-187.1450374541088
 31
0.0
 12
-418.01609724445137
 22
-187.1450374541088
 32
0.0
 13
-418.01609724445137
 23
-187.1450374541088
 33
0.0
210
0.0
220
0.0
230
1.0
  0
SOLID
  5
410
  8
0
  6
CONTINUOUS
 10
420.74057277833049
 20
-186.603105575797
 30
0.0
 11
417.20503887239772
 21
-186.603105575797
 31
0.0
 12
418.01609724445137
 22
-187.1450374541088
 32
0.0
 13
418.01609724445137
 23
-187.1450374541088
 33
0.0
210
0.0
220
0.0
230
-1.0
  0
LINE
  5
411
  8
0
  6
CONTINUOUS
 10
-418.97280582536399
 20
-182.33533862283059
 30
0.0
 11
-419.92951440627678
 21
-182.52563979155241
 31
0.0
  0
LINE
  5
412
  8
0
  6
CONTINUOUS
 10
-418.01609724445137
 20
-182.52563979155241
 30
0.0
 11
-418.97280582536399
 21
-182.33533862283059
 31
0.0
  0
LINE
  5
413
  8
0
  6
CONTINUOUS
 10
-419.92951440627678
 20
-182.52563979155241
 30
0.0
 11
-420.74057277833049
 21
-183.06757166986421
 31
0.0
  0
LINE
  5
414
  8
0
  6
CONTINUOUS
 10
-418.01609724445137
 20
-182.52563979155241
 30
0.0
 11
-417.20503887239772
 21
-183.06757166986421
 31
0.0
  0
LINE
  5
415
  8
0
  6
CONTINUOUS
 10
-420.74057277833049
 20
-183.06757166986421
 30
0.0
 11
-421.28250465664229
 21
-183.87863004191789
 31
0.0
  0
LINE
  5
416
  8
0
  6
CONTINUOUS
 10
-417.20503887239772
 20
-183.06757166986421
 30
0.0
 11
-416.66310699408592
 21
-183.87863004191789
 31
0.0
  0
LINE
  5
417
  8
0
  6
CONTINUOUS
 10
-421.28250465664229
 20
-183.87863004191789
 30
0.0
 11
-421.47280582536411
 21
-184.83533862283059
 31
0.0
  0
LINE
  5
418
  8
0
  6
CONTINUOUS
 10
-416.66310699408592
 20
-183.87863004191789
 30
0.0
 11
-416.47280582536399
 21
-184.83533862283059
 31
0.0
  0
LINE
  5
419
  8
0
  6
CONTINUOUS
 10
-421.47280582536411
 20
-184.83533862283059
 30
0.0
 11
-421.28250465664229
 21
-185.79204720374329
 31
0.0
  0
LINE
  5
41A
  8
0
  6
CONTINUOUS
 10
-416.47280582536399
 20
-184.83533862283059
 30
0.0
 11
-416.66310699408592
 21
-185.79204720374329
 31
0.0
  0
LINE
  5
41B
  8
0
  6
CONTINUOUS
 10
-421.28250465664229
 20
-185.79204720374329
 30
0.0
 11
-420.74057277833049
 21
-186.603105575797
 31
0.0
  0
LINE
  5
41C
  8
0
  6
CONTINUOUS
 10
-416.66310699408592
 20
-185.79204720374329
 30
0.0
 11
-417.20503887239772
 21
-186.603105575797
 31
0.0
  0
LINE
  5
41D
  8
0
  6
CONTINUOUS
 10
-418.01609724445137
 20
-187.1450374541088
 30
0.0
 11
-418.97280582536399
 21
-187.33533862283059
 31
0.0
  0
LINE
  5
41E
  8
0
  6
CONTINUOUS
 10
-418.97280582536399
 20
-187.33533862283059
 30
0.0
 11
-419.92951440627678
 21
-187.1450374541088
 31
0.0
  0
LINE
  5
41F
  8
0
  6
CONTINUOUS
 10
-420.74057277833049
 20
-186.603105575797
 30
0.0
 11
-419.92951440627678
 21
-187.1450374541088
 31
0.0
  0
LINE
  5
420
  8
0
  6
CONTINUOUS
 10
-417.20503887239772
 20
-186.603105575797
 30
0.0
 11
-418.01609724445137
 21
-187.1450374541088
 31
0.0
  0
ENDBLK
  5
422
  8
0
  0
BLOCK
  8
0
  2
*U37
 70
     1
 10
0.0
 20
0.0
 30
0.0
  3
*U37
  1

  0
TEXT
  5
424
  8
0
 10
-680.98506091291529
 20
-90.105451327276285
 30
0.0
 40
12.5
  1
Rafter
  7
ARIAL
  0
ENDBLK
  5
426
  8
0
  0
BLOCK
  8
0
  2
*X38
 70
     1
 10
0.0
 20
0.0
 30
0.0
  3
*X38
  1

  0
LINE
  5
432
  8
0
 62
     0
 10
-24.00000000000405
 20
119.9998670034076
 30
0.0
 11
-12.000000000004199
 21
119.9998670034076
 31
0.0
  0
LINE
  5
433
  8
0
 62
     0
 10
-24.00000000000411
 20
134.99986700340759
 30
0.0
 11
-12.000000000004251
 21
134.99986700340759
 31
0.0
  0
LINE
  5
434
  8
0
 62
     0
 10
-24.000000000004171
 20
149.99986700340759
 30
0.0
 11
-12.000000000004301
 21
149.99986700340759
 31
0.0
  0
LINE
  5
435
  8
0
 62
     0
 10
-24.000000000004231
 20
164.99986700340759
 30
0.0
 11
-12.00000000000435
 21
164.99986700340759
 31
0.0
  0
LINE
  5
436
  8
0
 62
     0
 10
-24.000000000004281
 20
179.99986700340759
 30
0.0
 11
-12.0000000000044
 21
179.99986700340759
 31
0.0
  0
LINE
  5
437
  8
0
 62
     0
 10
-24.000000000004341
 20
194.99986700340759
 30
0.0
 11
-12.00000000000445
 21
194.99986700340759
 31
0.0
  0
LINE
  5
438
  8
0
 62
     0
 10
-24.000000000004398
 20
209.99986700340759
 30
0.0
 11
-12.0000000000045
 21
209.99986700340759
 31
0.0
  0
LINE
  5
439
  8
0
 62
     0
 10
-24.000000000004459
 20
224.99986700340759
 30
0.0
 11
-12.00000000000456
 21
224.99986700340759
 31
0.0
  0
LINE
  5
43A
  8
0
 62
     0
 10
-24.000000000004508
 20
239.99986700340759
 30
0.0
 11
-12.000000000004601
 21
239.99986700340759
 31
0.0
  0
LINE
  5
43B
  8
0
 62
     0
 10
-24.000000000004569
 20
254.99986700340759
 30
0.0
 11
-12.000000000004651
 21
254.99986700340759
 31
0.0
  0
LINE
  5
43C
  8
0
 62
     0
 10
-24.000000000004629
 20
269.99986700340759
 30
0.0
 11
-12.000000000004709
 21
269.99986700340759
 31
0.0
  0
LINE
  5
43D
  8
0
 62
     0
 10
-24.00000000000469
 20
284.99986700340759
 30
0.0
 11
-12.000000000004761
 21
284.99986700340759
 31
0.0
  0
LINE
  5
43E
  8
0
 62
     0
 10
-24.00000000000475
 20
299.99986700340759
 30
0.0
 11
-12.0000000000048
 21
299.99986700340759
 31
0.0
  0
LINE
  5
43F
  8
0
 62
     0
 10
-24.0000000000048
 20
314.99986700340759
 30
0.0
 11
-12.00000000000486
 21
314.99986700340759
 31
0.0
  0
LINE
  5
440
  8
0
 62
     0
 10
-24.00000000000486
 20
329.99986700340759
 30
0.0
 11
-12.00000000000491
 21
329.99986700340759
 31
0.0
  0
LINE
  5
441
  8
0
 62
     0
 10
-24.000000000004921
 20
344.99986700340759
 30
0.0
 11
-12.00000000000496
 21
344.99986700340759
 31
0.0
  0
LINE
  5
442
  8
0
 62
     0
 10
-24.000000000004981
 20
359.99986700340759
 30
0.0
 11
-12.000000000005009
 21
359.99986700340759
 31
0.0
  0
LINE
  5
443
  8
0
 62
     0
 10
-24.000000000005031
 20
374.99986700340759
 30
0.0
 11
-12.000000000005061
 21
374.99986700340759
 31
0.0
  0
ENDBLK
  5
445
  8
0
  0
ENDSEC
  0
SECTION
  2
ENTITIES
  0
CIRCLE
  5
131
  8
0
 10
-12.440567390306001
 20
29.29937405739604
 30
0.0
 40
2.4999999999999991
1001
REVIT
1002
{
1070
     1
1000
576432
1002
}
1002
{
1070
     5
1000
578835
1002
}
1002
{
1070
     2
1000
-2005028
1002
}
  0
INSERT
  5
132
  8
0
  6
CONTINUOUS
  2
*U22
 10
0.0
 20
0.0
 30
0.0
1001
REVIT
1002
{
1070
     1
1000
576432
1002
}
1002
{
1070
     5
1000
578835
1002
}
1002
{
1070
     2
1000
-2005028
1002
}
1001
ACAD
1002
{
1000
R14_HATCH_DATA
1000
132
1011
1.0
1021
0.0
1031
0.0
1021
0.0
1031
0.0
1011
0.0
1021
0.0
1031
0.0
1021
1.0
1031
0.0
1011
0.0
1021
0.0
1031
0.0
1021
0.0
1031
1.0
1040
0.0
1010
0.0
1020
0.0
1030
1.0
1000
SOLID
1070
     1
1070
     0
1071
        1
1071
        0
1071
        1
1070
     2
1040
-12.440567390306001
1040
29.29937405739604
1040
2.4999999999999991
1040
0.0
1040
6.2831853071795862
1070
     1
1071
        0
1070
     0
1070
     1
1071
        1
1040
0.0
1040
0.0
1040
0.0
1002
}
  0
LINE
  5
133
  8
0
 10
-12.440567390306001
 20
29.29937405739604
 30
0.0
 11
-505.78700586316842
 21
46.260389380772637
 31
0.0
1001
REVIT
1002
{
1070
     1
1000
576432
1002
}
1002
{
1070
     5
1000
578835
1002
}
1002
{
1070
     2
1000
-2005028
1002
}
  0
INSERT
  5
135
  8
0
  2
*U23
 10
0.0
 20
0.0
 30
0.0
  0
CIRCLE
  5
14D
  8
0
 10
-12.44056739030604
 20
256.61584549561678
 30
0.0
 40
2.4999999999999978
1001
REVIT
1002
{
1070
     1
1000
576916
1002
}
1002
{
1070
     5
1000
233011
1002
}
1002
{
1070
     2
1000
-2005028
1002
}
  0
INSERT
  5
14E
  8
0
  6
CONTINUOUS
  2
*U24
 10
0.0
 20
0.0
 30
0.0
1001
REVIT
1002
{
1070
     1
1000
576916
1002
}
1002
{
1070
     5
1000
233011
1002
}
1002
{
1070
     2
1000
-2005028
1002
}
1001
ACAD
1002
{
1000
R14_HATCH_DATA
1000
14E
1011
1.0
1021
0.0
1031
0.0
1021
0.0
1031
0.0
1011
0.0
1021
0.0
1031
0.0
1021
1.0
1031
0.0
1011
0.0
1021
0.0
1031
0.0
1021
0.0
1031
1.0
1040
0.0
1010
0.0
1020
0.0
1030
1.0
1000
SOLID
1070
     1
1070
     0
1071
        1
1071
        0
1071
        1
1070
     2
1040
-12.44056739030604
1040
256.61584549561678
1040
2.4999999999999978
1040
0.0
1040
6.2831853071795862
1070
     1
1071
        0
1070
     0
1070
     1
1071
        1
1040
0.0
1040
0.0
1040
0.0
1002
}
  0
LINE
  5
14F
  8
0
 10
-12.44056739030604
 20
256.61584549561678
 30
0.0
 11
182.04960822034491
 21
256.62188756303499
 31
0.0
1001
REVIT
1002
{
1070
     1
1000
576916
1002
}
1002
{
1070
     5
1000
233011
1002
}
1002
{
1070
     2
1000
-2005028
1002
}
  0
INSERT
  5
150
  8
0
  2
*U25
 10
0.0
 20
0.0
 30
0.0
  0
CIRCLE
  5
151
  8
0
 10
-4.7631840265110723
 20
29.29937405739604
 30
0.0
 40
2.5000000000000009
1001
REVIT
1002
{
1070
     1
1000
576917
1002
}
1002
{
1070
     5
1000
233013
1002
}
1002
{
1070
     2
1000
-2005028
1002
}
  0
INSERT
  5
152
  8
0
  6
CONTINUOUS
  2
*U26
 10
0.0
 20
0.0
 30
0.0
1001
REVIT
1002
{
1070
     1
1000
576917
1002
}
1002
{
1070
     5
1000
233013
1002
}
1002
{
1070
     2
1000
-2005028
1002
}
1001
ACAD
1002
{
1000
R14_HATCH_DATA
1000
152
1011
1.0
1021
0.0
1031
0.0
1021
0.0
1031
0.0
1011
0.0
1021
0.0
1031
0.0
1021
1.0
1031
0.0
1011
0.0
1021
0.0
1031
0.0
1021
0.0
1031
1.0
1040
0.0
1010
0.0
1020
0.0
1030
1.0
1000
SOLID
1070
     1
1070
     0
1071
        1
1071
        0
1071
        1
1070
     2
1040
-4.7631840265110723
1040
29.29937405739604
1040
2.5000000000000009
1040
0.0
1040
6.2831853071795862
1070
     1
1071
        0
1070
     0
1070
     1
1071
        1
1040
0.0
1040
0.0
1040
0.0
1002
}
  0
LINE
  5
153
  8
0
 10
125.3190612689075
 20
-30.662384731449151
 30
0.0
 11
182.04960822034491
 21
-30.66238473144913
 31
0.0
1001
REVIT
1002
{
1070
     1
1000
576917
1002
}
1002
{
1070
     5
1000
233013
1002
}
1002
{
1070
     2
1000
-2005028
1002
}
  0
LINE
  5
154
  8
0
 10
-4.7631840265110723
 20
29.29937405739604
 30
0.0
 11
125.3190612689075
 21
-30.662384731449141
 31
0.0
1001
REVIT
1002
{
1070
     1
1000
576917
1002
}
1002
{
1070
     5
1000
233013
1002
}
1002
{
1070
     2
1000
-2005028
1002
}
  0
INSERT
  5
155
  8
0
  2
*U27
 10
0.0
 20
0.0
 30
0.0
  0
CIRCLE
  5
156
  8
0
 10
-27.753346810145459
 20
54.046392683306813
 30
0.0
 40
2.5
1001
REVIT
1002
{
1070
     1
1000
576918
1002
}
1002
{
1070
     5
1000
233013
1002
}
1002
{
1070
     2
1000
-2005028
1002
}
  0
INSERT
  5
157
  8
0
  6
CONTINUOUS
  2
*U28
 10
0.0
 20
0.0
 30
0.0
1001
REVIT
1002
{
1070
     1
1000
576918
1002
}
1002
{
1070
     5
1000
233013
1002
}
1002
{
1070
     2
1000
-2005028
1002
}
1001
ACAD
1002
{
1000
R14_HATCH_DATA
1000
157
1011
1.0
1021
0.0
1031
0.0
1021
0.0
1031
0.0
1011
0.0
1021
0.0
1031
0.0
1021
1.0
1031
0.0
1011
0.0
1021
0.0
1031
0.0
1021
0.0
1031
1.0
1040
0.0
1010
0.0
1020
0.0
1030
1.0
1000
SOLID
1070
     1
1070
     0
1071
        1
1071
        0
1071
        1
1070
     2
1040
-27.753346810145459
1040
54.046392683306813
1040
2.5
1040
0.0
1040
6.2831853071795862
1070
     1
1071
        0
1070
     0
1070
     1
1071
        1
1040
0.0
1040
0.0
1040
0.0
1002
}
  0
LINE
  5
158
  8
0
 10
125.3190612689075
 20
27.266429077949478
 30
0.0
 11
182.04960822034491
 21
27.26642907794945
 31
0.0
1001
REVIT
1002
{
1070
     1
1000
576918
1002
}
1002
{
1070
     5
1000
233013
1002
}
1002
{
1070
     2
1000
-2005028
1002
}
  0
LINE
  5
159
  8
0
 10
-27.753346810145459
 20
54.046392683306813
 30
0.0
 11
125.3190612689075
 21
27.266429077949478
 31
0.0
1001
REVIT
1002
{
1070
     1
1000
576918
1002
}
1002
{
1070
     5
1000
233013
1002
}
1002
{
1070
     2
1000
-2005028
1002
}
  0
INSERT
  5
15A
  8
0
  2
*U29
 10
0.0
 20
0.0
 30
0.0
  0
CIRCLE
  5
15B
  8
0
 10
45.87844951896728
 20
96.605583799739719
 30
0.0
 40
2.5000000000000022
1001
REVIT
1002
{
1070
     1
1000
576919
1002
}
1002
{
1070
     5
1000
233013
1002
}
1002
{
1070
     2
1000
-2005028
1002
}
  0
INSERT
  5
15C
  8
0
  6
CONTINUOUS
  2
*U30
 10
0.0
 20
0.0
 30
0.0
1001
REVIT
1002
{
1070
     1
1000
576919
1002
}
1002
{
1070
     5
1000
233013
1002
}
1002
{
1070
     2
1000
-2005028
1002
}
1001
ACAD
1002
{
1000
R14_HATCH_DATA
1000
15C
1011
1.0
1021
0.0
1031
0.0
1021
0.0
1031
0.0
1011
0.0
1021
0.0
1031
0.0
1021
1.0
1031
0.0
1011
0.0
1021
0.0
1031
0.0
1021
0.0
1031
1.0
1040
0.0
1010
0.0
1020
0.0
1030
1.0
1000
SOLID
1070
     1
1070
     0
1071
        1
1071
        0
1071
        1
1070
     2
1040
45.87844951896728
1040
96.605583799739719
1040
2.5000000000000022
1040
0.0
1040
6.2831853071795862
1070
     1
1071
        0
1070
     0
1070
     1
1071
        1
1040
0.0
1040
0.0
1040
0.0
1002
}
  0
LINE
  5
15D
  8
0
 10
45.87844951896728
 20
96.605583799739719
 30
0.0
 11
182.04960822034491
 21
96.611625867157883
 31
0.0
1001
REVIT
1002
{
1070
     1
1000
576919
1002
}
1002
{
1070
     5
1000
233013
1002
}
1002
{
1070
     2
1000
-2005028
1002
}
  0
INSERT
  5
15E
  8
0
  2
*U31
 10
0.0
 20
0.0
 30
0.0
  0
CIRCLE
  5
15F
  8
0
 10
-365.18911232016762
 20
-120.71750920099331
 30
0.0
 40
2.500000000000036
1001
REVIT
1002
{
1070
     1
1000
576920
1002
}
1002
{
1070
     5
1000
233013
1002
}
1002
{
1070
     2
1000
-2005028
1002
}
  0
INSERT
  5
160
  8
0
  6
CONTINUOUS
  2
*U32
 10
0.0
 20
0.0
 30
0.0
1001
REVIT
1002
{
1070
     1
1000
576920
1002
}
1002
{
1070
     5
1000
233013
1002
}
1002
{
1070
     2
1000
-2005028
1002
}
1001
ACAD
1002
{
1000
R14_HATCH_DATA
1000
160
1011
1.0
1021
0.0
1031
0.0
1021
0.0
1031
0.0
1011
0.0
1021
0.0
1031
0.0
1021
1.0
1031
0.0
1011
0.0
1021
0.0
1031
0.0
1021
0.0
1031
1.0
1040
0.0
1010
0.0
1020
0.0
1030
1.0
1000
SOLID
1070
     1
1070
     0
1071
        1
1071
        0
1071
        1
1070
     2
1040
-365.18911232016762
1040
-120.71750920099331
1040
2.500000000000036
1040
0.0
1040
6.2831853071795862
1070
     1
1071
        0
1070
     0
1070
     1
1071
        1
1040
0.0
1040
0.0
1040
0.0
1002
}
  0
LINE
  5
161
  8
0
 10
-433.19161168363718
 20
-39.845016916198603
 30
0.0
 11
-490.48324017279191
 21
-39.83897484878036
 31
0.0
1001
REVIT
1002
{
1070
     1
1000
576920
1002
}
1002
{
1070
     5
1000
233013
1002
}
1002
{
1070
     2
1000
-2005028
1002
}
  0
LINE
  5
162
  8
0
 10
-365.18911232016762
 20
-120.71750920099331
 30
0.0
 11
-433.19161168363718
 21
-39.845016916198588
 31
0.0
1001
REVIT
1002
{
1070
     1
1000
576920
1002
}
1002
{
1070
     5
1000
233013
1002
}
1002
{
1070
     2
1000
-2005028
1002
}
  0
INSERT
  5
163
  8
0
  2
*U33
 10
0.0
 20
0.0
 30
0.0
  0
CIRCLE
  5
164
  8
0
 10
-334.32894492795327
 20
-97.242684022718535
 30
0.0
 40
2.5000000000000022
1001
REVIT
1002
{
1070
     1
1000
576921
1002
}
1002
{
1070
     5
1000
233013
1002
}
1002
{
1070
     2
1000
-2005028
1002
}
  0
INSERT
  5
165
  8
0
  6
CONTINUOUS
  2
*U34
 10
0.0
 20
0.0
 30
0.0
1001
REVIT
1002
{
1070
     1
1000
576921
1002
}
1002
{
1070
     5
1000
233013
1002
}
1002
{
1070
     2
1000
-2005028
1002
}
1001
ACAD
1002
{
1000
R14_HATCH_DATA
1000
165
1011
1.0
1021
0.0
1031
0.0
1021
0.0
1031
0.0
1011
0.0
1021
0.0
1031
0.0
1021
1.0
1031
0.0
1011
0.0
1021
0.0
1031
0.0
1021
0.0
1031
1.0
1040
0.0
1010
0.0
1020
0.0
1030
1.0
1000
SOLID
1070
     1
1070
     0
1071
        1
1071
        0
1071
        1
1070
     2
1040
-334.32894492795327
1040
-97.242684022718535
1040
2.5000000000000022
1040
0.0
1040
6.2831853071795862
1070
     1
1071
        0
1070
     0
1070
     1
1071
        1
1040
0.0
1040
0.0
1040
0.0
1002
}
  0
LINE
  5
166
  8
0
 10
-415.76204204687463
 20
6.1661103632891141
 30
0.0
 11
-610.4902694614949
 21
6.1661103632891123
 31
0.0
1001
REVIT
1002
{
1070
     1
1000
576921
1002
}
1002
{
1070
     5
1000
233013
1002
}
1002
{
1070
     2
1000
-2005028
1002
}
  0
LINE
  5
167
  8
0
 10
-334.32894492795327
 20
-97.242684022718535
 30
0.0
 11
-415.76204204687463
 21
6.1661103632891061
 31
0.0
1001
REVIT
1002
{
1070
     1
1000
576921
1002
}
1002
{
1070
     5
1000
233013
1002
}
1002
{
1070
     2
1000
-2005028
1002
}
  0
INSERT
  5
168
  8
0
  2
*U35
 10
0.0
 20
0.0
 30
0.0
  0
CIRCLE
  5
169
  8
0
 10
-418.97280582536399
 20
-184.83533862283059
 30
0.0
 40
2.5000000000000351
1001
REVIT
1002
{
1070
     1
1000
576923
1002
}
1002
{
1070
     5
1000
233013
1002
}
1002
{
1070
     2
1000
-2005028
1002
}
  0
INSERT
  5
16A
  8
0
  6
CONTINUOUS
  2
*U36
 10
0.0
 20
0.0
 30
0.0
1001
REVIT
1002
{
1070
     1
1000
576923
1002
}
1002
{
1070
     5
1000
233013
1002
}
1002
{
1070
     2
1000
-2005028
1002
}
1001
ACAD
1002
{
1000
R14_HATCH_DATA
1000
16A
1011
1.0
1021
0.0
1031
0.0
1021
0.0
1031
0.0
1011
0.0
1021
0.0
1031
0.0
1021
1.0
1031
0.0
1011
0.0
1021
0.0
1031
0.0
1021
0.0
1031
1.0
1040
0.0
1010
0.0
1020
0.0
1030
1.0
1000
SOLID
1070
     1
1070
     0
1071
        1
1071
        0
1071
        1
1070
     2
1040
-418.97280582536399
1040
-184.83533862283059
1040
2.5000000000000351
1040
0.0
1040
6.2831853071795862
1070
     1
1071
        0
1070
     0
1070
     1
1071
        1
1040
0.0
1040
0.0
1040
0.0
1002
}
  0
LINE
  5
16B
  8
0
 10
-470.28958089970092
 20
-84.323483337246316
 30
0.0
 11
-632.29813557028137
 21
-84.31744126982808
 31
0.0
1001
REVIT
1002
{
1070
     1
1000
576923
1002
}
1002
{
1070
     5
1000
233013
1002
}
1002
{
1070
     2
1000
-2005028
1002
}
  0
LINE
  5
16C
  8
0
 10
-418.97280582536399
 20
-184.83533862283059
 30
0.0
 11
-470.28958089970092
 21
-84.323483337246316
 31
0.0
1001
REVIT
1002
{
1070
     1
1000
576923
1002
}
1002
{
1070
     5
1000
233013
1002
}
1002
{
1070
     2
1000
-2005028
1002
}
  0
INSERT
  5
16D
  8
0
  2
*U37
 10
0.0
 20
0.0
 30
0.0
  0
LINE
  5
1D1
  8
0
 10
-481.68669974230068
 20
-361.36359308439881
 30
0.0
 11
-481.68669974229982
 21
-214.9175862259988
 31
0.0
  0
LINE
  5
1D2
  8
0
 10
-481.68669974229903
 20
-61.36359308439873
 30
0.0
 11
-481.68669974229982
 21
-207.8095999427986
 31
0.0
  0
LINE
  5
1D3
  8
0
 10
-481.68669974230068
 20
-361.36359308439881
 30
0.0
 11
-481.68669974229982
 21
-214.9175862259988
 31
0.0
  0
LINE
  5
1D4
  8
0
 10
-481.68669974229982
 20
-214.9175862259988
 30
0.0
 11
-471.37908058141892
 21
-213.10007486106809
 31
0.0
  0
LINE
  5
1D5
  8
0
 10
-471.37908058141892
 20
-213.10007486106809
 30
0.0
 11
-491.99431890318073
 21
-209.62711130772931
 31
0.0
  0
LINE
  5
1D6
  8
0
 10
-491.99431890318073
 20
-209.62711130772931
 30
0.0
 11
-481.68669974229982
 21
-207.8095999427986
 31
0.0
  0
LINE
  5
1D7
  8
0
 10
-481.68669974229982
 20
-207.8095999427986
 30
0.0
 11
-481.68669974229903
 21
-61.36359308439873
 31
0.0
  0
LINE
  5
1D8
  8
0
 10
155.0
 20
292.57015353608961
 30
0.0
 11
28.553993141600099
 21
292.57015353608961
 31
0.0
  0
LINE
  5
1D9
  8
0
 10
-105.0
 20
292.57015353608961
 30
0.0
 11
21.446006858399901
 21
292.57015353608961
 31
0.0
  0
LINE
  5
1DA
  8
0
 10
-105.0
 20
292.57015353608961
 30
0.0
 11
21.446006858399901
 21
292.57015353608961
 31
0.0
  0
LINE
  5
1DB
  8
0
 10
21.446006858399901
 20
292.57015353608961
 30
0.0
 11
23.263518223330689
 21
302.8777726969704
 31
0.0
  0
LINE
  5
1DC
  8
0
 10
23.263518223330689
 20
302.8777726969704
 30
0.0
 11
26.736481776669311
 21
282.26253437520859
 31
0.0
  0
LINE
  5
1DD
  8
0
 10
26.736481776669311
 20
282.26253437520859
 30
0.0
 11
28.553993141600099
 21
292.57015353608961
 31
0.0
  0
LINE
  5
1DE
  8
0
 10
28.553993141600099
 20
292.57015353608961
 30
0.0
 11
155.0
 21
292.57015353608961
 31
0.0
  0
LINE
  5
1DF
  8
0
 10
150.0
 20
-299.78379451763601
 30
0.0
 11
53.553993141600102
 21
-299.78379451763601
 31
0.0
  0
LINE
  5
1E0
  8
0
 10
-50.0
 20
-299.78379451763601
 30
0.0
 11
46.44600685839989
 21
-299.78379451763601
 31
0.0
  0
LINE
  5
1E1
  8
0
 10
150.0
 20
-299.78379451763601
 30
0.0
 11
53.553993141600102
 21
-299.78379451763601
 31
0.0
  0
LINE
  5
1E2
  8
0
 10
53.553993141600102
 20
-299.78379451763601
 30
0.0
 11
51.736481776669308
 21
-289.47617535675511
 31
0.0
  0
LINE
  5
1E3
  8
0
 10
51.736481776669308
 20
-289.47617535675511
 30
0.0
 11
48.263518223330692
 21
-310.0914136785168
 31
0.0
  0
LINE
  5
1E4
  8
0
 10
48.263518223330692
 20
-310.0914136785168
 30
0.0
 11
46.44600685839989
 21
-299.78379451763601
 31
0.0
  0
LINE
  5
1E5
  8
0
 10
46.44600685839989
 20
-299.78379451763601
 30
0.0
 11
-50.0
 21
-299.78379451763601
 31
0.0
  0
LINE
  5
1E6
  8
0
 10
155.0
 20
292.57015353608961
 30
0.0
 11
28.553993141600099
 21
292.57015353608961
 31
0.0
  0
LINE
  5
1E7
  8
0
 10
-105.0
 20
292.57015353608961
 30
0.0
 11
21.446006858399901
 21
292.57015353608961
 31
0.0
  0
LINE
  5
1E8
  8
0
 10
-105.0
 20
292.57015353608961
 30
0.0
 11
21.446006858399901
 21
292.57015353608961
 31
0.0
  0
LINE
  5
1E9
  8
0
 10
21.446006858399901
 20
292.57015353608961
 30
0.0
 11
23.263518223330689
 21
302.8777726969704
 31
0.0
  0
LINE
  5
1EA
  8
0
 10
23.263518223330689
 20
302.8777726969704
 30
0.0
 11
26.736481776669311
 21
282.26253437520859
 31
0.0
  0
LINE
  5
1EB
  8
0
 10
26.736481776669311
 20
282.26253437520859
 30
0.0
 11
28.553993141600099
 21
292.57015353608961
 31
0.0
  0
LINE
  5
1EC
  8
0
 10
28.553993141600099
 20
292.57015353608961
 30
0.0
 11
155.0
 21
292.57015353608961
 31
0.0
  0
LINE
  5
1ED
  8
0
 10
-355.13065819524149
 20
-90.709816512223284
 30
0.0
 11
-358.88942867838642
 21
-92.077897085526644
 31
0.0
1001
REVIT
1002
{
1070
     3
1000
211597
1002
}
  0
LINE
  5
1EE
  8
0
 10
-348.41721872243392
 20
-113.54054647087651
 30
0.0
 11
-356.28368201892567
 21
-91.927616192801139
 31
0.0
1001
REVIT
1002
{
1070
     3
1000
211597
1002
}
  0
LINE
  5
1EF
  8
0
 10
-348.20302474617648
 20
-115.59094178411149
 30
0.0
 11
-348.41721872243392
 21
-113.54054647087651
 31
0.0
1001
REVIT
1002
{
1070
     3
1000
211597
1002
}
  0
LINE
  5
1F0
  8
0
 10
-349.35691134321979
 20
-113.8825666142022
 30
0.0
 11
-348.20302474617648
 21
-115.59094178411149
 31
0.0
1001
REVIT
1002
{
1070
     3
1000
211597
1002
}
  0
LINE
  5
1F1
  8
0
 10
-357.22337463971149
 20
-92.269636336126865
 30
0.0
 11
-349.35691134321979
 21
-113.8825666142022
 31
0.0
1001
REVIT
1002
{
1070
     3
1000
211597
1002
}
  0
LINE
  5
1F2
  8
0
 10
-358.35087755524398
 20
-92.680013836429112
 30
0.0
 11
-357.22337463971149
 21
-92.269636336126865
 31
0.0
1001
REVIT
1002
{
1070
     3
1000
211597
1002
}
  0
LINE
  5
1F3
  8
0
 10
-356.28368201892567
 20
-91.927616192801139
 30
0.0
 11
-355.1561791033937
 21
-91.517238692499035
 31
0.0
1001
REVIT
1002
{
1070
     3
1000
211597
1002
}
  0
LINE
  5
1F4
  8
0
 10
-355.13065819524149
 20
-90.709816512223284
 30
0.0
 11
-355.1561791033937
 21
-91.517238692499035
 31
0.0
1001
REVIT
1002
{
1070
     3
1000
211597
1002
}
  0
LINE
  5
1F5
  8
0
 10
-358.88942867838642
 20
-92.077897085526644
 30
0.0
 11
-358.35087755524398
 21
-92.680013836429112
 31
0.0
1001
REVIT
1002
{
1070
     3
1000
211597
1002
}
  0
LINE
  5
1F6
  8
0
 10
-27.650635094618149
 20
40.387471620830453
 30
0.0
 11
-27.650635094618231
 21
95.387471620830453
 31
0.0
1001
REVIT
1002
{
1070
     3
1000
578786
1002
}
  0
LINE
  5
1F7
  8
0
 10
-27.650635094618231
 20
95.387471620830453
 30
0.0
 11
-6.0000000000072538
 21
107.8874716208304
 31
0.0
1001
REVIT
1002
{
1070
     3
1000
578786
1002
}
  0
LINE
  5
1F8
  8
0
 10
-6.0000000000072538
 20
107.8874716208304
 30
0.0
 11
-6.000000000007339
 21
162.88747162083041
 31
0.0
1001
REVIT
1002
{
1070
     3
1000
578786
1002
}
  0
LINE
  5
1F9
  8
0
 10
-516.69442038042166
 20
-183.79628927743971
 30
0.0
 11
-2.0758973404116352
 21
3.509535110926576
 31
0.0
  0
LINE
  5
1FA
  8
0
 10
-2.0758973404116352
 20
3.509535110926576
 30
0.0
 11
-7.2061994902910804
 21
17.604924422717399
 31
0.0
  0
LINE
  5
1FB
  8
0
 10
-7.2061994902910804
 20
17.604924422717399
 30
0.0
 11
-350.65245359174008
 21
-107.399289140281
 31
0.0
  0
LINE
  5
1FC
  8
0
 10
-351.59214621252619
 20
-107.7413092836063
 30
0.0
 11
-521.82472253030096
 21
-169.70089996564889
 31
0.0
  0
LINE
  5
1FD
  8
0
 10
-4.6410484153515252
 20
10.55722976682245
 30
0.0
 11
-348.31391184812247
 21
-114.529462847584
 31
0.0
1001
REVIT
1002
{
1070
     3
1000
456193
1002
}
  0
LINE
  5
1FE
  8
0
 10
-348.80038580625938
 20
-114.70652488809129
 30
0.0
 11
-519.25957145536154
 21
-176.74859462154379
 31
0.0
1001
REVIT
1002
{
1070
     3
1000
456193
1002
}
  0
LINE
  5
1FF
  8
0
 10
-3.7859980570380971
 20
8.2079982148568007
 30
0.0
 11
-518.40452109704813
 21
-179.0978261735095
 31
0.0
1001
REVIT
1002
{
1070
     3
1000
456193
1002
}
  0
LINE
  5
200
  8
0
 10
-5.4960987736644764
 20
12.906461318786789
 30
0.0
 11
-348.9423528751114
 21
-112.09775224421089
 31
0.0
1001
REVIT
1002
{
1070
     3
1000
456193
1002
}
  0
LINE
  5
201
  8
0
 10
-349.88204549589739
 20
-112.4397723875361
 30
0.0
 11
-520.11462181367392
 21
-174.39936306957921
 31
0.0
1001
REVIT
1002
{
1070
     3
1000
456193
1002
}
  0
LINE
  5
202
  8
0
 10
-6.3511491319777083
 20
15.255692870751901
 30
0.0
 11
-349.79740323342571
 21
-109.7485206922461
 31
0.0
1001
REVIT
1002
{
1070
     3
1000
456193
1002
}
  0
LINE
  5
203
  8
0
 10
-350.7370958542117
 20
-110.0905408355714
 30
0.0
 11
-520.9696721719871
 21
-172.05013151761409
 31
0.0
1001
REVIT
1002
{
1070
     3
1000
456193
1002
}
  0
LINE
  5
204
  8
0
 10
-2.9309476987248662
 20
5.8587666628916866
 30
0.0
 11
-517.54947073873484
 21
-181.44705772547459
 31
0.0
1001
REVIT
1002
{
1070
     3
1000
456193
1002
}
  0
LINE
  5
205
  8
0
  6
DASH
 10
-3.328252168963548
 20
217.57015353608941
 30
0.0
 11
-3.328252168963338
 21
347.57015353608938
 31
0.0
1001
REVIT
1002
{
1070
     3
1000
217411
1002
}
  0
LINE
  5
206
  8
0
  6
DASH
 10
-9.0000000000073097
 20
211.8984057050456
 30
0.0
 11
-3.3282521689635862
 21
217.57015353608929
 31
0.0
1001
REVIT
1002
{
1070
     3
1000
217411
1002
}
  0
LINE
  5
207
  8
0
  6
DASH
 10
-9.0000000000074643
 20
125.13185967338261
 30
0.0
 11
-9.0000000000073221
 21
211.8984057050456
 31
0.0
1001
REVIT
1002
{
1070
     3
1000
217411
1002
}
  0
LINE
  5
208
  8
0
  6
DASH
 10
-6.7731699255729163
 20
24.14760092980055
 30
0.0
 11
-142.05068597668449
 21
-25.089388278322421
 31
0.0
1001
REVIT
1002
{
1070
     3
1000
217411
1002
}
  0
LINE
  5
209
  8
0
  6
DASH
 10
-3.0000000000072751
 20
212.215528681824
 30
0.0
 11
-3.000000000007629
 21
31.91893326719622
 31
0.0
1001
REVIT
1002
{
1070
     3
1000
217411
1002
}
  0
LINE
  5
20A
  8
0
  6
DASH
 10
-2.9308787023294749
 20
22.353547248911429
 30
0.0
 11
-351.67851402171431
 21
-104.5802112779316
 31
0.0
1001
REVIT
1002
{
1070
     3
1000
217411
1002
}
  0
LINE
  5
20B
  8
0
  6
DASH
 10
-352.61820664250041
 20
-104.922231421257
 30
0.0
 11
-515.74160580682076
 21
-164.29429322932961
 31
0.0
1001
REVIT
1002
{
1070
     3
1000
217411
1002
}
  0
INSERT
  5
20C
  8
0
  6
CONTINUOUS
  2
*X38
 10
0.0
 20
0.0
 30
0.0
1001
ACAD
1000
HATCH
1002
{
1070
    19
1000
FP_1
1040
1.0
1040
3.1415926535897931
1000
R14_HATCH_DATA
1000
20C
1011
1.0
1021
0.0
1031
0.0
1021
0.0
1031
0.0
1011
0.0
1021
0.0
1031
0.0
1021
1.0
1031
0.0
1011
0.0
1021
0.0
1031
0.0
1021
0.0
1031
1.0
1040
0.0
1010
0.0
1020
0.0
1030
1.0
1000
FP_1
1070
     0
1070
     0
1071
        1
1071
        0
1071
        4
1070
     1
1040
-24.000000000004011
1040
109.4233700056932
1040
-12.00000000000416
1040
109.4233700056932
1070
     1
1040
-12.00000000000416
1040
109.4233700056932
1040
-12.00000000000508
1040
381.62786700340843
1070
     1
1040
-12.00000000000508
1040
381.62786700340843
1040
-24.000000000005059
1040
381.62786700340843
1070
     1
1040
-24.000000000005059
1040
381.62786700340843
1040
-24.000000000004011
1040
109.4233700056932
1071
        0
1070
     0
1070
     2
1040
3.1415926535897931
1040
1.0
1070
     0
1070
     1
1040
6.2831853071795862
1040
-0.0000000000057945
1040
-0.0001329965924128
1040
0.0
1040
15.0
1070
     0
1071
        1
1040
-18.000000000005748
1040
381.62786700340757
1040
0.0
1002
}
  0
LINE
  5
20D
  8
0
 10
-24.000000000004
 20
109.4233700056929
 30
0.0
 11
-12.000000000004
 21
109.4233700056929
 31
0.0
1001
REVIT
1002
{
1070
     3
1000
224526
1002
}
  0
LINE
  5
20E
  8
0
 10
-12.000000000004
 20
109.4233700056929
 30
0.0
 11
-12.00000000000488
 21
381.62786700340791
 31
0.0
1001
REVIT
1002
{
1070
     3
1000
224526
1002
}
  0
LINE
  5
20F
  8
0
 10
-24.000000000004871
 20
381.6278670034078
 30
0.0
 11
-24.000000000004
 21
109.4233700056929
 31
0.0
1001
REVIT
1002
{
1070
     3
1000
224526
1002
}
  0
LINE
  5
210
  8
0
 10
-12.389680539935229
 20
25.103358245730352
 30
0.0
 11
-12.41468168301696
 21
60.490074040662087
 31
0.0
  0
LINE
  5
211
  8
0
 10
-29.285709779257559
 20
18.284958414556741
 30
0.0
 11
-12.389680539935229
 21
25.103358245730352
 31
0.0
1001
REVIT
1002
{
1070
     3
1000
578788
1002
}
  0
LINE
  5
212
  8
0
 10
-389.91182617850052
 20
-94.522961998155765
 30
0.0
 11
-29.28570977926233
 21
18.28495841455447
 31
0.0
1001
REVIT
1002
{
1070
     3
1000
578788
1002
}
  0
LINE
  5
213
  8
0
 10
-391.66345462149059
 20
-98.466812177800307
 30
0.0
 11
-391.3722215833713
 21
-96.285757957298514
 31
0.0
1001
REVIT
1002
{
1070
     3
1000
578788
1002
}
  0
LINE
  5
214
  8
0
 10
-391.61861775462341
 20
-99.280666549986023
 30
0.0
 11
-391.66345462149059
 21
-98.466812177800307
 31
0.0
1001
REVIT
1002
{
1070
     3
1000
578788
1002
}
  0
LINE
  5
215
  8
0
 10
-389.27417240912069
 20
-108.4519183996281
 30
0.0
 11
-391.61861775462341
 21
-99.280666549985966
 31
0.0
1001
REVIT
1002
{
1070
     3
1000
578788
1002
}
  0
LINE
  5
216
  8
0
 10
-372.26282214453408
 20
-106.1677644285371
 30
0.0
 11
-386.84141433651178
 21
-109.89415606006639
 31
0.0
1001
REVIT
1002
{
1070
     3
1000
578788
1002
}
  0
ARC
  5
217
  8
0
 10
-389.32198702632252
 20
-96.497949821032165
 30
0.0
 40
2.0611858542964998
 50
106.62849598174761
 51
174.09113167162749
1001
REVIT
1002
{
1070
     3
1000
578788
1002
}
  0
ARC
  5
218
  8
0
 10
-387.33665917000792
 20
-107.9566322631488
 30
0.0
 40
1.9998164687606921
 50
194.33942886434181
 51
284.3382074635648
1001
REVIT
1002
{
1070
     3
1000
578788
1002
}
  0
ARC
  5
219
  8
0
 10
-738.22466087732857
 20
-234.0339916337347
 30
0.0
 40
1.999816468760713
 50
193.74816403320611
 51
283.74694263243208
1001
REVIT
1002
{
1070
     3
1000
578788
1002
}
  0
ARC
  5
21A
  8
0
 10
-740.09163704176558
 20
-222.55543205477369
 30
0.0
 40
2.0611858542965171
 50
106.0372311505765
 51
173.49986684050239
1001
REVIT
1002
{
1070
     3
1000
578788
1002
}
  0
ARC
  5
21B
  8
0
 10
-372.85614691283217
 20
-106.30576449003991
 30
0.0
 40
2.6309694047366419
 50
292.02229061155839
 51
104.6782553486654
1001
REVIT
1002
{
1070
     3
1000
578788
1002
}
  0
ARC
  5
21C
  8
0
 10
-385.12100878442033
 20
-103.8409134930565
 30
0.0
 40
3.0000413488272741
 50
106.2177580300834
 51
284.55283328428038
1001
REVIT
1002
{
1070
     3
1000
578788
1002
}
  0
LINE
  5
21D
  8
0
 10
-723.13316654339962
 20
-232.40077102118909
 30
0.0
 11
-737.74943637044828
 21
-235.97652286303
 31
0.0
1001
REVIT
1002
{
1070
     3
1000
578788
1002
}
  0
LINE
  5
21E
  8
0
 10
-740.16718197560056
 20
-234.50925755034839
 30
0.0
 11
-742.41686127008165
 21
-225.31430091425719
 31
0.0
1001
REVIT
1002
{
1070
     3
1000
578788
1002
}
  0
LINE
  5
21F
  8
0
 10
-742.41686127008165
 20
-225.31430091425719
 30
0.0
 11
-742.45329731375193
 21
-224.50002718971629
 31
0.0
1001
REVIT
1002
{
1070
     3
1000
578788
1002
}
  0
LINE
  5
220
  8
0
 10
-742.45329731375193
 20
-224.50002718971629
 30
0.0
 11
-742.13957275362554
 21
-222.32209443234461
 31
0.0
1001
REVIT
1002
{
1070
     3
1000
578788
1002
}
  0
LINE
  5
221
  8
0
 10
-740.66106422675011
 20
-220.5744626438659
 30
0.0
 11
-378.89004692717708
 21
-111.4939704416723
 31
0.0
1001
REVIT
1002
{
1070
     3
1000
578788
1002
}
  0
LINE
  5
222
  8
0
 10
-378.89004692718481
 20
-111.4939704416747
 30
0.0
 11
-371.86961946901789
 21
-108.7447732254203
 31
0.0
1001
REVIT
1002
{
1070
     3
1000
578788
1002
}
  0
LINE
  5
223
  8
0
 10
-373.52281044179659
 20
-103.7606594336996
 30
0.0
 11
-384.3671804724504
 21
-106.7447025643813
 31
0.0
1001
REVIT
1002
{
1070
     3
1000
578788
1002
}
  0
LINE
  5
224
  8
0
 10
-385.9588864996058
 20
-100.960252279191
 30
0.0
 11
-356.96417439586469
 21
-92.981783153213144
 31
0.0
1001
REVIT
1002
{
1070
     3
1000
578788
1002
}
  0
LINE
  5
225
  8
0
 10
-355.9968751419193
 20
-92.715611611120494
 30
0.0
 11
-339.5998237651396
 21
-88.203638265821084
 31
0.0
1001
REVIT
1002
{
1070
     3
1000
578788
1002
}
  0
ARC
  5
226
  8
0
 10
50.056108817492827
 20
204.61912273478799
 30
0.0
 40
2.0000000000000031
 50
0.0
 51
90.000000000000185
1001
REVIT
1002
{
1070
     3
1000
224526
1002
}
  0
ARC
  5
227
  8
0
 10
4.0561088174928868
 20
204.61912273478811
 30
0.0
 40
2.0000000000000031
 50
89.999999999999801
 51
180.0
1001
REVIT
1002
{
1070
     3
1000
224526
1002
}
  0
ARC
  5
228
  8
0
 10
4.0561088174928983
 20
58.619122734788057
 30
0.0
 40
2.0000000000000031
 50
180.0
 51
269.9999999999996
1001
REVIT
1002
{
1070
     3
1000
224526
1002
}
  0
ARC
  5
229
  8
0
 10
50.056108817492891
 20
58.61912273478805
 30
0.0
 40
1.9999999999999969
 50
269.99999999999977
 51
0.0
1001
REVIT
1002
{
1070
     3
1000
224526
1002
}
  0
LINE
  5
22A
  8
0
 10
50.056108817492827
 20
206.61912273478811
 30
0.0
 11
4.0561088174928983
 21
206.61912273478811
 31
0.0
1001
REVIT
1002
{
1070
     3
1000
224526
1002
}
  0
LINE
  5
22B
  8
0
 10
2.0561088174928872
 20
204.61912273478811
 30
0.0
 11
2.0561088174928872
 21
58.619122734788057
 31
0.0
1001
REVIT
1002
{
1070
     3
1000
224526
1002
}
  0
LINE
  5
22C
  8
0
 10
4.0561088174928841
 20
56.619122734788043
 30
0.0
 11
50.056108817492898
 21
56.619122734788043
 31
0.0
1001
REVIT
1002
{
1070
     3
1000
224526
1002
}
  0
LINE
  5
22D
  8
0
 10
52.056108817492898
 20
58.61912273478805
 30
0.0
 11
52.056108817492898
 21
204.61912273478799
 31
0.0
1001
REVIT
1002
{
1070
     3
1000
224526
1002
}
  0
LINE
  5
22E
  8
0
 10
4.0561088174927269
 20
204.61912273478831
 30
0.0
 11
50.056108817492927
 21
58.619122734788121
 31
0.0
  0
LINE
  5
22F
  8
0
 10
50.056108817492927
 20
204.61912273478831
 30
0.0
 11
4.0561088174929303
 21
58.61912273478805
 31
0.0
  0
LINE
  5
230
  8
0
 10
100.0000000000024
 20
-339.78379451763669
 30
0.0
 11
100.00000000000369
 21
347.57015353608938
 31
0.0
1001
REVIT
1002
{
1070
     3
1000
206265
1002
}
  0
LINE
  5
231
  8
0
 10
0.0000000000035953
 20
347.57015353608961
 30
0.0
 11
0.0000000000022453
 21
-339.78379451763652
 31
0.0
1001
REVIT
1002
{
1070
     3
1000
206265
1002
}
  0
ARC
  5
232
  8
0
 10
-3.9999999999994378
 20
-108.6986460757394
 30
0.0
 40
1.9999999999999969
 50
0.0
 51
90.000000000000185
1001
REVIT
1002
{
1070
     3
1000
224526
1002
}
  0
ARC
  5
233
  8
0
 10
-49.999999999999368
 20
-108.6986460757394
 30
0.0
 40
2.0
 50
89.999999999999801
 51
180.0
1001
REVIT
1002
{
1070
     3
1000
224526
1002
}
  0
ARC
  5
234
  8
0
 10
-49.999999999999361
 20
-204.69864607573939
 30
0.0
 40
1.999999999999996
 50
180.0
 51
269.99999999999937
1001
REVIT
1002
{
1070
     3
1000
224526
1002
}
  0
ARC
  5
235
  8
0
 10
-3.9999999999993712
 20
-204.69864607573939
 30
0.0
 40
2.0000000000000009
 50
269.99999999999977
 51
0.0
1001
REVIT
1002
{
1070
     3
1000
224526
1002
}
  0
LINE
  5
236
  8
0
 10
-3.9999999999994351
 20
-106.6986460757394
 30
0.0
 11
-49.999999999999368
 21
-106.6986460757394
 31
0.0
1001
REVIT
1002
{
1070
     3
1000
224526
1002
}
  0
LINE
  5
237
  8
0
 10
-51.999999999999382
 20
-108.6986460757393
 30
0.0
 11
-51.999999999999382
 21
-204.69864607573939
 31
0.0
1001
REVIT
1002
{
1070
     3
1000
224526
1002
}
  0
LINE
  5
238
  8
0
 10
-49.999999999999368
 20
-206.69864607573939
 30
0.0
 11
-3.9999999999993641
 21
-206.69864607573939
 31
0.0
1001
REVIT
1002
{
1070
     3
1000
224526
1002
}
  0
LINE
  5
239
  8
0
 10
-1.9999999999993641
 20
-204.69864607573939
 30
0.0
 11
-1.9999999999993641
 21
-108.6986460757394
 31
0.0
1001
REVIT
1002
{
1070
     3
1000
224526
1002
}
  0
LINE
  5
23A
  8
0
 10
-49.999999999999531
 20
-108.69864607573921
 30
0.0
 11
-3.9999999999993392
 21
-204.6986460757393
 31
0.0
  0
LINE
  5
23B
  8
0
 10
-3.9999999999993392
 20
-108.69864607573921
 30
0.0
 11
-49.999999999999332
 21
-204.69864607573939
 31
0.0
  0
LINE
  5
23C
  8
0
 10
-0.0000000000003411
 20
-0.0000000000001137
 30
0.0
 11
-515.90679836560901
 21
-187.7747182603386
 31
0.0
1001
REVIT
1002
{
1070
     3
1000
206265
1002
}
  0
LINE
  5
23D
  8
0
 10
-515.9067983656671
 20
-294.19249550793012
 30
0.0
 11
-51.999999999999382
 21
-125.34422942938041
 31
0.0
1001
REVIT
1002
{
1070
     3
1000
206265
1002
}
  0
LINE
  5
23E
  8
0
 10
-1.9999999999994309
 20
-107.1457177161012
 30
0.0
 11
-0.0000000000585487
 21
-106.4177772475915
 31
0.0
1001
REVIT
1002
{
1070
     3
1000
206265
1002
}
  0
LINE
  5
23F
  8
0
  6
DASH
 10
-6.7731699255729181
 20
24.147600929800561
 30
0.0
 11
-3.0000000000075651
 21
31.918933267196209
 31
0.0
1001
REVIT
1002
{
1070
     3
1000
217411
1002
}
  0
LINE
  5
240
  8
0
  6
DASH
 10
-3.0000000000072751
 20
212.215528681824
 30
0.0
 11
-3.000000000007629
 21
31.91893326719622
 31
0.0
1001
REVIT
1002
{
1070
     3
1000
217411
1002
}
  0
VIEWPORT
  5
1C0
 67
     1
  8
0
 10
128.5
 20
97.5
 30
0.0
 40
620.98982300884961
 41
222.18000000000001
 68
     1
 69
     1
1001
ACAD
1000
MVIEW
1002
{
1070
    16
1010
0.0
1020
0.0
1030
0.0
1010
0.0
1020
0.0
1030
1.0
1040
0.0
1040
222.18000000000001
1040
128.5
1040
97.5
1040
50.0
1040
0.0
1040
0.0
1070
     0
1070
   100
1070
     1
1070
     1
1070
     0
1070
     0
1070
     0
1070
     0
1040
0.0
1040
0.0
1040
0.0
1040
10.0
1040
10.0
1040
10.0
1040
10.0
1070
     0
1002
{
1002
}
1002
}
  0
VIEWPORT
  5
1C4
 67
     1
  8
0
 10
128.5
 20
97.5
 30
0.0
 40
205.59999999999999
 41
156.0
 68
     2
 69
     2
1001
ACAD
1000
MVIEW
1002
{
1070
    16
1010
0.0
1020
0.0
1030
0.0
1010
0.0
1020
0.0
1030
1.0
1040
0.0
1040
867.07705560897671
1040
-176.5593776137294
1040
10.13213695950458
1040
50.0
1040
0.0
1040
0.0
1070
     0
1070
  1000
1070
     1
1070
     1
1070
     0
1070
     0
1070
     0
1070
     0
1040
0.0
1040
0.0
1040
0.0
1040
1.0
1040
1.0
1040
0.0
1040
0.0
1070
     0
1002
{
1002
}
1002
}
  0
ENDSEC
  0
EOF
